  0
SECTION
  2
HEADER
  9
$ACADVER
  1
AC1018
  9
$ACADMAINTVER
 70
     0
  9
$DWGCODEPAGE
  3
ANSI_1252
  9
$INSBASE
 10
0.0
 20
0.0
 30
0.0
  9
$EXTMIN
 10
1.000000000000000E+20
 20
1.000000000000000E+20
 30
1.000000000000000E+20
  9
$EXTMAX
 10
-1.000000000000000E+20
 20
-1.000000000000000E+20
 30
-1.000000000000000E+20
  9
$LIMMIN
 10
0.0
 20
0.0
  9
$LIMMAX
 10
12.0
 20
9.0
  9
$ORTHOMODE
 70
     0
  9
$REGENMODE
 70
     1
  9
$FILLMODE
 70
     1
  9
$QTEXTMODE
 70
     0
  9
$MIRRTEXT
 70
     1
  9
$LTSCALE
 40
1.0
  9
$ATTMODE
 70
     1
  9
$TEXTSIZE
 40
0.2
  9
$TRACEWID
 40
0.05
  9
$TEXTSTYLE
  7
Standard
  9
$CLAYER
  8
0
  9
$CELTYPE
  6
ByLayer
  9
$CECOLOR
 62
   256
  9
$CELTSCALE
 40
1.0
  9
$DISPSILH
 70
     0
  9
$DIMSCALE
 40
1.0
  9
$DIMASZ
 40
0.18
  9
$DIMEXO
 40
0.0625
  9
$DIMDLI
 40
0.38
  9
$DIMRND
 40
0.0
  9
$DIMDLE
 40
0.0
  9
$DIMEXE
 40
0.18
  9
$DIMTP
 40
0.0
  9
$DIMTM
 40
0.0
  9
$DIMTXT
 40
0.18
  9
$DIMCEN
 40
0.09
  9
$DIMTSZ
 40
0.0
  9
$DIMTOL
 70
     0
  9
$DIMLIM
 70
     0
  9
$DIMTIH
 70
     1
  9
$DIMTOH
 70
     1
  9
$DIMSE1
 70
     0
  9
$DIMSE2
 70
     0
  9
$DIMTAD
 70
     0
  9
$DIMZIN
 70
     0
  9
$DIMBLK
  1

  9
$DIMASO
 70
     1
  9
$DIMSHO
 70
     1
  9
$DIMPOST
  1

  9
$DIMAPOST
  1

  9
$DIMALT
 70
     0
  9
$DIMALTD
 70
     2
  9
$DIMALTF
 40
25.4
  9
$DIMLFAC
 40
1.0
  9
$DIMTOFL
 70
     0
  9
$DIMTVP
 40
0.0
  9
$DIMTIX
 70
     0
  9
$DIMSOXD
 70
     0
  9
$DIMSAH
 70
     0
  9
$DIMBLK1
  1

  9
$DIMBLK2
  1

  9
$DIMSTYLE
  2
Standard
  9
$DIMCLRD
 70
     0
  9
$DIMCLRE
 70
     0
  9
$DIMCLRT
 70
     0
  9
$DIMTFAC
 40
1.0
  9
$DIMGAP
 40
0.09
  9
$DIMJUST
 70
     0
  9
$DIMSD1
 70
     0
  9
$DIMSD2
 70
     0
  9
$DIMTOLJ
 70
     1
  9
$DIMTZIN
 70
     0
  9
$DIMALTZ
 70
     0
  9
$DIMALTTZ
 70
     0
  9
$DIMUPT
 70
     0
  9
$DIMDEC
 70
     4
  9
$DIMTDEC
 70
     4
  9
$DIMALTU
 70
     2
  9
$DIMALTTD
 70
     2
  9
$DIMTXSTY
  7
Standard
  9
$DIMAUNIT
 70
     0
  9
$DIMADEC
 70
     0
  9
$DIMALTRND
 40
0.0
  9
$DIMAZIN
 70
     0
  9
$DIMDSEP
 70
    46
  9
$DIMATFIT
 70
     3
  9
$DIMFRAC
 70
     0
  9
$DIMLDRBLK
  1

  9
$DIMLUNIT
 70
     2
  9
$DIMLWD
 70
    -2
  9
$DIMLWE
 70
    -2
  9
$DIMTMOVE
 70
     0
  9
$LUNITS
 70
     2
  9
$LUPREC
 70
     4
  9
$SKETCHINC
 40
0.1
  9
$FILLETRAD
 40
0.5
  9
$AUNITS
 70
     0
  9
$AUPREC
 70
     0
  9
$MENU
  1
.
  9
$ELEVATION
 40
0.0
  9
$PELEVATION
 40
0.0
  9
$THICKNESS
 40
0.0
  9
$LIMCHECK
 70
     0
  9
$CHAMFERA
 40
0.5
  9
$CHAMFERB
 40
0.5
  9
$CHAMFERC
 40
1.0
  9
$CHAMFERD
 40
0.0
  9
$SKPOLY
 70
     0
  9
$TDCREATE
 40
2457686.835753981
  9
$TDUCREATE
 40
2457686.752420648
  9
$TDUPDATE
 40
2457686.835753993
  9
$TDUUPDATE
 40
2457686.75242066
  9
$TDINDWG
 40
0.0000000116
  9
$TDUSRTIMER
 40
0.0000000116
  9
$USRTIMER
 70
     1
  9
$ANGBASE
 50
0.0
  9
$ANGDIR
 70
     0
  9
$PDMODE
 70
     0
  9
$PDSIZE
 40
0.0
  9
$PLINEWID
 40
0.0
  9
$SPLFRAME
 70
     0
  9
$SPLINETYPE
 70
     6
  9
$SPLINESEGS
 70
     8
  9
$HANDSEED
  5
A3
  9
$SURFTAB1
 70
     6
  9
$SURFTAB2
 70
     6
  9
$SURFTYPE
 70
     6
  9
$SURFU
 70
     6
  9
$SURFV
 70
     6
  9
$UCSBASE
  2

  9
$UCSNAME
  2

  9
$UCSORG
 10
0.0
 20
0.0
 30
0.0
  9
$UCSXDIR
 10
1.0
 20
0.0
 30
0.0
  9
$UCSYDIR
 10
0.0
 20
1.0
 30
0.0
  9
$UCSORTHOREF
  2

  9
$UCSORTHOVIEW
 70
     0
  9
$UCSORGTOP
 10
0.0
 20
0.0
 30
0.0
  9
$UCSORGBOTTOM
 10
0.0
 20
0.0
 30
0.0
  9
$UCSORGLEFT
 10
0.0
 20
0.0
 30
0.0
  9
$UCSORGRIGHT
 10
0.0
 20
0.0
 30
0.0
  9
$UCSORGFRONT
 10
0.0
 20
0.0
 30
0.0
  9
$UCSORGBACK
 10
0.0
 20
0.0
 30
0.0
  9
$PUCSBASE
  2

  9
$PUCSNAME
  2

  9
$PUCSORG
 10
0.0
 20
0.0
 30
0.0
  9
$PUCSXDIR
 10
1.0
 20
0.0
 30
0.0
  9
$PUCSYDIR
 10
0.0
 20
1.0
 30
0.0
  9
$PUCSORTHOREF
  2

  9
$PUCSORTHOVIEW
 70
     0
  9
$PUCSORGTOP
 10
0.0
 20
0.0
 30
0.0
  9
$PUCSORGBOTTOM
 10
0.0
 20
0.0
 30
0.0
  9
$PUCSORGLEFT
 10
0.0
 20
0.0
 30
0.0
  9
$PUCSORGRIGHT
 10
0.0
 20
0.0
 30
0.0
  9
$PUCSORGFRONT
 10
0.0
 20
0.0
 30
0.0
  9
$PUCSORGBACK
 10
0.0
 20
0.0
 30
0.0
  9
$USERI1
 70
     0
  9
$USERI2
 70
     0
  9
$USERI3
 70
     0
  9
$USERI4
 70
     0
  9
$USERI5
 70
     0
  9
$USERR1
 40
0.0
  9
$USERR2
 40
0.0
  9
$USERR3
 40
0.0
  9
$USERR4
 40
0.0
  9
$USERR5
 40
0.0
  9
$WORLDVIEW
 70
     1
  9
$SHADEDGE
 70
     3
  9
$SHADEDIF
 70
    70
  9
$TILEMODE
 70
     1
  9
$MAXACTVP
 70
    64
  9
$PINSBASE
 10
0.0
 20
0.0
 30
0.0
  9
$PLIMCHECK
 70
     0
  9
$PEXTMIN
 10
1.000000000000000E+20
 20
1.000000000000000E+20
 30
1.000000000000000E+20
  9
$PEXTMAX
 10
-1.000000000000000E+20
 20
-1.000000000000000E+20
 30
-1.000000000000000E+20
  9
$PLIMMIN
 10
0.0
 20
0.0
  9
$PLIMMAX
 10
12.0
 20
9.0
  9
$UNITMODE
 70
     0
  9
$VISRETAIN
 70
     1
  9
$PLINEGEN
 70
     0
  9
$PSLTSCALE
 70
     1
  9
$TREEDEPTH
 70
  3020
  9
$CMLSTYLE
  2
Standard
  9
$CMLJUST
 70
     0
  9
$CMLSCALE
 40
1.0
  9
$PROXYGRAPHICS
 70
     1
  9
$MEASUREMENT
 70
     0
  9
$CELWEIGHT
370
    -1
  9
$ENDCAPS
280
     0
  9
$JOINSTYLE
280
     0
  9
$LWDISPLAY
290
     1
  9
$INSUNITS
 70
     1
  9
$HYPERLINKBASE
  1

  9
$STYLESHEET
  1

  9
$XEDIT
290
     1
  9
$CEPSNTYPE
380
     0
  9
$PSTYLEMODE
290
     1
  9
$FINGERPRINTGUID
  2
{22B9E981-6D0E-4A12-AF07-BB2FA6F01D6A}
  9
$VERSIONGUID
  2
{FAEB1C32-E019-11D5-929B-00C0DF256EC4}
  9
$EXTNAMES
290
     1
  9
$PSVPSCALE
 40
0.0
  9
$OLESTARTUP
290
     0
  9
$SORTENTS
280
   127
  9
$INDEXCTL
280
     0
  9
$HIDETEXT
280
     1
  9
$XCLIPFRAME
290
     0
  9
$HALOGAP
280
     0
  9
$OBSCOLOR
 70
   257
  9
$OBSLTYPE
280
     0
  9
$INTERSECTIONDISPLAY
280
     0
  9
$INTERSECTIONCOLOR
 70
   257
  9
$DIMASSOC
280
     2
  9
$PROJECTNAME
  1

  0
ENDSEC
  0
SECTION
  2
CLASSES
  0
CLASS
  1
ACDBDICTIONARYWDFLT
  2
AcDbDictionaryWithDefault
  3
ObjectDBX Classes
 90
        0
 91
        3
280
     0
281
     0
  0
CLASS
  1
VISUALSTYLE
  2
AcDbVisualStyle
  3
ObjectDBX Classes
 90
     4095
 91
        3
280
     0
281
     0
  0
ENDSEC
  0
SECTION
  2
TABLES
  0
TABLE
  2
VPORT
  5
8
330
0
100
AcDbSymbolTable
 70
     1
  0
VPORT
  5
29
330
8
100
AcDbSymbolTableRecord
100
AcDbViewportTableRecord
  2
*Active
 70
     0
 10
0.0
 20
0.0
 11
1.0
 21
1.0
 12
0.0
 22
0.0
 13
0.0
 23
0.0
 14
0.5
 24
0.5
 15
0.5
 25
0.5
 16
0.0
 26
0.0
 36
1.0
 17
374.9993325885418
 27
-49.99918754175368
 37
0.0
 40
99.99837508350736
 41
7.500108522271182
 42
50.0
 43
0.0
 44
0.0
 50
0.0
 51
0.0
 71
     0
 72
   100
 73
     1
 74
     3
 75
     0
 76
     0
 77
     0
 78
     0
281
     0
 65
     1
110
0.0
120
0.0
130
0.0
111
1.0
121
0.0
131
0.0
112
0.0
122
1.0
132
0.0
 79
     0
146
0.0
  0
ENDTAB
  0
TABLE
  2
LTYPE
  5
5
330
0
100
AcDbSymbolTable
 70
     1
  0
LTYPE
  5
14
330
5
100
AcDbSymbolTableRecord
100
AcDbLinetypeTableRecord
  2
ByBlock
 70
     0
  3

 72
    65
 73
     0
 40
0.0
  0
LTYPE
  5
15
330
5
100
AcDbSymbolTableRecord
100
AcDbLinetypeTableRecord
  2
ByLayer
 70
     0
  3

 72
    65
 73
     0
 40
0.0
  0
LTYPE
  5
16
330
5
100
AcDbSymbolTableRecord
100
AcDbLinetypeTableRecord
  2
Continuous
 70
     0
  3
Solid line
 72
    65
 73
     0
 40
0.0
  0
ENDTAB
  0
TABLE
  2
LAYER
  5
2
330
0
100
AcDbSymbolTable
 70
     2
  0
LAYER
  5
10
330
2
100
AcDbSymbolTableRecord
100
AcDbLayerTableRecord
  2
0
 70
     0
 62
     7
  6
Continuous
370
    -3
390
F
  0
LAYER
  5
3B
330
2
100
AcDbSymbolTableRecord
100
AcDbLayerTableRecord
  2
Calque 1
 70
     0
 62
     7
  6
Continuous
370
    -3
390
F
  0
ENDTAB
  0
TABLE
  2
STYLE
  5
3
330
0
100
AcDbSymbolTable
 70
     1
  0
STYLE
  5
11
330
3
100
AcDbSymbolTableRecord
100
AcDbTextStyleTableRecord
  2
Standard
 70
     0
 40
0.0
 41
1.0
 50
0.0
 71
     0
 42
0.2
  3
txt
  4

  0
ENDTAB
  0
TABLE
  2
VIEW
  5
6
330
0
100
AcDbSymbolTable
 70
     0
  0
ENDTAB
  0
TABLE
  2
UCS
  5
7
330
0
100
AcDbSymbolTable
 70
     0
  0
ENDTAB
  0
TABLE
  2
APPID
  5
9
330
0
100
AcDbSymbolTable
 70
     1
  0
APPID
  5
12
330
9
100
AcDbSymbolTableRecord
100
AcDbRegAppTableRecord
  2
ACAD
 70
     0
  0
ENDTAB
  0
TABLE
  2
DIMSTYLE
  5
A
330
0
100
AcDbSymbolTable
 70
     1
100
AcDbDimStyleTable
  0
DIMSTYLE
105
27
330
A
100
AcDbSymbolTableRecord
100
AcDbDimStyleTableRecord
  2
Standard
 70
     0
340
11
  0
ENDTAB
  0
TABLE
  2
BLOCK_RECORD
  5
1
330
0
100
AcDbSymbolTable
 70
     1
  0
BLOCK_RECORD
  5
1F
330
1
100
AcDbSymbolTableRecord
100
AcDbBlockTableRecord
  2
*Model_Space
340
22
  0
BLOCK_RECORD
  5
1B
330
1
100
AcDbSymbolTableRecord
100
AcDbBlockTableRecord
  2
*Paper_Space
340
1E
  0
BLOCK_RECORD
  5
23
330
1
100
AcDbSymbolTableRecord
100
AcDbBlockTableRecord
  2
*Paper_Space0
340
26
  0
ENDTAB
  0
ENDSEC
  0
SECTION
  2
BLOCKS
  0
BLOCK
  5
20
330
1F
100
AcDbEntity
  8
0
100
AcDbBlockBegin
  2
*Model_Space
 70
     0
 71
     0
 10
0.0
 20
0.0
 30
0.0
  3
*Model_Space
  1

  0
ENDBLK
  5
21
330
1F
100
AcDbEntity
  8
0
100
AcDbBlockEnd
  0
BLOCK
  5
1C
330
1B
100
AcDbEntity
 67
     1
  8
0
100
AcDbBlockBegin
  2
*Paper_Space
 70
     0
 71
     0
 10
0.0
 20
0.0
 30
0.0
  3
*Paper_Space
  1

  0
ENDBLK
  5
1D
330
1B
100
AcDbEntity
 67
     1
  8
0
100
AcDbBlockEnd
  0
BLOCK
  5
24
330
23
100
AcDbEntity
  8
0
100
AcDbBlockBegin
  2
*Paper_Space0
 70
     0
 71
     0
 10
0.0
 20
0.0
 30
0.0
  3
*Paper_Space0
  1

  0
ENDBLK
  5
25
330
23
100
AcDbEntity
  8
0
100
AcDbBlockEnd
  0
ENDSEC
  0
SECTION
  2
ENTITIES
  0
POLYLINE
  5
3C
330
1F
100
AcDbEntity
  8
Calque 1
 62
   250
370
    35
100
AcDb2dPolyline
 66
     1
 10
0.0
 20
0.0
 30
0.0
  0
VERTEX
  5
3D
330
3C
100
AcDbEntity
  8
Calque 1
 62
   250
370
    35
100
AcDbVertex
100
AcDb2dVertex
 10
341.507492319137
 20
-100.1551269280862
 30
0.0
  0
VERTEX
  5
3E
330
3C
100
AcDbEntity
  8
Calque 1
 62
   250
370
    35
100
AcDbVertex
100
AcDb2dVertex
 10
311.5076008335814
 20
-100.1551269280862
 30
0.0
  0
VERTEX
  5
3F
330
3C
100
AcDbEntity
  8
Calque 1
 62
   250
370
    35
100
AcDbVertex
100
AcDb2dVertex
 10
311.5076008335814
 20
-0.1548570420619802
 30
0.0
  0
VERTEX
  5
40
330
3C
100
AcDbEntity
  8
Calque 1
 62
   250
370
    35
100
AcDbVertex
100
AcDb2dVertex
 10
341.507492319137
 20
-0.1548570420619802
 30
0.0
  0
VERTEX
  5
41
330
3C
100
AcDbEntity
  8
Calque 1
 62
   250
370
    35
100
AcDbVertex
100
AcDb2dVertex
 10
341.507492319137
 20
-100.1551269280862
 30
0.0
  0
SEQEND
  5
42
330
3C
100
AcDbEntity
  8
Calque 1
370
    35
  0
POLYLINE
  5
43
330
1F
100
AcDbEntity
  8
Calque 1
 62
   250
370
    35
100
AcDb2dPolyline
 66
     1
 10
0.0
 20
0.0
 30
0.0
  0
VERTEX
  5
44
330
43
100
AcDbEntity
  8
Calque 1
 62
   250
370
    35
100
AcDbVertex
100
AcDb2dVertex
 10
371.5073838046926
 20
-100.1551269280862
 30
0.0
  0
VERTEX
  5
45
330
43
100
AcDbEntity
  8
Calque 1
 62
   250
370
    35
100
AcDbVertex
100
AcDb2dVertex
 10
341.507492319137
 20
-100.1551269280862
 30
0.0
  0
VERTEX
  5
46
330
43
100
AcDbEntity
  8
Calque 1
 62
   250
370
    35
100
AcDbVertex
100
AcDb2dVertex
 10
341.507492319137
 20
-0.1548570420619802
 30
0.0
  0
VERTEX
  5
47
330
43
100
AcDbEntity
  8
Calque 1
 62
   250
370
    35
100
AcDbVertex
100
AcDb2dVertex
 10
371.5073838046926
 20
-0.1548570420619802
 30
0.0
  0
VERTEX
  5
48
330
43
100
AcDbEntity
  8
Calque 1
 62
   250
370
    35
100
AcDbVertex
100
AcDb2dVertex
 10
371.5073838046926
 20
-100.1551269280862
 30
0.0
  0
SEQEND
  5
49
330
43
100
AcDbEntity
  8
Calque 1
370
    35
  0
POLYLINE
  5
4A
330
1F
100
AcDbEntity
  8
Calque 1
 62
   250
370
    35
100
AcDb2dPolyline
 66
     1
 10
0.0
 20
0.0
 30
0.0
  0
VERTEX
  5
4B
330
4A
100
AcDbEntity
  8
Calque 1
 62
   250
370
    35
100
AcDbVertex
100
AcDb2dVertex
 10
401.5072752902482
 20
-100.1551269280862
 30
0.0
  0
VERTEX
  5
4C
330
4A
100
AcDbEntity
  8
Calque 1
 62
   250
370
    35
100
AcDbVertex
100
AcDb2dVertex
 10
371.5073838046926
 20
-100.1551269280862
 30
0.0
  0
VERTEX
  5
4D
330
4A
100
AcDbEntity
  8
Calque 1
 62
   250
370
    35
100
AcDbVertex
100
AcDb2dVertex
 10
371.5073838046926
 20
-0.1548570420619802
 30
0.0
  0
VERTEX
  5
4E
330
4A
100
AcDbEntity
  8
Calque 1
 62
   250
370
    35
100
AcDbVertex
100
AcDb2dVertex
 10
401.5072752902482
 20
-0.1548570420619802
 30
0.0
  0
VERTEX
  5
4F
330
4A
100
AcDbEntity
  8
Calque 1
 62
   250
370
    35
100
AcDbVertex
100
AcDb2dVertex
 10
401.5072752902482
 20
-100.1551269280862
 30
0.0
  0
SEQEND
  5
50
330
4A
100
AcDbEntity
  8
Calque 1
370
    35
  0
POLYLINE
  5
51
330
1F
100
AcDbEntity
  8
Calque 1
 62
   250
370
    35
100
AcDb2dPolyline
 66
     1
 10
0.0
 20
0.0
 30
0.0
  0
VERTEX
  5
52
330
51
100
AcDbEntity
  8
Calque 1
 62
   250
370
    35
100
AcDbVertex
100
AcDb2dVertex
 10
431.5071667758038
 20
-100.1551269280862
 30
0.0
  0
VERTEX
  5
53
330
51
100
AcDbEntity
  8
Calque 1
 62
   250
370
    35
100
AcDbVertex
100
AcDb2dVertex
 10
401.5072752902482
 20
-100.1551269280862
 30
0.0
  0
VERTEX
  5
54
330
51
100
AcDbEntity
  8
Calque 1
 62
   250
370
    35
100
AcDbVertex
100
AcDb2dVertex
 10
401.5072752902482
 20
-0.1548570420619802
 30
0.0
  0
VERTEX
  5
55
330
51
100
AcDbEntity
  8
Calque 1
 62
   250
370
    35
100
AcDbVertex
100
AcDb2dVertex
 10
431.5071667758038
 20
-0.1548570420619802
 30
0.0
  0
VERTEX
  5
56
330
51
100
AcDbEntity
  8
Calque 1
 62
   250
370
    35
100
AcDbVertex
100
AcDb2dVertex
 10
431.5071667758038
 20
-100.1551269280862
 30
0.0
  0
SEQEND
  5
57
330
51
100
AcDbEntity
  8
Calque 1
370
    35
  0
POLYLINE
  5
58
330
1F
100
AcDbEntity
  8
Calque 1
 62
   250
370
    35
100
AcDb2dPolyline
 66
     1
 10
0.0
 20
0.0
 30
0.0
  0
VERTEX
  5
59
330
58
100
AcDbEntity
  8
Calque 1
 62
   250
370
    35
100
AcDbVertex
100
AcDb2dVertex
 10
461.5070582613594
 20
-100.1551269280862
 30
0.0
  0
VERTEX
  5
5A
330
58
100
AcDbEntity
  8
Calque 1
 62
   250
370
    35
100
AcDbVertex
100
AcDb2dVertex
 10
431.5071667758038
 20
-100.1551269280862
 30
0.0
  0
VERTEX
  5
5B
330
58
100
AcDbEntity
  8
Calque 1
 62
   250
370
    35
100
AcDbVertex
100
AcDb2dVertex
 10
431.5071667758038
 20
-0.1548570420619802
 30
0.0
  0
VERTEX
  5
5C
330
58
100
AcDbEntity
  8
Calque 1
 62
   250
370
    35
100
AcDbVertex
100
AcDb2dVertex
 10
461.5070582613594
 20
-0.1548570420619802
 30
0.0
  0
VERTEX
  5
5D
330
58
100
AcDbEntity
  8
Calque 1
 62
   250
370
    35
100
AcDbVertex
100
AcDb2dVertex
 10
461.5070582613594
 20
-100.1551269280862
 30
0.0
  0
SEQEND
  5
5E
330
58
100
AcDbEntity
  8
Calque 1
370
    35
  0
POLYLINE
  5
5F
330
1F
100
AcDbEntity
  8
Calque 1
 62
   250
370
    35
100
AcDb2dPolyline
 66
     1
 10
0.0
 20
0.0
 30
0.0
  0
VERTEX
  5
60
330
5F
100
AcDbEntity
  8
Calque 1
 62
   250
370
    35
100
AcDbVertex
100
AcDb2dVertex
 10
491.5069497469149
 20
-100.1551269280862
 30
0.0
  0
VERTEX
  5
61
330
5F
100
AcDbEntity
  8
Calque 1
 62
   250
370
    35
100
AcDbVertex
100
AcDb2dVertex
 10
461.5070582613594
 20
-100.1551269280862
 30
0.0
  0
VERTEX
  5
62
330
5F
100
AcDbEntity
  8
Calque 1
 62
   250
370
    35
100
AcDbVertex
100
AcDb2dVertex
 10
461.5070582613594
 20
-0.1548570420619802
 30
0.0
  0
VERTEX
  5
63
330
5F
100
AcDbEntity
  8
Calque 1
 62
   250
370
    35
100
AcDbVertex
100
AcDb2dVertex
 10
491.5069497469149
 20
-0.1548570420619802
 30
0.0
  0
VERTEX
  5
64
330
5F
100
AcDbEntity
  8
Calque 1
 62
   250
370
    35
100
AcDbVertex
100
AcDb2dVertex
 10
491.5069497469149
 20
-100.1551269280862
 30
0.0
  0
SEQEND
  5
65
330
5F
100
AcDbEntity
  8
Calque 1
370
    35
  0
SPLINE
  5
66
330
1F
100
AcDbEntity
  8
Calque 1
 62
   250
370
    35
100
AcDbSpline
210
0.0
220
0.0
230
1.0
 70
    11
 71
     3
 72
    32
 73
    28
 74
     0
 42
0.0000000001
 43
0.0000000001
 40
0.0
 40
0.0
 40
0.0
 40
0.0
 40
1.0
 40
1.0
 40
1.0
 40
2.0
 40
2.0
 40
2.0
 40
3.0
 40
3.0
 40
3.0
 40
4.0
 40
4.0
 40
4.0
 40
5.0
 40
5.0
 40
5.0
 40
6.0
 40
6.0
 40
6.0
 40
7.0
 40
7.0
 40
7.0
 40
8.0
 40
8.0
 40
8.0
 40
9.0
 40
9.0
 40
9.0
 40
9.0
 10
139.544453903916
 20
-49.88549939074043
 30
0.0
 10
124.4499402900681
 20
-47.11581487537383
 30
0.0
 10
112.5273260894897
 20
-44.92817924224018
 30
0.0
 10
96.90416257343021
 20
-44.92817924224018
 30
0.0
 10
81.11632349317578
 20
-44.92817924224018
 30
0.0
 10
73.16779918960736
 20
-47.11495360150251
 30
0.0
 10
61.13631997169509
 20
-50.42534585327908
 30
0.0
 10
50.28805879819188
 20
-53.41000432692528
 30
0.0
 10
35.56768255404211
 20
-57.45902505073941
 30
0.0
 10
8.589312063824895
 20
-61.64309351757534
 30
0.0
 10
8.589312063824895
 20
-61.64309351757534
 30
0.0
 10
8.589312063824895
 20
-84.73350149791385
 30
0.0
 10
8.589312063824895
 20
-84.73350149791385
 30
0.0
 10
10.15665825483931
 20
-85.11211749174281
 30
0.0
 10
11.75759412683491
 20
-85.48625486144094
 30
0.0
 10
13.39797634213662
 20
-85.85315753062005
 30
0.0
 10
39.92762314540004
 20
-91.79112410899667
 30
0.0
 10
71.6226738644728
 20
-95.19625648661761
 30
0.0
 10
100.3559759948763
 20
-95.19625648661761
 30
0.0
 10
145.1795965891391
 20
-95.19625648661761
 30
0.0
 10
284.2854898377828
 20
-84.36901039557442
 30
0.0
 10
303.9580185872049
 20
-82.97856985772758
 30
0.0
 10
303.9580185872049
 20
-82.97856985772758
 30
0.0
 10
303.9580185872049
 20
-62.32591144275186
 30
0.0
 10
303.9580185872049
 20
-62.32591144275186
 30
0.0
 10
206.812527075033
 20
-62.22669269277667
 30
0.0
 10
167.960462740128
 20
-55.0994791528918
 30
0.0
 10
139.544453903916
 20
-49.88549939074043
 30
0.0
  0
POLYLINE
  5
67
330
1F
100
AcDbEntity
  8
Calque 1
 62
   250
370
    35
100
AcDb2dPolyline
 66
     1
 10
0.0
 20
0.0
 30
0.0
  0
VERTEX
  5
68
330
67
100
AcDbEntity
  8
Calque 1
 62
   250
370
    35
100
AcDbVertex
100
AcDb2dVertex
 10
278.4586275888055
 20
-75.82724064944597
 30
0.0
  0
VERTEX
  5
69
330
67
100
AcDbEntity
  8
Calque 1
 62
   250
370
    35
100
AcDbVertex
100
AcDb2dVertex
 10
193.4603705028502
 20
-75.82724064944597
 30
0.0
  0
VERTEX
  5
6A
330
67
100
AcDbEntity
  8
Calque 1
 62
   250
370
    35
100
AcDbVertex
100
AcDb2dVertex
 10
193.4603705028502
 20
-83.82709687574462
 30
0.0
  0
VERTEX
  5
6B
330
67
100
AcDbEntity
  8
Calque 1
 62
   250
370
    35
100
AcDbVertex
100
AcDb2dVertex
 10
174.4603243921488
 20
-83.82709687574462
 30
0.0
  0
VERTEX
  5
6C
330
67
100
AcDbEntity
  8
Calque 1
 62
   250
370
    35
100
AcDbVertex
100
AcDb2dVertex
 10
174.4603243921488
 20
-75.82724064944597
 30
0.0
  0
VERTEX
  5
6D
330
67
100
AcDbEntity
  8
Calque 1
 62
   250
370
    35
100
AcDbVertex
100
AcDb2dVertex
 10
71.45937633847197
 20
-75.82724064944597
 30
0.0
  0
VERTEX
  5
6E
330
67
100
AcDbEntity
  8
Calque 1
 62
   250
370
    35
100
AcDbVertex
100
AcDb2dVertex
 10
71.45937633847197
 20
-72.82725150089041
 30
0.0
  0
VERTEX
  5
6F
330
67
100
AcDbEntity
  8
Calque 1
 62
   250
370
    35
100
AcDbVertex
100
AcDb2dVertex
 10
278.4586275888055
 20
-72.82725150089041
 30
0.0
  0
VERTEX
  5
70
330
67
100
AcDbEntity
  8
Calque 1
 62
   250
370
    35
100
AcDbVertex
100
AcDb2dVertex
 10
278.4586275888055
 20
-75.82724064944597
 30
0.0
  0
SEQEND
  5
71
330
67
100
AcDbEntity
  8
Calque 1
370
    35
  0
SPLINE
  5
72
330
1F
100
AcDbEntity
  8
Calque 1
 62
   250
370
    35
100
AcDbSpline
210
0.0
220
0.0
230
1.0
 70
    11
 71
     3
 72
    32
 73
    28
 74
     0
 42
0.0000000001
 43
0.0000000001
 40
0.0
 40
0.0
 40
0.0
 40
0.0
 40
1.0
 40
1.0
 40
1.0
 40
2.0
 40
2.0
 40
2.0
 40
3.0
 40
3.0
 40
3.0
 40
4.0
 40
4.0
 40
4.0
 40
5.0
 40
5.0
 40
5.0
 40
6.0
 40
6.0
 40
6.0
 40
7.0
 40
7.0
 40
7.0
 40
8.0
 40
8.0
 40
8.0
 40
9.0
 40
9.0
 40
9.0
 40
9.0
 10
173.0027044923396
 20
-50.23879393275281
 30
0.0
 10
188.0973903609618
 20
-53.00830619334515
 30
0.0
 10
200.0198323067659
 20
-55.19594182647879
 30
0.0
 10
215.6429958228254
 20
-55.19594182647879
 30
0.0
 10
231.4308349030798
 20
-55.19594182647879
 30
0.0
 10
239.3793592066482
 20
-53.00933972199072
 30
0.0
 10
251.4110106793348
 20
-49.69894747021416
 30
0.0
 10
262.259271852838
 20
-46.71428899656796
 30
0.0
 10
276.9794758422135
 20
-42.66526827275382
 30
0.0
 10
303.9580185872049
 20
-38.48137206069216
 30
0.0
 10
303.9580185872049
 20
-38.48137206069216
 30
0.0
 10
303.9580185872049
 20
-15.39096408035365
 30
0.0
 10
303.9580185872049
 20
-15.39096408035365
 30
0.0
 10
302.3905001414163
 20
-15.01217583175043
 30
0.0
 10
300.7895642694207
 20
-14.6380384620523
 30
0.0
 10
299.1493543088932
 20
-14.27096353809893
 30
0.0
 10
272.6197075056298
 20
-8.333341469270831
 30
0.0
 10
240.9244845317828
 20
-4.927864582101368
 30
0.0
 10
212.1913546561535
 20
-4.927864582101368
 30
0.0
 10
167.3675618071165
 20
-4.927864582101368
 30
0.0
 10
28.26184081324704
 20
-15.75528292791882
 30
0.0
 10
8.589312063824895
 20
-17.14555121099139
 30
0.0
 10
8.589312063824895
 20
-17.14555121099139
 30
0.0
 10
8.589312063824895
 20
-37.79838188074138
 30
0.0
 10
8.589312063824895
 20
-37.79838188074138
 30
0.0
 10
105.7348035759969
 20
-37.89742837594231
 30
0.0
 10
144.5868679109019
 20
-45.02481417060144
 30
0.0
 10
173.0027044923396
 20
-50.23879393275281
 30
0.0
  0
POLYLINE
  5
73
330
1F
100
AcDbEntity
  8
Calque 1
 62
   250
370
    35
100
AcDb2dPolyline
 66
     1
 10
0.0
 20
0.0
 30
0.0
  0
VERTEX
  5
74
330
73
100
AcDbEntity
  8
Calque 1
 62
   250
370
    35
100
AcDbVertex
100
AcDb2dVertex
 10
34.08853080745009
 20
-24.29705267404726
 30
0.0
  0
VERTEX
  5
75
330
73
100
AcDbEntity
  8
Calque 1
 62
   250
370
    35
100
AcDbVertex
100
AcDb2dVertex
 10
119.0869601481797
 20
-24.29705267404726
 30
0.0
  0
VERTEX
  5
76
330
73
100
AcDbEntity
  8
Calque 1
 62
   250
370
    35
100
AcDbVertex
100
AcDb2dVertex
 10
119.0869601481797
 20
-16.29719644774862
 30
0.0
  0
VERTEX
  5
77
330
73
100
AcDbEntity
  8
Calque 1
 62
   250
370
    35
100
AcDbVertex
100
AcDb2dVertex
 10
138.087006258881
 20
-16.29719644774862
 30
0.0
  0
VERTEX
  5
78
330
73
100
AcDbEntity
  8
Calque 1
 62
   250
370
    35
100
AcDbVertex
100
AcDb2dVertex
 10
138.087006258881
 20
-24.29705267404726
 30
0.0
  0
VERTEX
  5
79
330
73
100
AcDbEntity
  8
Calque 1
 62
   250
370
    35
100
AcDbVertex
100
AcDb2dVertex
 10
241.0877820577836
 20
-24.296880419273
 30
0.0
  0
VERTEX
  5
7A
330
73
100
AcDbEntity
  8
Calque 1
 62
   250
370
    35
100
AcDbVertex
100
AcDb2dVertex
 10
241.0877820577836
 20
-27.29686956782856
 30
0.0
  0
VERTEX
  5
7B
330
73
100
AcDbEntity
  8
Calque 1
 62
   250
370
    35
100
AcDbVertex
100
AcDb2dVertex
 10
34.08853080745009
 20
-27.29686956782856
 30
0.0
  0
VERTEX
  5
7C
330
73
100
AcDbEntity
  8
Calque 1
 62
   250
370
    35
100
AcDbVertex
100
AcDb2dVertex
 10
34.08853080745009
 20
-24.29705267404726
 30
0.0
  0
SEQEND
  5
7D
330
73
100
AcDbEntity
  8
Calque 1
370
    35
  0
SPLINE
  5
7E
330
1F
100
AcDbEntity
  8
Calque 1
 62
   250
370
    35
100
AcDbSpline
210
0.0
220
0.0
230
1.0
 70
    11
 71
     3
 72
    26
 73
    22
 74
     0
 42
0.0000000001
 43
0.0000000001
 40
0.0
 40
0.0
 40
0.0
 40
0.0
 40
1.0
 40
1.0
 40
1.0
 40
2.0
 40
2.0
 40
2.0
 40
3.0
 40
3.0
 40
3.0
 40
4.0
 40
4.0
 40
4.0
 40
5.0
 40
5.0
 40
5.0
 40
6.0
 40
6.0
 40
6.0
 40
7.0
 40
7.0
 40
7.0
 40
7.0
 10
516.2124184907386
 20
-44.59297145152537
 30
0.0
 10
516.2124184907386
 20
-44.59297145152537
 30
0.0
 10
517.7468640198689
 20
-48.28542479261615
 30
0.0
 10
517.7468640198689
 20
-48.28542479261615
 30
0.0
 10
534.3632485643259
 20
-43.88913844388883
 30
0.0
 10
568.3549721886404
 20
-47.25809731891464
 30
0.0
 10
576.1464001380815
 20
-48.30333928913944
 30
0.0
 10
588.1897649354179
 20
-49.91908907172162
 30
0.0
 10
589.4486028257281
 20
-42.57070040168372
 30
0.0
 10
587.0012069930067
 20
-36.68199868874617
 30
0.0
 10
586.1137503960064
 20
-34.54569497834274
 30
0.0
 10
583.2853270026162
 20
-30.42604979708099
 30
0.0
 10
579.2456080366122
 20
-25.51609971150292
 30
0.0
 10
579.2456080366122
 20
-25.51609971150292
 30
0.0
 10
505.0358397174911
 20
-25.51609971150292
 30
0.0
 10
505.0358397174911
 20
-25.51609971150292
 30
0.0
 10
505.0358397174911
 20
-25.51609971150292
 30
0.0
 10
513.4422172110492
 20
-45.74363334359882
 30
0.0
 10
513.4422172110492
 20
-45.74363334359882
 30
0.0
 10
513.4422172110492
 20
-45.74363334359882
 30
0.0
 10
516.2124184907386
 20
-44.59297145152537
 30
0.0
 10
516.2124184907386
 20
-44.59297145152537
 30
0.0
  0
SPLINE
  5
7F
330
1F
100
AcDbEntity
  8
Calque 1
 62
   250
370
    35
100
AcDbSpline
210
0.0
220
0.0
230
1.0
 70
    11
 71
     3
 72
    26
 73
    22
 74
     0
 42
0.0000000001
 43
0.0000000001
 40
0.0
 40
0.0
 40
0.0
 40
0.0
 40
1.0
 40
1.0
 40
1.0
 40
2.0
 40
2.0
 40
2.0
 40
3.0
 40
3.0
 40
3.0
 40
4.0
 40
4.0
 40
4.0
 40
5.0
 40
5.0
 40
5.0
 40
6.0
 40
6.0
 40
6.0
 40
7.0
 40
7.0
 40
7.0
 40
7.0
 10
516.2124184907386
 20
-6.439227971480471
 30
0.0
 10
516.2124184907386
 20
-6.439227971480471
 30
0.0
 10
517.7468640198689
 20
-2.746774630389695
 30
0.0
 10
517.7468640198689
 20
-2.746774630389695
 30
0.0
 10
534.3632485643259
 20
-7.143060979117013
 30
0.0
 10
568.3549721886404
 20
-3.774102104091197
 30
0.0
 10
576.1464001380815
 20
-2.728860133866396
 30
0.0
 10
588.1897649354179
 20
-1.113110351284222
 30
0.0
 10
589.4486028257281
 20
-8.461499021322126
 30
0.0
 10
587.0012069930067
 20
-14.35020073425967
 30
0.0
 10
586.1137503960064
 20
-16.48667669943736
 30
0.0
 10
583.2853270026162
 20
-20.60614962592485
 30
0.0
 10
579.2456080366122
 20
-25.51609971150292
 30
0.0
 10
579.2456080366122
 20
-25.51609971150292
 30
0.0
 10
505.0358397174911
 20
-25.51609971150292
 30
0.0
 10
505.0358397174911
 20
-25.51609971150292
 30
0.0
 10
505.0358397174911
 20
-25.51609971150292
 30
0.0
 10
513.4422172110492
 20
-5.288566079407025
 30
0.0
 10
513.4422172110492
 20
-5.288566079407025
 30
0.0
 10
513.4422172110492
 20
-5.288566079407025
 30
0.0
 10
516.2124184907386
 20
-6.439227971480471
 30
0.0
 10
516.2124184907386
 20
-6.439227971480471
 30
0.0
  0
SPLINE
  5
80
330
1F
100
AcDbEntity
  8
Calque 1
 62
   250
370
    35
100
AcDbSpline
210
0.0
220
0.0
230
1.0
 70
    11
 71
     3
 72
    26
 73
    22
 74
     0
 42
0.0000000001
 43
0.0000000001
 40
0.0
 40
0.0
 40
0.0
 40
0.0
 40
1.0
 40
1.0
 40
1.0
 40
2.0
 40
2.0
 40
2.0
 40
3.0
 40
3.0
 40
3.0
 40
4.0
 40
4.0
 40
4.0
 40
5.0
 40
5.0
 40
5.0
 40
6.0
 40
6.0
 40
6.0
 40
7.0
 40
7.0
 40
7.0
 40
7.0
 10
611.818641340101
 20
-48.90106335583029
 30
0.0
 10
578.7708738787449
 20
-51.26302082051758
 30
0.0
 10
551.2652315245101
 20
-58.54526365723869
 30
0.0
 10
504.1986815145754
 20
-47.95676268332331
 30
0.0
 10
496.8310003098201
 20
-46.29898273582109
 30
0.0
 10
495.9931530878073
 20
-46.94132078904592
 30
0.0
 10
495.9931530878073
 20
-46.94132078904592
 30
0.0
 10
495.9931530878073
 20
-46.94132078904592
 30
0.0
 10
552.450344371436
 20
-76.07046439070461
 30
0.0
 10
552.450344371436
 20
-76.07046439070461
 30
0.0
 10
552.450344371436
 20
-76.07046439070461
 30
0.0
 10
551.0743732346273
 20
-78.73696829628798
 30
0.0
 10
551.0743732346273
 20
-78.73696829628798
 30
0.0
 10
551.0743732346273
 20
-78.73696829628798
 30
0.0
 10
590.5468992664258
 20
-99.10333927643944
 30
0.0
 10
590.5468992664258
 20
-99.10333927643944
 30
0.0
 10
590.5468992664258
 20
-99.10333927643944
 30
0.0
 10
647.2765976029378
 20
-51.26370983961463
 30
0.0
 10
647.2765976029378
 20
-51.26370983961463
 30
0.0
 10
637.3182045932747
 20
-49.43333060830139
 30
0.0
 10
623.7180011461538
 20
-48.05064153529637
 30
0.0
 10
611.818641340101
 20
-48.90106335583029
 30
0.0
  0
SPLINE
  5
81
330
1F
100
AcDbEntity
  8
Calque 1
 62
   250
370
    35
100
AcDbSpline
210
0.0
220
0.0
230
1.0
 70
    11
 71
     3
 72
    26
 73
    22
 74
     0
 42
0.0000000001
 43
0.0000000001
 40
0.0
 40
0.0
 40
0.0
 40
0.0
 40
1.0
 40
1.0
 40
1.0
 40
2.0
 40
2.0
 40
2.0
 40
3.0
 40
3.0
 40
3.0
 40
4.0
 40
4.0
 40
4.0
 40
5.0
 40
5.0
 40
5.0
 40
6.0
 40
6.0
 40
6.0
 40
7.0
 40
7.0
 40
7.0
 40
7.0
 10
706.2259709605963
 20
-7.002156573770295
 30
0.0
 10
673.1782034992402
 20
-9.364114038457583
 30
0.0
 10
645.6725611450055
 20
-16.64652912995295
 30
0.0
 10
598.6073891732649
 20
-6.057855901263314
 30
0.0
 10
591.240052478058
 20
-4.400075953761093
 30
0.0
 10
590.4018607464968
 20
-5.042414006985925
 30
0.0
 10
590.4018607464968
 20
-5.042414006985925
 30
0.0
 10
590.4018607464968
 20
-5.042414006985925
 30
0.0
 10
646.8576739919314
 20
-34.17172986341888
 30
0.0
 10
646.8576739919314
 20
-34.17172986341888
 30
0.0
 10
646.8576739919314
 20
-34.17172986341888
 30
0.0
 10
645.4817028551226
 20
-36.83788925945372
 30
0.0
 10
645.4817028551226
 20
-36.83788925945372
 30
0.0
 10
645.4817028551226
 20
-36.83788925945372
 30
0.0
 10
684.9542288869212
 20
-57.20443249437945
 30
0.0
 10
684.9542288869212
 20
-57.20443249437945
 30
0.0
 10
684.9542288869212
 20
-57.20443249437945
 30
0.0
 10
741.6839272234332
 20
-9.364975312328896
 30
0.0
 10
741.6839272234332
 20
-9.364975312328896
 30
0.0
 10
731.7255342137701
 20
-7.534423826241395
 30
0.0
 10
718.1253307666492
 20
-6.151734753236372
 30
0.0
 10
706.2259709605963
 20
-7.002156573770295
 30
0.0
  0
POLYLINE
  5
82
330
1F
100
AcDbEntity
  8
Calque 1
 62
   250
370
    35
100
AcDb2dPolyline
 66
     1
 10
0.0
 20
0.0
 30
0.0
  0
VERTEX
  5
83
330
82
100
AcDbEntity
  8
Calque 1
 62
   250
370
    35
100
AcDbVertex
100
AcDb2dVertex
 10
673.230568950616
 20
-93.4006727197054
 30
0.0
  0
VERTEX
  5
84
330
82
100
AcDbEntity
  8
Calque 1
 62
   250
370
    35
100
AcDbVertex
100
AcDb2dVertex
 10
673.230568950616
 20
-54.99957138381956
 30
0.0
  0
VERTEX
  5
85
330
82
100
AcDbEntity
  8
Calque 1
 62
   250
370
    35
100
AcDbVertex
100
AcDb2dVertex
 10
669.2304685826924
 20
-54.99957138381956
 30
0.0
  0
VERTEX
  5
86
330
82
100
AcDbEntity
  8
Calque 1
 62
   250
370
    35
100
AcDbVertex
100
AcDb2dVertex
 10
669.2304685826924
 20
-50.99981552544449
 30
0.0
  0
VERTEX
  5
87
330
82
100
AcDbEntity
  8
Calque 1
 62
   250
370
    35
100
AcDbVertex
100
AcDb2dVertex
 10
650.8305581055215
 20
-50.99981552544449
 30
0.0
  0
VERTEX
  5
88
330
82
100
AcDbEntity
  8
Calque 1
 62
   250
370
    35
100
AcDbVertex
100
AcDb2dVertex
 10
650.8305581055215
 20
-54.99957138381956
 30
0.0
  0
VERTEX
  5
89
330
82
100
AcDbEntity
  8
Calque 1
 62
   250
370
    35
100
AcDbVertex
100
AcDb2dVertex
 10
646.830457737598
 20
-54.99957138381956
 30
0.0
  0
VERTEX
  5
8A
330
82
100
AcDbEntity
  8
Calque 1
 62
   250
370
    35
100
AcDbVertex
100
AcDb2dVertex
 10
646.830457737598
 20
-93.4006727197054
 30
0.0
  0
VERTEX
  5
8B
330
82
100
AcDbEntity
  8
Calque 1
 62
   250
370
    35
100
AcDbVertex
100
AcDb2dVertex
 10
650.8305581055215
 20
-93.4006727197054
 30
0.0
  0
VERTEX
  5
8C
330
82
100
AcDbEntity
  8
Calque 1
 62
   250
370
    35
100
AcDbVertex
100
AcDb2dVertex
 10
650.8305581055215
 20
-97.40042857808045
 30
0.0
  0
VERTEX
  5
8D
330
82
100
AcDbEntity
  8
Calque 1
 62
   250
370
    35
100
AcDbVertex
100
AcDb2dVertex
 10
669.2304685826924
 20
-97.40042857808045
 30
0.0
  0
VERTEX
  5
8E
330
82
100
AcDbEntity
  8
Calque 1
 62
   250
370
    35
100
AcDbVertex
100
AcDb2dVertex
 10
669.2304685826924
 20
-93.4006727197054
 30
0.0
  0
VERTEX
  5
8F
330
82
100
AcDbEntity
  8
Calque 1
 62
   250
370
    35
100
AcDbVertex
100
AcDb2dVertex
 10
673.230568950616
 20
-93.4006727197054
 30
0.0
  0
SEQEND
  5
90
330
82
100
AcDbEntity
  8
Calque 1
370
    35
  0
SPLINE
  5
91
330
1F
100
AcDbEntity
  8
Calque 1
 62
   250
370
    35
100
AcDbSpline
210
0.0
220
0.0
230
1.0
 70
    11
 71
     3
 72
    29
 73
    25
 74
     0
 42
0.0000000001
 43
0.0000000001
 40
0.0
 40
0.0
 40
0.0
 40
0.0
 40
1.0
 40
1.0
 40
1.0
 40
2.0
 40
2.0
 40
2.0
 40
3.0
 40
3.0
 40
3.0
 40
4.0
 40
4.0
 40
4.0
 40
5.0
 40
5.0
 40
5.0
 40
6.0
 40
6.0
 40
6.0
 40
7.0
 40
7.0
 40
7.0
 40
8.0
 40
8.0
 40
8.0
 40
8.0
 10
670.0307642639159
 20
-86.70030651044299
 30
0.0
 10
670.0307642639159
 20
-89.46155054187072
 30
0.0
 10
667.7921412176006
 20
-91.70017358818608
 30
0.0
 10
665.0305526766243
 20
-91.70017358818608
 30
0.0
 10
665.0305526766243
 20
-91.70017358818608
 30
0.0
 10
655.0304740115896
 20
-91.70017358818608
 30
0.0
 10
655.0304740115896
 20
-91.70017358818608
 30
0.0
 10
652.2692299801619
 20
-91.70017358818608
 30
0.0
 10
650.0306069338466
 20
-89.46155054187072
 30
0.0
 10
650.0306069338466
 20
-86.70030651044299
 30
0.0
 10
650.0306069338466
 20
-86.70030651044299
 30
0.0
 10
650.0306069338466
 20
-61.70028210263049
 30
0.0
 10
650.0306069338466
 20
-61.70028210263049
 30
0.0
 10
650.0306069338466
 20
-58.93869356165422
 30
0.0
 10
652.2692299801619
 20
-56.70007051533887
 30
0.0
 10
655.0304740115896
 20
-56.70007051533887
 30
0.0
 10
655.0304740115896
 20
-56.70007051533887
 30
0.0
 10
665.0305526766243
 20
-56.70007051533887
 30
0.0
 10
665.0305526766243
 20
-56.70007051533887
 30
0.0
 10
667.7921412176006
 20
-56.70007051533887
 30
0.0
 10
670.0307642639159
 20
-58.93869356165422
 30
0.0
 10
670.0307642639159
 20
-61.70028210263049
 30
0.0
 10
670.0307642639159
 20
-61.70028210263049
 30
0.0
 10
670.0307642639159
 20
-86.70030651044299
 30
0.0
 10
670.0307642639159
 20
-86.70030651044299
 30
0.0
  0
POLYLINE
  5
92
330
1F
100
AcDbEntity
  8
Calque 1
 62
   250
370
    35
100
AcDb2dPolyline
 66
     1
 10
0.0
 20
0.0
 30
0.0
  0
VERTEX
  5
93
330
92
100
AcDbEntity
  8
Calque 1
 62
   250
370
    35
100
AcDbVertex
100
AcDb2dVertex
 10
538.1197806814423
 20
-70.87801647533605
 30
0.0
  0
VERTEX
  5
94
330
92
100
AcDbEntity
  8
Calque 1
 62
   250
370
    35
100
AcDbVertex
100
AcDb2dVertex
 10
499.7173013073624
 20
-70.87801647533605
 30
0.0
  0
VERTEX
  5
95
330
92
100
AcDbEntity
  8
Calque 1
 62
   250
370
    35
100
AcDbVertex
100
AcDb2dVertex
 10
499.7173013073624
 20
-74.87811684325965
 30
0.0
  0
VERTEX
  5
96
330
92
100
AcDbEntity
  8
Calque 1
 62
   250
370
    35
100
AcDbVertex
100
AcDb2dVertex
 10
495.7175454489873
 20
-74.87811684325965
 30
0.0
  0
VERTEX
  5
97
330
92
100
AcDbEntity
  8
Calque 1
 62
   250
370
    35
100
AcDbVertex
100
AcDb2dVertex
 10
495.7175454489873
 20
-93.2780273204305
 30
0.0
  0
VERTEX
  5
98
330
92
100
AcDbEntity
  8
Calque 1
 62
   250
370
    35
100
AcDbVertex
100
AcDb2dVertex
 10
499.7173013073624
 20
-93.2780273204305
 30
0.0
  0
VERTEX
  5
99
330
92
100
AcDbEntity
  8
Calque 1
 62
   250
370
    35
100
AcDbVertex
100
AcDb2dVertex
 10
499.7173013073624
 20
-97.27812768835409
 30
0.0
  0
VERTEX
  5
9A
330
92
100
AcDbEntity
  8
Calque 1
 62
   250
370
    35
100
AcDbVertex
100
AcDb2dVertex
 10
538.1197806814423
 20
-97.27812768835409
 30
0.0
  0
VERTEX
  5
9B
330
92
100
AcDbEntity
  8
Calque 1
 62
   250
370
    35
100
AcDbVertex
100
AcDb2dVertex
 10
538.1197806814423
 20
-93.2780273204305
 30
0.0
  0
VERTEX
  5
9C
330
92
100
AcDbEntity
  8
Calque 1
 62
   250
370
    35
100
AcDbVertex
100
AcDb2dVertex
 10
542.1195365398173
 20
-93.2780273204305
 30
0.0
  0
VERTEX
  5
9D
330
92
100
AcDbEntity
  8
Calque 1
 62
   250
370
    35
100
AcDbVertex
100
AcDb2dVertex
 10
542.1195365398173
 20
-74.87811684325965
 30
0.0
  0
VERTEX
  5
9E
330
92
100
AcDbEntity
  8
Calque 1
 62
   250
370
    35
100
AcDbVertex
100
AcDb2dVertex
 10
538.1197806814423
 20
-74.87811684325965
 30
0.0
  0
VERTEX
  5
9F
330
92
100
AcDbEntity
  8
Calque 1
 62
   250
370
    35
100
AcDbVertex
100
AcDb2dVertex
 10
538.1197806814423
 20
-70.87801647533605
 30
0.0
  0
SEQEND
  5
A0
330
92
100
AcDbEntity
  8
Calque 1
370
    35
  0
SPLINE
  5
A1
330
1F
100
AcDbEntity
  8
Calque 1
 62
   250
370
    35
100
AcDbSpline
210
0.0
220
0.0
230
1.0
 70
    11
 71
     3
 72
    29
 73
    25
 74
     0
 42
0.0000000001
 43
0.0000000001
 40
0.0
 40
0.0
 40
0.0
 40
0.0
 40
1.0
 40
1.0
 40
1.0
 40
2.0
 40
2.0
 40
2.0
 40
3.0
 40
3.0
 40
3.0
 40
4.0
 40
4.0
 40
4.0
 40
5.0
 40
5.0
 40
5.0
 40
6.0
 40
6.0
 40
6.0
 40
7.0
 40
7.0
 40
7.0
 40
8.0
 40
8.0
 40
8.0
 40
8.0
 10
531.4187254530829
 20
-74.0778211620361
 30
0.0
 10
534.1806585036077
 20
-74.0778211620361
 30
0.0
 10
536.419281549923
 20
-76.31644420835144
 30
0.0
 10
536.419281549923
 20
-79.07803274932772
 30
0.0
 10
536.419281549923
 20
-79.07803274932772
 30
0.0
 10
536.419281549923
 20
-89.07811141436243
 30
0.0
 10
536.419281549923
 20
-89.07811141436243
 30
0.0
 10
536.419281549923
 20
-91.83935544579016
 30
0.0
 10
534.1806585036077
 20
-94.07797849210552
 30
0.0
 10
531.4187254530829
 20
-94.07797849210552
 30
0.0
 10
531.4187254530829
 20
-94.07797849210552
 30
0.0
 10
506.4180120261733
 20
-94.07797849210552
 30
0.0
 10
506.4180120261733
 20
-94.07797849210552
 30
0.0
 10
503.656423485197
 20
-94.07797849210552
 30
0.0
 10
501.4178004388817
 20
-91.83935544579016
 30
0.0
 10
501.4178004388817
 20
-89.07811141436243
 30
0.0
 10
501.4178004388817
 20
-89.07811141436243
 30
0.0
 10
501.4178004388817
 20
-79.07803274932772
 30
0.0
 10
501.4178004388817
 20
-79.07803274932772
 30
0.0
 10
501.4178004388817
 20
-76.31644420835144
 30
0.0
 10
503.656423485197
 20
-74.0778211620361
 30
0.0
 10
506.4180120261733
 20
-74.0778211620361
 30
0.0
 10
506.4180120261733
 20
-74.0778211620361
 30
0.0
 10
531.4187254530829
 20
-74.0778211620361
 30
0.0
 10
531.4187254530829
 20
-74.0778211620361
 30
0.0
  0
ENDSEC
  0
SECTION
  2
OBJECTS
  0
DICTIONARY
  5
C
330
0
100
AcDbDictionary
281
     1
  3
ACAD_GROUP
350
D
  3
ACAD_LAYOUT
350
1A
  3
ACAD_MLINESTYLE
350
17
  3
ACAD_PLOTSETTINGS
350
19
  3
ACAD_PLOTSTYLENAME
350
E
  3
ACAD_TABLESTYLE
350
A2
  3
ACAD_VISUALSTYLE
350
2A
  0
DICTIONARY
  5
D
102
{ACAD_REACTORS
330
C
102
}
330
C
100
AcDbDictionary
281
     1
  0
DICTIONARY
  5
1A
102
{ACAD_REACTORS
330
C
102
}
330
C
100
AcDbDictionary
281
     1
  3
Layout1
350
1E
  3
Layout2
350
26
  3
Model
350
22
  0
DICTIONARY
  5
17
102
{ACAD_REACTORS
330
C
102
}
330
C
100
AcDbDictionary
281
     1
  3
Standard
350
18
  0
DICTIONARY
  5
19
102
{ACAD_REACTORS
330
C
102
}
330
C
100
AcDbDictionary
281
     1
  0
ACDBDICTIONARYWDFLT
  5
E
102
{ACAD_REACTORS
330
C
102
}
330
C
100
AcDbDictionary
281
     1
  3
Normal
350
F
100
AcDbDictionaryWithDefault
340
F
  0
DICTIONARY
  5
A2
102
{ACAD_REACTORS
330
C
102
}
330
C
100
AcDbDictionary
281
     1
  0
DICTIONARY
  5
2A
102
{ACAD_REACTORS
330
C
102
}
330
C
100
AcDbDictionary
281
     1
  3
2dWireframe
350
2F
  3
3D Hidden
350
31
  3
3dWireframe
350
30
  3
Basic
350
32
  3
Brighten
350
36
  3
ColorChange
350
3A
  3
Conceptual
350
34
  3
Dim
350
35
  3
Facepattern
350
39
  3
Flat
350
2B
  3
FlatWithEdges
350
2C
  3
Gouraud
350
2D
  3
GouraudWithEdges
350
2E
  3
Linepattern
350
38
  3
Realistic
350
33
  3
Thicken
350
37
  0
LAYOUT
  5
1E
102
{ACAD_REACTORS
330
1A
102
}
330
1A
100
AcDbPlotSettings
  1

  2
none_device
  4

  6

 40
0.0
 41
0.0
 42
0.0
 43
0.0
 44
0.0
 45
0.0
 46
0.0
 47
0.0
 48
0.0
 49
0.0
140
0.0
141
0.0
142
1.0
143
1.0
 70
   688
 72
     0
 73
     0
 74
     5
  7

 75
    16
 76
     0
 77
     2
 78
   300
147
1.0
148
0.0
149
0.0
100
AcDbLayout
  1
Layout1
 70
     1
 71
     1
 10
0.0
 20
0.0
 11
12.0
 21
9.0
 12
0.0
 22
0.0
 32
0.0
 14
1.000000000000000E+20
 24
1.000000000000000E+20
 34
1.000000000000000E+20
 15
-1.000000000000000E+20
 25
-1.000000000000000E+20
 35
-1.000000000000000E+20
146
0.0
 13
0.0
 23
0.0
 33
0.0
 16
1.0
 26
0.0
 36
0.0
 17
0.0
 27
1.0
 37
0.0
 76
     0
330
1B
  0
LAYOUT
  5
26
102
{ACAD_REACTORS
330
1A
102
}
330
1A
100
AcDbPlotSettings
  1

  2
none_device
  4

  6

 40
0.0
 41
0.0
 42
0.0
 43
0.0
 44
0.0
 45
0.0
 46
0.0
 47
0.0
 48
0.0
 49
0.0
140
0.0
141
0.0
142
1.0
143
1.0
 70
   688
 72
     0
 73
     0
 74
     5
  7

 75
    16
 76
     0
 77
     2
 78
   300
147
1.0
148
0.0
149
0.0
100
AcDbLayout
  1
Layout2
 70
     1
 71
     2
 10
0.0
 20
0.0
 11
0.0
 21
0.0
 12
0.0
 22
0.0
 32
0.0
 14
0.0
 24
0.0
 34
0.0
 15
0.0
 25
0.0
 35
0.0
146
0.0
 13
0.0
 23
0.0
 33
0.0
 16
1.0
 26
0.0
 36
0.0
 17
0.0
 27
1.0
 37
0.0
 76
     0
330
23
  0
LAYOUT
  5
22
102
{ACAD_REACTORS
330
1A
102
}
330
1A
100
AcDbPlotSettings
  1

  2
none_device
  4

  6

 40
0.0
 41
0.0
 42
0.0
 43
0.0
 44
0.0
 45
0.0
 46
0.0
 47
0.0
 48
0.0
 49
0.0
140
0.0
141
0.0
142
1.0
143
1.0
 70
  1712
 72
     0
 73
     0
 74
     0
  7

 75
     0
 76
     0
 77
     2
 78
   300
147
1.0
148
0.0
149
0.0
100
AcDbLayout
  1
Model
 70
     1
 71
     0
 10
0.0
 20
0.0
 11
12.0
 21
9.0
 12
0.0
 22
0.0
 32
0.0
 14
1.000000000000000E+20
 24
1.000000000000000E+20
 34
1.000000000000000E+20
 15
-1.000000000000000E+20
 25
-1.000000000000000E+20
 35
-1.000000000000000E+20
146
0.0
 13
0.0
 23
0.0
 33
0.0
 16
1.0
 26
0.0
 36
0.0
 17
0.0
 27
1.0
 37
0.0
 76
     0
330
1F
331
29
  0
MLINESTYLE
  5
18
102
{ACAD_REACTORS
330
17
102
}
330
17
100
AcDbMlineStyle
  2
Standard
 70
     0
  3

 62
   256
 51
90.0
 52
90.0
 71
     2
 49
0.5
 62
   256
  6
BYLAYER
 49
-0.5
 62
   256
  6
BYLAYER
  0
ACDBPLACEHOLDER
  5
F
102
{ACAD_REACTORS
330
E
102
}
330
E
  0
VISUALSTYLE
  5
2F
102
{ACAD_REACTORS
330
2A
102
}
330
2A
100
AcDbVisualStyle
  2
2dWireframe
 70
     4
 71
     0
 72
     2
 73
     0
 90
        0
 40
-0.6
 41
-30.0
 62
     5
 63
     7
421
 16777215
 74
     1
 91
        4
 64
     7
 65
   257
 75
     1
175
     1
 42
1.0
 92
        0
 66
   257
 43
1.0
 76
     1
 77
     6
 78
     2
 67
     7
 79
     5
170
     0
171
     0
290
     0
174
     0
 93
        1
 44
0.0
173
     0
291
     0
 45
0.0
1001
ACAD
1000
AcDbSavedByObjectVersion
1070
     0
  0
VISUALSTYLE
  5
31
102
{ACAD_REACTORS
330
2A
102
}
330
2A
100
AcDbVisualStyle
  2
3D Hidden
 70
     6
 71
     1
 72
     2
 73
     2
 90
        0
 40
-0.6
 41
-30.0
 62
     5
 63
     7
421
 16777215
 74
     2
 91
        2
 64
     7
 65
   257
 75
     2
175
     1
 42
40.0
 92
        0
 66
   257
 43
1.0
 76
     1
 77
     6
 78
     2
 67
     7
 79
     3
170
     0
171
     0
290
     0
174
     0
 93
        1
 44
0.0
173
     0
291
     0
 45
0.0
1001
ACAD
1000
AcDbSavedByObjectVersion
1070
     0
  0
VISUALSTYLE
  5
30
102
{ACAD_REACTORS
330
2A
102
}
330
2A
100
AcDbVisualStyle
  2
3dWireframe
 70
     5
 71
     0
 72
     2
 73
     0
 90
        0
 40
-0.6
 41
-30.0
 62
     5
 63
     7
421
 16777215
 74
     1
 91
        4
 64
     7
 65
   257
 75
     1
175
     1
 42
1.0
 92
        0
 66
   257
 43
1.0
 76
     1
 77
     6
 78
     2
 67
     7
 79
     5
170
     0
171
     0
290
     0
174
     0
 93
        1
 44
0.0
173
     0
291
     0
 45
0.0
1001
ACAD
1000
AcDbSavedByObjectVersion
1070
     0
  0
VISUALSTYLE
  5
32
102
{ACAD_REACTORS
330
2A
102
}
330
2A
100
AcDbVisualStyle
  2
Basic
 70
     7
 71
     1
 72
     0
 73
     1
 90
        0
 40
-0.6
 41
-30.0
 62
     5
 63
     7
421
 16777215
 74
     0
 91
        4
 64
     7
 65
   257
 75
     1
175
     1
 42
1.0
 92
        8
 66
     7
 43
1.0
 76
     1
 77
     6
 78
     2
 67
     7
 79
     5
170
     0
171
     0
290
     0
174
     0
 93
        1
 44
0.0
173
     0
291
     1
 45
0.0
1001
ACAD
1000
AcDbSavedByObjectVersion
1070
     0
  0
VISUALSTYLE
  5
36
102
{ACAD_REACTORS
330
2A
102
}
330
2A
100
AcDbVisualStyle
  2
Brighten
 70
    12
 71
     2
 72
     2
 73
     0
 90
        0
 40
-0.6
 41
-30.0
 62
     5
 63
     7
421
 16777215
 74
     1
 91
        4
 64
     7
 65
   257
 75
     1
175
     1
 42
1.0
 92
        8
 66
     7
 43
1.0
 76
     1
 77
     6
 78
     2
 67
     7
 79
     5
170
     0
171
     0
290
     0
174
     0
 93
        1
 44
50.0
173
     0
291
     1
 45
0.0
1001
ACAD
1000
AcDbSavedByObjectVersion
1070
     0
  0
VISUALSTYLE
  5
3A
102
{ACAD_REACTORS
330
2A
102
}
330
2A
100
AcDbVisualStyle
  2
ColorChange
 70
    16
 71
     2
 72
     2
 73
     3
 90
        0
 40
-0.6
 41
-30.0
 62
     5
 63
     8
421
  8421504
 74
     1
 91
        4
 64
     7
 65
   257
 75
     1
175
     1
 42
1.0
 92
        8
 66
     8
424
  8421504
 43
1.0
 76
     1
 77
     6
 78
     2
 67
     7
 79
     5
170
     0
171
     0
290
     0
174
     0
 93
        1
 44
0.0
173
     0
291
     1
 45
0.0
1001
ACAD
1000
AcDbSavedByObjectVersion
1070
     0
  0
VISUALSTYLE
  5
34
102
{ACAD_REACTORS
330
2A
102
}
330
2A
100
AcDbVisualStyle
  2
Conceptual
 70
     9
 71
     3
 72
     2
 73
     0
 90
        0
 40
-0.6
 41
-30.0
 62
     5
 63
     7
421
 16777215
 74
     2
 91
        2
 64
     7
 65
   257
 75
     1
175
     1
 42
40.0
 92
        8
 66
     7
 43
1.0
 76
     1
 77
     6
 78
     2
 67
     7
 79
     3
170
     0
171
     0
290
     0
174
     0
 93
        1
 44
0.0
173
     0
291
     0
 45
0.0
1001
ACAD
1000
AcDbSavedByObjectVersion
1070
     0
  0
VISUALSTYLE
  5
35
102
{ACAD_REACTORS
330
2A
102
}
330
2A
100
AcDbVisualStyle
  2
Dim
 70
    11
 71
     2
 72
     2
 73
     0
 90
        0
 40
-0.6
 41
-30.0
 62
     5
 63
     7
421
 16777215
 74
     1
 91
        4
 64
     7
 65
   257
 75
     1
175
     1
 42
1.0
 92
        8
 66
     7
 43
1.0
 76
     1
 77
     6
 78
     2
 67
     7
 79
     5
170
     0
171
     0
290
     0
174
     0
 93
        1
 44
-50.0
173
     0
291
     1
 45
0.0
1001
ACAD
1000
AcDbSavedByObjectVersion
1070
     0
  0
VISUALSTYLE
  5
39
102
{ACAD_REACTORS
330
2A
102
}
330
2A
100
AcDbVisualStyle
  2
Facepattern
 70
    15
 71
     2
 72
     2
 73
     0
 90
        0
 40
-0.6
 41
-30.0
 62
     5
 63
     7
421
 16777215
 74
     1
 91
        4
 64
     7
 65
   257
 75
     1
175
     1
 42
1.0
 92
        8
 66
     7
 43
1.0
 76
     1
 77
     6
 78
     2
 67
     7
 79
     5
170
     0
171
     0
290
     0
174
     0
 93
        1
 44
0.0
173
     0
291
     1
 45
0.0
1001
ACAD
1000
AcDbSavedByObjectVersion
1070
     0
  0
VISUALSTYLE
  5
2B
102
{ACAD_REACTORS
330
2A
102
}
330
2A
100
AcDbVisualStyle
  2
Flat
 70
     0
 71
     2
 72
     1
 73
     1
 90
        2
 40
-0.6
 41
30.0
 62
     5
 63
     7
421
 16777215
 74
     0
 91
        4
 64
     7
 65
   257
 75
     1
175
     1
 42
1.0
 92
        8
 66
     7
 43
1.0
 76
     1
 77
     6
 78
     2
 67
     7
 79
     5
170
     0
171
     0
290
     0
174
     0
 93
       13
 44
0.0
173
     0
291
     1
 45
0.0
1001
ACAD
1000
AcDbSavedByObjectVersion
1070
     0
  0
VISUALSTYLE
  5
2C
102
{ACAD_REACTORS
330
2A
102
}
330
2A
100
AcDbVisualStyle
  2
FlatWithEdges
 70
     1
 71
     2
 72
     1
 73
     1
 90
        2
 40
-0.6
 41
30.0
 62
     5
 63
     7
421
 16777215
 74
     1
 91
        4
 64
     7
 65
   257
 75
     1
175
     1
 42
1.0
 92
        0
 66
   257
 43
1.0
 76
     1
 77
     6
 78
     2
 67
     7
 79
     5
170
     0
171
     0
290
     0
174
     0
 93
       13
 44
0.0
173
     0
291
     1
 45
0.0
1001
ACAD
1000
AcDbSavedByObjectVersion
1070
     0
  0
VISUALSTYLE
  5
2D
102
{ACAD_REACTORS
330
2A
102
}
330
2A
100
AcDbVisualStyle
  2
Gouraud
 70
     2
 71
     2
 72
     2
 73
     1
 90
        2
 40
-0.6
 41
30.0
 62
     5
 63
     7
421
 16777215
 74
     0
 91
        4
 64
     7
 65
   257
 75
     1
175
     1
 42
1.0
 92
        0
 66
     7
 43
1.0
 76
     1
 77
     6
 78
     2
 67
     7
 79
     5
170
     0
171
     0
290
     0
174
     0
 93
       13
 44
0.0
173
     0
291
     1
 45
0.0
1001
ACAD
1000
AcDbSavedByObjectVersion
1070
     0
  0
VISUALSTYLE
  5
2E
102
{ACAD_REACTORS
330
2A
102
}
330
2A
100
AcDbVisualStyle
  2
GouraudWithEdges
 70
     3
 71
     2
 72
     2
 73
     1
 90
        2
 40
-0.6
 41
30.0
 62
     5
 63
     7
421
 16777215
 74
     1
 91
        4
 64
     7
 65
   257
 75
     1
175
     1
 42
1.0
 92
        0
 66
   257
 43
1.0
 76
     1
 77
     6
 78
     2
 67
     7
 79
     5
170
     0
171
     0
290
     0
174
     0
 93
       13
 44
0.0
173
     0
291
     1
 45
0.0
1001
ACAD
1000
AcDbSavedByObjectVersion
1070
     0
  0
VISUALSTYLE
  5
38
102
{ACAD_REACTORS
330
2A
102
}
330
2A
100
AcDbVisualStyle
  2
Linepattern
 70
    14
 71
     2
 72
     2
 73
     0
 90
        0
 40
-0.6
 41
-30.0
 62
     5
 63
     7
421
 16777215
 74
     1
 91
        4
 64
     7
 65
   257
 75
     7
175
     7
 42
1.0
 92
        8
 66
     7
 43
1.0
 76
     1
 77
     6
 78
     2
 67
     7
 79
     5
170
     0
171
     0
290
     0
174
     0
 93
        1
 44
0.0
173
     0
291
     1
 45
0.0
1001
ACAD
1000
AcDbSavedByObjectVersion
1070
     0
  0
VISUALSTYLE
  5
33
102
{ACAD_REACTORS
330
2A
102
}
330
2A
100
AcDbVisualStyle
  2
Realistic
 70
     8
 71
     2
 72
     2
 73
     0
 90
        0
 40
-0.6
 41
-30.0
 62
     5
 63
     7
421
 16777215
 74
     1
 91
        0
 64
     7
 65
   257
 75
     1
175
     1
 42
1.0
 92
        8
 66
     8
424
  7895160
 43
1.0
 76
     1
 77
     6
 78
     2
 67
     7
 79
     5
170
     0
171
     0
290
     0
174
     0
 93
       13
 44
0.0
173
     0
291
     0
 45
0.0
1001
ACAD
1000
AcDbSavedByObjectVersion
1070
     0
  0
VISUALSTYLE
  5
37
102
{ACAD_REACTORS
330
2A
102
}
330
2A
100
AcDbVisualStyle
  2
Thicken
 70
    13
 71
     2
 72
     2
 73
     0
 90
        0
 40
-0.6
 41
-30.0
 62
     5
 63
     7
421
 16777215
 74
     1
 91
        4
 64
     7
 65
   257
 75
     1
175
     1
 42
1.0
 92
       12
 66
     7
 43
1.0
 76
     1
 77
     6
 78
     2
 67
     7
 79
     5
170
     0
171
     0
290
     0
174
     0
 93
        1
 44
0.0
173
     0
291
     1
 45
0.0
1001
ACAD
1000
AcDbSavedByObjectVersion
1070
     0
  0
ENDSEC
  0
EOF
