  0
SECTION
  2
HEADER
  9
$ACADVER
  1
AC1018
  9
$ACADMAINTVER
 70
     0
  9
$DWGCODEPAGE
  3
ANSI_1252
  9
$INSBASE
 10
0.0
 20
0.0
 30
0.0
  9
$EXTMIN
 10
1.000000000000000E+20
 20
1.000000000000000E+20
 30
1.000000000000000E+20
  9
$EXTMAX
 10
-1.000000000000000E+20
 20
-1.000000000000000E+20
 30
-1.000000000000000E+20
  9
$LIMMIN
 10
0.0
 20
0.0
  9
$LIMMAX
 10
12.0
 20
9.0
  9
$ORTHOMODE
 70
     0
  9
$REGENMODE
 70
     1
  9
$FILLMODE
 70
     1
  9
$QTEXTMODE
 70
     0
  9
$MIRRTEXT
 70
     1
  9
$LTSCALE
 40
1.0
  9
$ATTMODE
 70
     1
  9
$TEXTSIZE
 40
0.2
  9
$TRACEWID
 40
0.05
  9
$TEXTSTYLE
  7
Standard
  9
$CLAYER
  8
0
  9
$CELTYPE
  6
ByLayer
  9
$CECOLOR
 62
   256
  9
$CELTSCALE
 40
1.0
  9
$DISPSILH
 70
     0
  9
$DIMSCALE
 40
1.0
  9
$DIMASZ
 40
0.18
  9
$DIMEXO
 40
0.0625
  9
$DIMDLI
 40
0.38
  9
$DIMRND
 40
0.0
  9
$DIMDLE
 40
0.0
  9
$DIMEXE
 40
0.18
  9
$DIMTP
 40
0.0
  9
$DIMTM
 40
0.0
  9
$DIMTXT
 40
0.18
  9
$DIMCEN
 40
0.09
  9
$DIMTSZ
 40
0.0
  9
$DIMTOL
 70
     0
  9
$DIMLIM
 70
     0
  9
$DIMTIH
 70
     1
  9
$DIMTOH
 70
     1
  9
$DIMSE1
 70
     0
  9
$DIMSE2
 70
     0
  9
$DIMTAD
 70
     0
  9
$DIMZIN
 70
     0
  9
$DIMBLK
  1

  9
$DIMASO
 70
     1
  9
$DIMSHO
 70
     1
  9
$DIMPOST
  1

  9
$DIMAPOST
  1

  9
$DIMALT
 70
     0
  9
$DIMALTD
 70
     2
  9
$DIMALTF
 40
25.4
  9
$DIMLFAC
 40
1.0
  9
$DIMTOFL
 70
     0
  9
$DIMTVP
 40
0.0
  9
$DIMTIX
 70
     0
  9
$DIMSOXD
 70
     0
  9
$DIMSAH
 70
     0
  9
$DIMBLK1
  1

  9
$DIMBLK2
  1

  9
$DIMSTYLE
  2
Standard
  9
$DIMCLRD
 70
     0
  9
$DIMCLRE
 70
     0
  9
$DIMCLRT
 70
     0
  9
$DIMTFAC
 40
1.0
  9
$DIMGAP
 40
0.09
  9
$DIMJUST
 70
     0
  9
$DIMSD1
 70
     0
  9
$DIMSD2
 70
     0
  9
$DIMTOLJ
 70
     1
  9
$DIMTZIN
 70
     0
  9
$DIMALTZ
 70
     0
  9
$DIMALTTZ
 70
     0
  9
$DIMUPT
 70
     0
  9
$DIMDEC
 70
     4
  9
$DIMTDEC
 70
     4
  9
$DIMALTU
 70
     2
  9
$DIMALTTD
 70
     2
  9
$DIMTXSTY
  7
Standard
  9
$DIMAUNIT
 70
     0
  9
$DIMADEC
 70
     0
  9
$DIMALTRND
 40
0.0
  9
$DIMAZIN
 70
     0
  9
$DIMDSEP
 70
    46
  9
$DIMATFIT
 70
     3
  9
$DIMFRAC
 70
     0
  9
$DIMLDRBLK
  1

  9
$DIMLUNIT
 70
     2
  9
$DIMLWD
 70
    -2
  9
$DIMLWE
 70
    -2
  9
$DIMTMOVE
 70
     0
  9
$LUNITS
 70
     2
  9
$LUPREC
 70
     4
  9
$SKETCHINC
 40
0.1
  9
$FILLETRAD
 40
0.5
  9
$AUNITS
 70
     0
  9
$AUPREC
 70
     0
  9
$MENU
  1
.
  9
$ELEVATION
 40
0.0
  9
$PELEVATION
 40
0.0
  9
$THICKNESS
 40
0.0
  9
$LIMCHECK
 70
     0
  9
$CHAMFERA
 40
0.5
  9
$CHAMFERB
 40
0.5
  9
$CHAMFERC
 40
1.0
  9
$CHAMFERD
 40
0.0
  9
$SKPOLY
 70
     0
  9
$TDCREATE
 40
2457783.544396841
  9
$TDUCREATE
 40
2457783.502730174
  9
$TDUPDATE
 40
2457783.544396852
  9
$TDUUPDATE
 40
2457783.502730185
  9
$TDINDWG
 40
0.0000000116
  9
$TDUSRTIMER
 40
0.0000000116
  9
$USRTIMER
 70
     1
  9
$ANGBASE
 50
0.0
  9
$ANGDIR
 70
     0
  9
$PDMODE
 70
     0
  9
$PDSIZE
 40
0.0
  9
$PLINEWID
 40
0.0
  9
$SPLFRAME
 70
     0
  9
$SPLINETYPE
 70
     6
  9
$SPLINESEGS
 70
     8
  9
$HANDSEED
  5
BD
  9
$SURFTAB1
 70
     6
  9
$SURFTAB2
 70
     6
  9
$SURFTYPE
 70
     6
  9
$SURFU
 70
     6
  9
$SURFV
 70
     6
  9
$UCSBASE
  2

  9
$UCSNAME
  2

  9
$UCSORG
 10
0.0
 20
0.0
 30
0.0
  9
$UCSXDIR
 10
1.0
 20
0.0
 30
0.0
  9
$UCSYDIR
 10
0.0
 20
1.0
 30
0.0
  9
$UCSORTHOREF
  2

  9
$UCSORTHOVIEW
 70
     0
  9
$UCSORGTOP
 10
0.0
 20
0.0
 30
0.0
  9
$UCSORGBOTTOM
 10
0.0
 20
0.0
 30
0.0
  9
$UCSORGLEFT
 10
0.0
 20
0.0
 30
0.0
  9
$UCSORGRIGHT
 10
0.0
 20
0.0
 30
0.0
  9
$UCSORGFRONT
 10
0.0
 20
0.0
 30
0.0
  9
$UCSORGBACK
 10
0.0
 20
0.0
 30
0.0
  9
$PUCSBASE
  2

  9
$PUCSNAME
  2

  9
$PUCSORG
 10
0.0
 20
0.0
 30
0.0
  9
$PUCSXDIR
 10
1.0
 20
0.0
 30
0.0
  9
$PUCSYDIR
 10
0.0
 20
1.0
 30
0.0
  9
$PUCSORTHOREF
  2

  9
$PUCSORTHOVIEW
 70
     0
  9
$PUCSORGTOP
 10
0.0
 20
0.0
 30
0.0
  9
$PUCSORGBOTTOM
 10
0.0
 20
0.0
 30
0.0
  9
$PUCSORGLEFT
 10
0.0
 20
0.0
 30
0.0
  9
$PUCSORGRIGHT
 10
0.0
 20
0.0
 30
0.0
  9
$PUCSORGFRONT
 10
0.0
 20
0.0
 30
0.0
  9
$PUCSORGBACK
 10
0.0
 20
0.0
 30
0.0
  9
$USERI1
 70
     0
  9
$USERI2
 70
     0
  9
$USERI3
 70
     0
  9
$USERI4
 70
     0
  9
$USERI5
 70
     0
  9
$USERR1
 40
0.0
  9
$USERR2
 40
0.0
  9
$USERR3
 40
0.0
  9
$USERR4
 40
0.0
  9
$USERR5
 40
0.0
  9
$WORLDVIEW
 70
     1
  9
$SHADEDGE
 70
     3
  9
$SHADEDIF
 70
    70
  9
$TILEMODE
 70
     1
  9
$MAXACTVP
 70
    64
  9
$PINSBASE
 10
0.0
 20
0.0
 30
0.0
  9
$PLIMCHECK
 70
     0
  9
$PEXTMIN
 10
1.000000000000000E+20
 20
1.000000000000000E+20
 30
1.000000000000000E+20
  9
$PEXTMAX
 10
-1.000000000000000E+20
 20
-1.000000000000000E+20
 30
-1.000000000000000E+20
  9
$PLIMMIN
 10
0.0
 20
0.0
  9
$PLIMMAX
 10
12.0
 20
9.0
  9
$UNITMODE
 70
     0
  9
$VISRETAIN
 70
     1
  9
$PLINEGEN
 70
     0
  9
$PSLTSCALE
 70
     1
  9
$TREEDEPTH
 70
  3020
  9
$CMLSTYLE
  2
Standard
  9
$CMLJUST
 70
     0
  9
$CMLSCALE
 40
1.0
  9
$PROXYGRAPHICS
 70
     1
  9
$MEASUREMENT
 70
     0
  9
$CELWEIGHT
370
    -1
  9
$ENDCAPS
280
     0
  9
$JOINSTYLE
280
     0
  9
$LWDISPLAY
290
     1
  9
$INSUNITS
 70
     1
  9
$HYPERLINKBASE
  1

  9
$STYLESHEET
  1

  9
$XEDIT
290
     1
  9
$CEPSNTYPE
380
     0
  9
$PSTYLEMODE
290
     1
  9
$FINGERPRINTGUID
  2
{49038A91-E073-42BA-9AAE-EB94C4056D84}
  9
$VERSIONGUID
  2
{FAEB1C32-E019-11D5-929B-00C0DF256EC4}
  9
$EXTNAMES
290
     1
  9
$PSVPSCALE
 40
0.0
  9
$OLESTARTUP
290
     0
  9
$SORTENTS
280
   127
  9
$INDEXCTL
280
     0
  9
$HIDETEXT
280
     1
  9
$XCLIPFRAME
290
     0
  9
$HALOGAP
280
     0
  9
$OBSCOLOR
 70
   257
  9
$OBSLTYPE
280
     0
  9
$INTERSECTIONDISPLAY
280
     0
  9
$INTERSECTIONCOLOR
 70
   257
  9
$DIMASSOC
280
     2
  9
$PROJECTNAME
  1

  0
ENDSEC
  0
SECTION
  2
CLASSES
  0
CLASS
  1
ACDBDICTIONARYWDFLT
  2
AcDbDictionaryWithDefault
  3
ObjectDBX Classes
 90
        0
 91
        3
280
     0
281
     0
  0
CLASS
  1
VISUALSTYLE
  2
AcDbVisualStyle
  3
ObjectDBX Classes
 90
     4095
 91
        3
280
     0
281
     0
  0
ENDSEC
  0
SECTION
  2
TABLES
  0
TABLE
  2
VPORT
  5
8
330
0
100
AcDbSymbolTable
 70
     1
  0
VPORT
  5
29
330
8
100
AcDbSymbolTableRecord
100
AcDbViewportTableRecord
  2
*Active
 70
     0
 10
0.0
 20
0.0
 11
1.0
 21
1.0
 12
0.0
 22
0.0
 13
0.0
 23
0.0
 14
0.5
 24
0.5
 15
0.5
 25
0.5
 16
0.0
 26
0.0
 36
1.0
 17
7.761111109170827
 27
68.1958373852948
 37
0.0
 40
700.2973061400298
 41
1.713557631902209
 42
50.0
 43
0.0
 44
0.0
 50
0.0
 51
0.0
 71
     0
 72
   100
 73
     1
 74
     3
 75
     0
 76
     0
 77
     0
 78
     0
281
     0
 65
     1
110
0.0
120
0.0
130
0.0
111
1.0
121
0.0
131
0.0
112
0.0
122
1.0
132
0.0
 79
     0
146
0.0
  0
ENDTAB
  0
TABLE
  2
LTYPE
  5
5
330
0
100
AcDbSymbolTable
 70
     7
  0
LTYPE
  5
14
330
5
100
AcDbSymbolTableRecord
100
AcDbLinetypeTableRecord
  2
ByBlock
 70
     0
  3

 72
    65
 73
     0
 40
0.0
  0
LTYPE
  5
15
330
5
100
AcDbSymbolTableRecord
100
AcDbLinetypeTableRecord
  2
ByLayer
 70
     0
  3

 72
    65
 73
     0
 40
0.0
  0
LTYPE
  5
16
330
5
100
AcDbSymbolTableRecord
100
AcDbLinetypeTableRecord
  2
Continuous
 70
     0
  3
Solid line
 72
    65
 73
     0
 40
0.0
  0
LTYPE
  5
40
330
5
100
AcDbSymbolTableRecord
100
AcDbLinetypeTableRecord
  2
AI-Linetype-1
 70
     0
  3
Adobe Illustrator Linetype No. 1
 72
    65
 73
     2
 40
14.11111110758333
 49
10.5833333306875
 74
     0
 49
-3.527777776895833
 74
     0
  0
LTYPE
  5
4E
330
5
100
AcDbSymbolTableRecord
100
AcDbLinetypeTableRecord
  2
AI-Linetype-2
 70
     0
  3
Adobe Illustrator Linetype No. 2
 72
    65
 73
     2
 40
2.1166666661375
 49
1.05833333306875
 74
     0
 49
-1.05833333306875
 74
     0
  0
LTYPE
  5
75
330
5
100
AcDbSymbolTableRecord
100
AcDbLinetypeTableRecord
  2
AI-Linetype-3
 70
     0
  3
Adobe Illustrator Linetype No. 3
 72
    65
 73
     2
 40
3.527777776895833
 49
1.763888888447917
 74
     0
 49
-1.763888888447917
 74
     0
  0
LTYPE
  5
78
330
5
100
AcDbSymbolTableRecord
100
AcDbLinetypeTableRecord
  2
AI-Linetype-4
 70
     0
  3
Adobe Illustrator Linetype No. 4
 72
    65
 73
     2
 40
3.527777776895833
 49
1.763888888447917
 74
     0
 49
-1.763888888447917
 74
     0
  0
LTYPE
  5
A3
330
5
100
AcDbSymbolTableRecord
100
AcDbLinetypeTableRecord
  2
AI-Linetype-5
 70
     0
  3
Adobe Illustrator Linetype No. 5
 72
    65
 73
     2
 40
2.1166666661375
 49
1.05833333306875
 74
     0
 49
-1.05833333306875
 74
     0
  0
LTYPE
  5
AC
330
5
100
AcDbSymbolTableRecord
100
AcDbLinetypeTableRecord
  2
AI-Linetype-6
 70
     0
  3
Adobe Illustrator Linetype No. 6
 72
    65
 73
     2
 40
2.1166666661375
 49
1.05833333306875
 74
     0
 49
-1.05833333306875
 74
     0
  0
ENDTAB
  0
TABLE
  2
LAYER
  5
2
330
0
100
AcDbSymbolTable
 70
     3
  0
LAYER
  5
10
330
2
100
AcDbSymbolTableRecord
100
AcDbLayerTableRecord
  2
0
 70
     0
 62
     7
  6
Continuous
370
    -3
390
F
  0
LAYER
  5
3B
330
2
100
AcDbSymbolTableRecord
100
AcDbLayerTableRecord
  2
Cadre
 70
     0
 62
     7
  6
Continuous
370
    -3
390
F
  0
LAYER
  5
3C
330
2
100
AcDbSymbolTableRecord
100
AcDbLayerTableRecord
  2
Calque 1
 70
     0
 62
     7
  6
Continuous
370
    -3
390
F
  0
ENDTAB
  0
TABLE
  2
STYLE
  5
3
330
0
100
AcDbSymbolTable
 70
     1
  0
STYLE
  5
11
330
3
100
AcDbSymbolTableRecord
100
AcDbTextStyleTableRecord
  2
Standard
 70
     0
 40
0.0
 41
1.0
 50
0.0
 71
     0
 42
0.2
  3
txt
  4

  0
ENDTAB
  0
TABLE
  2
VIEW
  5
6
330
0
100
AcDbSymbolTable
 70
     0
  0
ENDTAB
  0
TABLE
  2
UCS
  5
7
330
0
100
AcDbSymbolTable
 70
     0
  0
ENDTAB
  0
TABLE
  2
APPID
  5
9
330
0
100
AcDbSymbolTable
 70
     1
  0
APPID
  5
12
330
9
100
AcDbSymbolTableRecord
100
AcDbRegAppTableRecord
  2
ACAD
 70
     0
  0
ENDTAB
  0
TABLE
  2
DIMSTYLE
  5
A
330
0
100
AcDbSymbolTable
 70
     1
100
AcDbDimStyleTable
  0
DIMSTYLE
105
27
330
A
100
AcDbSymbolTableRecord
100
AcDbDimStyleTableRecord
  2
Standard
 70
     0
340
11
  0
ENDTAB
  0
TABLE
  2
BLOCK_RECORD
  5
1
330
0
100
AcDbSymbolTable
 70
     5
  0
BLOCK_RECORD
  5
1F
330
1
100
AcDbSymbolTableRecord
100
AcDbBlockTableRecord
  2
*Model_Space
340
22
  0
BLOCK_RECORD
  5
1B
330
1
100
AcDbSymbolTableRecord
100
AcDbBlockTableRecord
  2
*Paper_Space
340
1E
  0
BLOCK_RECORD
  5
23
330
1
100
AcDbSymbolTableRecord
100
AcDbBlockTableRecord
  2
*Paper_Space0
340
26
  0
BLOCK_RECORD
  5
49
330
1
100
AcDbSymbolTableRecord
100
AcDbBlockTableRecord
  2
block 2
340
0
102
{BLKREFS
331
4A
102
}
  0
BLOCK_RECORD
  5
58
330
1
100
AcDbSymbolTableRecord
100
AcDbBlockTableRecord
  2
block 3
340
0
102
{BLKREFS
331
59
102
}
  0
BLOCK_RECORD
  5
5E
330
1
100
AcDbSymbolTableRecord
100
AcDbBlockTableRecord
  2
block 4
340
0
102
{BLKREFS
331
5F
102
}
  0
BLOCK_RECORD
  5
9E
330
1
100
AcDbSymbolTableRecord
100
AcDbBlockTableRecord
  2
block 5
340
0
102
{BLKREFS
331
9F
102
}
  0
ENDTAB
  0
ENDSEC
  0
SECTION
  2
BLOCKS
  0
BLOCK
  5
20
330
1F
100
AcDbEntity
  8
0
100
AcDbBlockBegin
  2
*Model_Space
 70
     0
 71
     0
 10
0.0
 20
0.0
 30
0.0
  3
*Model_Space
  1

  0
ENDBLK
  5
21
330
1F
100
AcDbEntity
  8
0
100
AcDbBlockEnd
  0
BLOCK
  5
1C
330
1B
100
AcDbEntity
 67
     1
  8
0
100
AcDbBlockBegin
  2
*Paper_Space
 70
     0
 71
     0
 10
0.0
 20
0.0
 30
0.0
  3
*Paper_Space
  1

  0
ENDBLK
  5
1D
330
1B
100
AcDbEntity
 67
     1
  8
0
100
AcDbBlockEnd
  0
BLOCK
  5
24
330
23
100
AcDbEntity
  8
0
100
AcDbBlockBegin
  2
*Paper_Space0
 70
     0
 71
     0
 10
0.0
 20
0.0
 30
0.0
  3
*Paper_Space0
  1

  0
ENDBLK
  5
25
330
23
100
AcDbEntity
  8
0
100
AcDbBlockEnd
  0
BLOCK
  5
4B
330
49
100
AcDbEntity
  8
0
100
AcDbBlockBegin
  2
block 2
 70
     0
 71
     0
 10
0.0
 20
0.0
 30
0.0
  3
block 2
  1

  0
SPLINE
  5
4D
330
49
100
AcDbEntity
  8
Calque 1
  6
AI-Linetype-2
 62
   250
370
    35
100
AcDbSpline
210
0.0
220
0.0
230
1.0
 70
    11
 71
     3
 72
    65
 73
    61
 74
     0
 42
0.0000000001
 43
0.0000000001
 40
0.0
 40
0.0
 40
0.0
 40
0.0
 40
1.0
 40
1.0
 40
1.0
 40
2.0
 40
2.0
 40
2.0
 40
3.0
 40
3.0
 40
3.0
 40
4.0
 40
4.0
 40
4.0
 40
5.0
 40
5.0
 40
5.0
 40
6.0
 40
6.0
 40
6.0
 40
7.0
 40
7.0
 40
7.0
 40
8.0
 40
8.0
 40
8.0
 40
9.0
 40
9.0
 40
9.0
 40
10.0
 40
10.0
 40
10.0
 40
11.0
 40
11.0
 40
11.0
 40
12.0
 40
12.0
 40
12.0
 40
13.0
 40
13.0
 40
13.0
 40
14.0
 40
14.0
 40
14.0
 40
15.0
 40
15.0
 40
15.0
 40
16.0
 40
16.0
 40
16.0
 40
17.0
 40
17.0
 40
17.0
 40
18.0
 40
18.0
 40
18.0
 40
19.0
 40
19.0
 40
19.0
 40
20.0
 40
20.0
 40
20.0
 40
20.0
 10
-216.8427503255636
 20
168.9516167112343
 30
0.0
 10
-216.8427503255636
 20
168.9516167112343
 30
0.0
 10
-217.8425170353831
 20
168.9516167112343
 30
0.0
 10
-217.8425170353831
 20
168.9516167112343
 30
0.0
 10
-217.8425170353831
 20
168.9516167112343
 30
0.0
 10
-221.0988212880413
 20
168.9516167112343
 30
0.0
 10
-221.0988212880413
 20
168.9516167112343
 30
0.0
 10
-220.8831583106646
 20
168.6326008693002
 30
0.0
 10
-220.750866644031
 20
168.2529513468257
 30
0.0
 10
-220.750866644031
 20
167.8388508694986
 30
0.0
 10
-220.750866644031
 20
166.7343532569275
 30
0.0
 10
-221.646591470196
 20
165.8386284307626
 30
0.0
 10
-222.7510890827671
 20
165.8386284307626
 30
0.0
 10
-223.8555866953382
 20
165.8386284307626
 30
0.0
 10
-224.7513115215031
 20
166.7343532569275
 30
0.0
 10
-224.7513115215031
 20
167.8388508694986
 30
0.0
 10
-224.7513115215031
 20
168.2529513468257
 30
0.0
 10
-224.6197088739666
 20
168.6326008693002
 30
0.0
 10
-224.4033568774929
 20
168.9516167112343
 30
0.0
 10
-224.4033568774929
 20
168.9516167112343
 30
0.0
 10
-227.6066066596782
 20
168.9516167112343
 30
0.0
 10
-227.6066066596782
 20
168.9516167112343
 30
0.0
 10
-227.6066066596782
 20
168.9516167112343
 30
0.0
 10
-228.6070623885948
 20
168.9516167112343
 30
0.0
 10
-228.6070623885948
 20
168.9516167112343
 30
0.0
 10
-228.6070623885948
 20
168.9516167112343
 30
0.0
 10
-228.6070623885948
 20
126.9517686314565
 30
0.0
 10
-228.6070623885948
 20
126.9517686314565
 30
0.0
 10
-228.6070623885948
 20
126.9517686314565
 30
0.0
 10
-227.6066066596782
 20
126.9517686314565
 30
0.0
 10
-227.6066066596782
 20
126.9517686314565
 30
0.0
 10
-227.6066066596782
 20
126.9517686314565
 30
0.0
 10
-224.2510836570449
 20
126.9517686314565
 30
0.0
 10
-224.2510836570449
 20
126.9517686314565
 30
0.0
 10
-224.2510836570449
 20
126.9517686314565
 30
0.0
 10
-224.2510836570449
 20
127.620117155595
 30
0.0
 10
-224.2510836570449
 20
127.620117155595
 30
0.0
 10
-224.5611422507174
 20
127.9722059141875
 30
0.0
 10
-224.7513115215031
 20
128.433848709211
 30
0.0
 10
-224.7513115215031
 20
128.9402777455427
 30
0.0
 10
-224.7513115215031
 20
130.0447753581138
 30
0.0
 10
-223.8555866953382
 20
130.9398111651817
 30
0.0
 10
-222.7510890827671
 20
130.9398111651817
 30
0.0
 10
-221.646591470196
 20
130.9398111651817
 30
0.0
 10
-220.750866644031
 20
130.0447753581138
 30
0.0
 10
-220.750866644031
 20
128.9402777455427
 30
0.0
 10
-220.750866644031
 20
128.433848709211
 30
0.0
 10
-220.9410359148168
 20
127.9722059141875
 30
0.0
 10
-221.2510945084893
 20
127.620117155595
 30
0.0
 10
-221.2510945084893
 20
127.620117155595
 30
0.0
 10
-221.2510945084893
 20
126.9517686314565
 30
0.0
 10
-221.2510945084893
 20
126.9517686314565
 30
0.0
 10
-221.2510945084893
 20
126.9517686314565
 30
0.0
 10
-217.8425170353831
 20
126.9517686314565
 30
0.0
 10
-217.8425170353831
 20
126.9517686314565
 30
0.0
 10
-217.8425170353831
 20
126.9517686314565
 30
0.0
 10
-216.8427503255636
 20
126.9517686314565
 30
0.0
 10
-216.8427503255636
 20
126.9517686314565
 30
0.0
 10
-216.8427503255636
 20
126.9517686314565
 30
0.0
 10
-216.8427503255636
 20
168.9516167112343
 30
0.0
 10
-216.8427503255636
 20
168.9516167112343
 30
0.0
  0
POLYLINE
  5
4F
330
49
100
AcDbEntity
  8
Calque 1
 62
   250
370
    35
100
AcDb2dPolyline
 66
     1
 10
0.0
 20
0.0
 30
0.0
  0
VERTEX
  5
50
330
4F
100
AcDbEntity
  8
Calque 1
 62
   250
370
    35
100
AcDbVertex
100
AcDb2dVertex
 10
-245.0808199799625
 20
121.9171060893124
 30
0.0
  0
VERTEX
  5
51
330
4F
100
AcDbEntity
  8
Calque 1
 62
   250
370
    35
100
AcDbVertex
100
AcDb2dVertex
 10
-245.0808199799625
 20
171.9168103953889
 30
0.0
  0
VERTEX
  5
52
330
4F
100
AcDbEntity
  8
Calque 1
 62
   250
370
    35
100
AcDbVertex
100
AcDb2dVertex
 10
-200.0809827516291
 20
171.9168103953889
 30
0.0
  0
VERTEX
  5
53
330
4F
100
AcDbEntity
  8
Calque 1
 62
   250
370
    35
100
AcDbVertex
100
AcDb2dVertex
 10
-200.0809827516291
 20
121.9171060893124
 30
0.0
  0
VERTEX
  5
54
330
4F
100
AcDbEntity
  8
Calque 1
 62
   250
370
    35
100
AcDbVertex
100
AcDb2dVertex
 10
-245.0808199799625
 20
121.9171060893124
 30
0.0
  0
SEQEND
  5
55
330
4F
100
AcDbEntity
  8
Calque 1
370
    35
  0
ENDBLK
  5
4C
330
49
100
AcDbEntity
  8
0
100
AcDbBlockEnd
  0
BLOCK
  5
5A
330
58
100
AcDbEntity
  8
0
100
AcDbBlockBegin
  2
block 3
 70
     0
 71
     0
 10
0.0
 20
0.0
 30
0.0
  3
block 3
  1

  0
SPLINE
  5
5C
330
58
100
AcDbEntity
  8
Calque 1
 62
   250
370
    35
100
AcDbSpline
210
0.0
220
0.0
230
1.0
 70
    11
 71
     3
 72
    32
 73
    28
 74
     0
 42
0.0000000001
 43
0.0000000001
 40
0.0
 40
0.0
 40
0.0
 40
0.0
 40
1.0
 40
1.0
 40
1.0
 40
2.0
 40
2.0
 40
2.0
 40
3.0
 40
3.0
 40
3.0
 40
4.0
 40
4.0
 40
4.0
 40
5.0
 40
5.0
 40
5.0
 40
6.0
 40
6.0
 40
6.0
 40
7.0
 40
7.0
 40
7.0
 40
8.0
 40
8.0
 40
8.0
 40
9.0
 40
9.0
 40
9.0
 40
9.0
 10
-579.1615477067721
 20
24.49531791922339
 30
0.0
 10
-579.1949651329791
 20
23.95995008081557
 30
0.0
 10
-579.2159802154391
 20
23.42182616601955
 30
0.0
 10
-579.2159802154391
 20
22.87887911754417
 30
0.0
 10
-579.2159802154391
 20
-23.33500975979125
 30
0.0
 10
-503.6681368098469
 20
-33.21278753509958
 30
0.0
 10
-456.7476588484867
 20
-40.97389864427041
 30
0.0
 10
-409.8289034348692
 20
-48.73500975344125
 30
0.0
 10
-399.5370251822338
 20
8.326106768751806
 30
0.0
 10
-393.9532144197409
 20
8.326106768751806
 30
0.0
 10
-393.9532144197409
 20
8.326106768751806
 30
0.0
 10
-380.9541801347962
 20
8.326106768751806
 30
0.0
 10
-380.9541801347962
 20
8.326106768751806
 30
0.0
 10
-380.9541801347962
 20
8.326106768751806
 30
0.0
 10
-367.9551458498515
 20
8.326106768751806
 30
0.0
 10
-367.9551458498515
 20
8.326106768751806
 30
0.0
 10
-362.3713350873585
 20
8.326106768751806
 30
0.0
 10
-352.0794568347232
 20
-48.73500975344125
 30
0.0
 10
-305.1607014211057
 20
-40.97389864427041
 30
0.0
 10
-258.2412569883911
 20
-33.21278753509958
 30
0.0
 10
-182.6937580923474
 20
-23.33500975979125
 30
0.0
 10
-182.6937580923474
 20
22.87887911754417
 30
0.0
 10
-182.6937580923474
 20
23.42182616601955
 30
0.0
 10
-182.7144286652589
 20
23.95995008081557
 30
0.0
 10
-182.7475015819173
 20
24.49531791922339
 30
0.0
 10
-182.7475015819173
 20
24.49531791922339
 30
0.0
 10
-579.1615477067721
 20
24.49531791922339
 30
0.0
 10
-579.1615477067721
 20
24.49531791922339
 30
0.0
  0
SPLINE
  5
5D
330
58
100
AcDbEntity
  8
Calque 1
 62
   250
370
    35
100
AcDbSpline
210
0.0
220
0.0
230
1.0
 70
    11
 71
     3
 72
    35
 73
    31
 74
     0
 42
0.0000000001
 43
0.0000000001
 40
0.0
 40
0.0
 40
0.0
 40
0.0
 40
1.0
 40
1.0
 40
1.0
 40
2.0
 40
2.0
 40
2.0
 40
3.0
 40
3.0
 40
3.0
 40
4.0
 40
4.0
 40
4.0
 40
5.0
 40
5.0
 40
5.0
 40
6.0
 40
6.0
 40
6.0
 40
7.0
 40
7.0
 40
7.0
 40
8.0
 40
8.0
 40
8.0
 40
9.0
 40
9.0
 40
9.0
 40
10.0
 40
10.0
 40
10.0
 40
10.0
 10
-228.9069579505858
 20
71.27041285110602
 30
0.0
 10
-236.6852945371828
 20
73.9813584884491
 30
0.0
 10
-329.4396673438554
 20
108.4064751248081
 30
0.0
 10
-366.7273138189084
 20
122.4821017488934
 30
0.0
 10
-366.7273138189084
 20
122.4821017488934
 30
0.0
 10
-377.9541909862406
 20
122.4821017488934
 30
0.0
 10
-377.9541909862406
 20
122.4821017488934
 30
0.0
 10
-377.9541909862406
 20
122.4821017488934
 30
0.0
 10
-377.9541909862406
 20
82.48213159830308
 30
0.0
 10
-377.9541909862406
 20
82.48213159830308
 30
0.0
 10
-377.9541909862406
 20
82.48213159830308
 30
0.0
 10
-383.9541692833517
 20
82.48213159830308
 30
0.0
 10
-383.9541692833517
 20
82.48213159830308
 30
0.0
 10
-383.9541692833517
 20
82.48213159830308
 30
0.0
 10
-383.9541692833517
 20
122.4821017488934
 30
0.0
 10
-383.9541692833517
 20
122.4821017488934
 30
0.0
 10
-383.9541692833517
 20
122.4821017488934
 30
0.0
 10
-395.1810464506839
 20
122.4821017488934
 30
0.0
 10
-395.1810464506839
 20
122.4821017488934
 30
0.0
 10
-432.468692925737
 20
108.4064751248081
 30
0.0
 10
-525.2244437706037
 20
73.9813584884491
 30
0.0
 10
-533.0027803572007
 20
71.27041285110602
 30
0.0
 10
-553.6382132947502
 20
64.0777424970014
 30
0.0
 10
-577.5161701030169
 20
49.7189290240286
 30
0.0
 10
-579.1270967519197
 20
29.99541286142476
 30
0.0
 10
-579.1270967519197
 20
29.99541286142476
 30
0.0
 10
-182.7826415558669
 20
29.99541286142476
 30
0.0
 10
-182.7826415558669
 20
29.99541286142476
 30
0.0
 10
-184.3928791856726
 20
49.7189290240286
 30
0.0
 10
-208.2708359939392
 20
64.0777424970014
 30
0.0
 10
-228.9069579505858
 20
71.27041285110602
 30
0.0
  0
ENDBLK
  5
5B
330
58
100
AcDbEntity
  8
0
100
AcDbBlockEnd
  0
BLOCK
  5
60
330
5E
100
AcDbEntity
  8
0
100
AcDbBlockBegin
  2
block 4
 70
     0
 71
     0
 10
0.0
 20
0.0
 30
0.0
  3
block 4
  1

  0
POLYLINE
  5
62
330
5E
100
AcDbEntity
  8
Calque 1
 62
   250
370
    35
100
AcDb2dPolyline
 66
     1
 10
0.0
 20
0.0
 30
0.0
  0
VERTEX
  5
63
330
62
100
AcDbEntity
  8
Calque 1
 62
   250
370
    35
100
AcDbVertex
100
AcDb2dVertex
 10
-530.0799613475148
 20
87.6490858070808
 30
0.0
  0
VERTEX
  5
64
330
62
100
AcDbEntity
  8
Calque 1
 62
   250
370
    35
100
AcDbVertex
100
AcDb2dVertex
 10
-575.0797985758481
 20
87.6490858070808
 30
0.0
  0
VERTEX
  5
65
330
62
100
AcDbEntity
  8
Calque 1
 62
   250
370
    35
100
AcDbVertex
100
AcDb2dVertex
 10
-575.0797985758481
 20
175.64888233456
 30
0.0
  0
VERTEX
  5
66
330
62
100
AcDbEntity
  8
Calque 1
 62
   250
370
    35
100
AcDbVertex
100
AcDb2dVertex
 10
-530.0799613475148
 20
175.64888233456
 30
0.0
  0
VERTEX
  5
67
330
62
100
AcDbEntity
  8
Calque 1
 62
   250
370
    35
100
AcDbVertex
100
AcDb2dVertex
 10
-530.0799613475148
 20
87.6490858070808
 30
0.0
  0
SEQEND
  5
68
330
62
100
AcDbEntity
  8
Calque 1
370
    35
  0
SPLINE
  5
69
330
5E
100
AcDbEntity
  8
Calque 1
 62
   250
370
    35
100
AcDbSpline
210
0.0
220
0.0
230
1.0
 70
    11
 71
     3
 72
    29
 73
    25
 74
     0
 42
0.0000000001
 43
0.0000000001
 40
0.0
 40
0.0
 40
0.0
 40
0.0
 40
1.0
 40
1.0
 40
1.0
 40
2.0
 40
2.0
 40
2.0
 40
3.0
 40
3.0
 40
3.0
 40
4.0
 40
4.0
 40
4.0
 40
5.0
 40
5.0
 40
5.0
 40
6.0
 40
6.0
 40
6.0
 40
7.0
 40
7.0
 40
7.0
 40
8.0
 40
8.0
 40
8.0
 40
8.0
 10
-537.5799342189036
 20
131.6488118160461
 30
0.0
 10
-537.5799342189036
 20
130.268017545558
 30
0.0
 10
-538.6995902516098
 20
129.1487060224003
 30
0.0
 10
-540.079695503001
 20
129.1487060224003
 30
0.0
 10
-540.079695503001
 20
129.1487060224003
 30
0.0
 10
-565.080064420362
 20
129.1487060224003
 30
0.0
 10
-565.080064420362
 20
129.1487060224003
 30
0.0
 10
-566.46085869085
 20
129.1487060224003
 30
0.0
 10
-567.5798257044593
 20
130.268017545558
 30
0.0
 10
-567.5798257044593
 20
131.6488118160461
 30
0.0
 10
-567.5798257044593
 20
131.6488118160461
 30
0.0
 10
-567.5798257044593
 20
131.6488118160461
 30
0.0
 10
-567.5798257044593
 20
131.6488118160461
 30
0.0
 10
-567.5798257044593
 20
133.0296060865343
 30
0.0
 10
-566.46085869085
 20
134.1489176096919
 30
0.0
 10
-565.080064420362
 20
134.1489176096919
 30
0.0
 10
-565.080064420362
 20
134.1489176096919
 30
0.0
 10
-540.079695503001
 20
134.1489176096919
 30
0.0
 10
-540.079695503001
 20
134.1489176096919
 30
0.0
 10
-538.6995902516098
 20
134.1489176096919
 30
0.0
 10
-537.5799342189036
 20
133.0296060865343
 30
0.0
 10
-537.5799342189036
 20
131.6488118160461
 30
0.0
 10
-537.5799342189036
 20
131.6488118160461
 30
0.0
 10
-537.5799342189036
 20
131.6488118160461
 30
0.0
 10
-537.5799342189036
 20
131.6488118160461
 30
0.0
  0
ENDBLK
  5
61
330
5E
100
AcDbEntity
  8
0
100
AcDbBlockEnd
  0
BLOCK
  5
A0
330
9E
100
AcDbEntity
  8
0
100
AcDbBlockBegin
  2
block 5
 70
     0
 71
     0
 10
0.0
 20
0.0
 30
0.0
  3
block 5
  1

  0
SPLINE
  5
A2
330
9E
100
AcDbEntity
  8
Calque 1
  6
AI-Linetype-5
 62
   250
370
    35
100
AcDbSpline
210
0.0
220
0.0
230
1.0
 70
    11
 71
     3
 72
    65
 73
    61
 74
     0
 42
0.0000000001
 43
0.0000000001
 40
0.0
 40
0.0
 40
0.0
 40
0.0
 40
1.0
 40
1.0
 40
1.0
 40
2.0
 40
2.0
 40
2.0
 40
3.0
 40
3.0
 40
3.0
 40
4.0
 40
4.0
 40
4.0
 40
5.0
 40
5.0
 40
5.0
 40
6.0
 40
6.0
 40
6.0
 40
7.0
 40
7.0
 40
7.0
 40
8.0
 40
8.0
 40
8.0
 40
9.0
 40
9.0
 40
9.0
 40
10.0
 40
10.0
 40
10.0
 40
11.0
 40
11.0
 40
11.0
 40
12.0
 40
12.0
 40
12.0
 40
13.0
 40
13.0
 40
13.0
 40
14.0
 40
14.0
 40
14.0
 40
15.0
 40
15.0
 40
15.0
 40
16.0
 40
16.0
 40
16.0
 40
17.0
 40
17.0
 40
17.0
 40
18.0
 40
18.0
 40
18.0
 40
19.0
 40
19.0
 40
19.0
 40
20.0
 40
20.0
 40
20.0
 40
20.0
 10
546.8530977365507
 20
361.8149521664907
 30
0.0
 10
546.8530977365507
 20
361.8149521664907
 30
0.0
 10
546.8530977365507
 20
362.8147188763102
 30
0.0
 10
546.8530977365507
 20
362.8147188763102
 30
0.0
 10
546.8530977365507
 20
362.8147188763102
 30
0.0
 10
546.8530977365507
 20
366.0710231289684
 30
0.0
 10
546.8530977365507
 20
366.0710231289684
 30
0.0
 10
546.5340818946165
 20
365.8553601515918
 30
0.0
 10
546.154432372142
 20
365.7230684849582
 30
0.0
 10
545.740331894815
 20
365.7230684849582
 30
0.0
 10
544.6358342822439
 20
365.7230684849582
 30
0.0
 10
543.7401094560789
 20
366.6187933111231
 30
0.0
 10
543.7401094560789
 20
367.7232909236942
 30
0.0
 10
543.7401094560789
 20
368.8277885362653
 30
0.0
 10
544.6358342822439
 20
369.7235133624303
 30
0.0
 10
545.740331894815
 20
369.7235133624303
 30
0.0
 10
546.154432372142
 20
369.7235133624303
 30
0.0
 10
546.5340818946165
 20
369.5919107148937
 30
0.0
 10
546.8530977365507
 20
369.37555871842
 30
0.0
 10
546.8530977365507
 20
369.37555871842
 30
0.0
 10
546.8530977365507
 20
372.5788085006053
 30
0.0
 10
546.8530977365507
 20
372.5788085006053
 30
0.0
 10
546.8530977365507
 20
372.5788085006053
 30
0.0
 10
546.8530977365507
 20
373.5792642295219
 30
0.0
 10
546.8530977365507
 20
373.5792642295219
 30
0.0
 10
546.8530977365507
 20
373.5792642295219
 30
0.0
 10
504.8532496567728
 20
373.5792642295219
 30
0.0
 10
504.8532496567728
 20
373.5792642295219
 30
0.0
 10
504.8532496567728
 20
373.5792642295219
 30
0.0
 10
504.8532496567728
 20
372.5788085006053
 30
0.0
 10
504.8532496567728
 20
372.5788085006053
 30
0.0
 10
504.8532496567728
 20
372.5788085006053
 30
0.0
 10
504.8532496567728
 20
369.223285497972
 30
0.0
 10
504.8532496567728
 20
369.223285497972
 30
0.0
 10
504.8532496567728
 20
369.223285497972
 30
0.0
 10
505.5215981809113
 20
369.223285497972
 30
0.0
 10
505.5215981809113
 20
369.223285497972
 30
0.0
 10
505.8743759586009
 20
369.5333440916444
 30
0.0
 10
506.3353297345273
 20
369.7235133624303
 30
0.0
 10
506.841758770859
 20
369.7235133624303
 30
0.0
 10
507.9462563834301
 20
369.7235133624303
 30
0.0
 10
508.8412921904981
 20
368.8277885362653
 30
0.0
 10
508.8412921904981
 20
367.7232909236942
 30
0.0
 10
508.8412921904981
 20
366.6187933111231
 30
0.0
 10
507.9462563834301
 20
365.7230684849582
 30
0.0
 10
506.841758770859
 20
365.7230684849582
 30
0.0
 10
506.3353297345273
 20
365.7230684849582
 30
0.0
 10
505.8743759586009
 20
365.9132377557439
 30
0.0
 10
505.5215981809113
 20
366.2232963494164
 30
0.0
 10
505.5215981809113
 20
366.2232963494164
 30
0.0
 10
504.8532496567728
 20
366.2232963494164
 30
0.0
 10
504.8532496567728
 20
366.2232963494164
 30
0.0
 10
504.8532496567728
 20
366.2232963494164
 30
0.0
 10
504.8532496567728
 20
362.8147188763102
 30
0.0
 10
504.8532496567728
 20
362.8147188763102
 30
0.0
 10
504.8532496567728
 20
362.8147188763102
 30
0.0
 10
504.8532496567728
 20
361.8149521664907
 30
0.0
 10
504.8532496567728
 20
361.8149521664907
 30
0.0
 10
504.8532496567728
 20
361.8149521664907
 30
0.0
 10
546.8530977365507
 20
361.8149521664907
 30
0.0
 10
546.8530977365507
 20
361.8149521664907
 30
0.0
  0
POLYLINE
  5
A4
330
9E
100
AcDbEntity
  8
Calque 1
 62
   250
370
    35
100
AcDb2dPolyline
 66
     1
 10
0.0
 20
0.0
 30
0.0
  0
VERTEX
  5
A5
330
A4
100
AcDbEntity
  8
Calque 1
 62
   250
370
    35
100
AcDbVertex
100
AcDb2dVertex
 10
550.6385686557431
 20
351.4445257367917
 30
0.0
  0
VERTEX
  5
A6
330
A4
100
AcDbEntity
  8
Calque 1
 62
   250
370
    35
100
AcDbVertex
100
AcDb2dVertex
 10
500.6385198401182
 20
351.4445257367917
 30
0.0
  0
VERTEX
  5
A7
330
A4
100
AcDbEntity
  8
Calque 1
 62
   250
370
    35
100
AcDbVertex
100
AcDb2dVertex
 10
500.6385198401182
 20
396.444362965125
 30
0.0
  0
VERTEX
  5
A8
330
A4
100
AcDbEntity
  8
Calque 1
 62
   250
370
    35
100
AcDbVertex
100
AcDb2dVertex
 10
550.6385686557431
 20
396.444362965125
 30
0.0
  0
VERTEX
  5
A9
330
A4
100
AcDbEntity
  8
Calque 1
 62
   250
370
    35
100
AcDbVertex
100
AcDb2dVertex
 10
550.6385686557431
 20
351.4445257367917
 30
0.0
  0
SEQEND
  5
AA
330
A4
100
AcDbEntity
  8
Calque 1
370
    35
  0
SPLINE
  5
AB
330
9E
100
AcDbEntity
  8
Calque 1
  6
AI-Linetype-6
 62
   250
370
    35
100
AcDbSpline
210
0.0
220
0.0
230
1.0
 70
    11
 71
     3
 72
    71
 73
    67
 74
     0
 42
0.0000000001
 43
0.0000000001
 40
0.0
 40
0.0
 40
0.0
 40
0.0
 40
1.0
 40
1.0
 40
1.0
 40
2.0
 40
2.0
 40
2.0
 40
3.0
 40
3.0
 40
3.0
 40
4.0
 40
4.0
 40
4.0
 40
5.0
 40
5.0
 40
5.0
 40
6.0
 40
6.0
 40
6.0
 40
7.0
 40
7.0
 40
7.0
 40
8.0
 40
8.0
 40
8.0
 40
9.0
 40
9.0
 40
9.0
 40
10.0
 40
10.0
 40
10.0
 40
11.0
 40
11.0
 40
11.0
 40
12.0
 40
12.0
 40
12.0
 40
13.0
 40
13.0
 40
13.0
 40
14.0
 40
14.0
 40
14.0
 40
15.0
 40
15.0
 40
15.0
 40
16.0
 40
16.0
 40
16.0
 40
17.0
 40
17.0
 40
17.0
 40
18.0
 40
18.0
 40
18.0
 40
19.0
 40
19.0
 40
19.0
 40
20.0
 40
20.0
 40
20.0
 40
21.0
 40
21.0
 40
21.0
 40
22.0
 40
22.0
 40
22.0
 40
22.0
 10
517.1301919280091
 20
385.9437119260836
 30
0.0
 10
517.1301919280091
 20
385.9437119260836
 30
0.0
 10
504.8532496567728
 20
385.9437119260836
 30
0.0
 10
504.8532496567728
 20
385.9437119260836
 30
0.0
 10
504.8532496567728
 20
385.9437119260836
 30
0.0
 10
504.8532496567728
 20
384.943256197167
 30
0.0
 10
504.8532496567728
 20
384.943256197167
 30
0.0
 10
504.8532496567728
 20
384.943256197167
 30
0.0
 10
504.8532496567728
 20
381.5877331945337
 30
0.0
 10
504.8532496567728
 20
381.5877331945337
 30
0.0
 10
504.8532496567728
 20
381.5877331945337
 30
0.0
 10
505.5215981809113
 20
381.5877331945337
 30
0.0
 10
505.5215981809113
 20
381.5877331945337
 30
0.0
 10
505.8743759586009
 20
381.8977917882061
 30
0.0
 10
506.3353297345273
 20
382.0879610589919
 30
0.0
 10
506.841758770859
 20
382.0879610589919
 30
0.0
 10
507.9462563834301
 20
382.0879610589919
 30
0.0
 10
508.8412921904981
 20
381.192236232827
 30
0.0
 10
508.8412921904981
 20
380.0877386202558
 30
0.0
 10
508.8412921904981
 20
378.9832410076847
 30
0.0
 10
507.9462563834301
 20
378.0875161815198
 30
0.0
 10
506.841758770859
 20
378.0875161815198
 30
0.0
 10
506.3353297345273
 20
378.0875161815198
 30
0.0
 10
505.8743759586009
 20
378.2776854523056
 30
0.0
 10
505.5215981809113
 20
378.5877440459781
 30
0.0
 10
505.5215981809113
 20
378.5877440459781
 30
0.0
 10
504.8532496567728
 20
378.5877440459781
 30
0.0
 10
504.8532496567728
 20
378.5877440459781
 30
0.0
 10
504.8532496567728
 20
378.5877440459781
 30
0.0
 10
504.8532496567728
 20
375.1791665728719
 30
0.0
 10
504.8532496567728
 20
375.1791665728719
 30
0.0
 10
504.8532496567728
 20
375.1791665728719
 30
0.0
 10
504.8532496567728
 20
374.1793998630524
 30
0.0
 10
504.8532496567728
 20
374.1793998630524
 30
0.0
 10
504.8532496567728
 20
374.1793998630524
 30
0.0
 10
546.8530977365507
 20
374.1793998630524
 30
0.0
 10
546.8530977365507
 20
374.1793998630524
 30
0.0
 10
546.8530977365507
 20
374.1793998630524
 30
0.0
 10
546.8530977365507
 20
375.1791665728719
 30
0.0
 10
546.8530977365507
 20
375.1791665728719
 30
0.0
 10
546.8530977365507
 20
375.1791665728719
 30
0.0
 10
546.8530977365507
 20
378.43547082553
 30
0.0
 10
546.8530977365507
 20
378.43547082553
 30
0.0
 10
546.5340818946165
 20
378.2198078481534
 30
0.0
 10
546.154432372142
 20
378.0875161815198
 30
0.0
 10
545.740331894815
 20
378.0875161815198
 30
0.0
 10
544.6358342822439
 20
378.0875161815198
 30
0.0
 10
543.7401094560789
 20
378.9832410076847
 30
0.0
 10
543.7401094560789
 20
380.0877386202558
 30
0.0
 10
543.7401094560789
 20
381.192236232827
 30
0.0
 10
544.6358342822439
 20
382.0879610589919
 30
0.0
 10
545.740331894815
 20
382.0879610589919
 30
0.0
 10
546.154432372142
 20
382.0879610589919
 30
0.0
 10
546.5340818946165
 20
381.9563584114554
 30
0.0
 10
546.8530977365507
 20
381.7400064149817
 30
0.0
 10
546.8530977365507
 20
381.7400064149817
 30
0.0
 10
546.8530977365507
 20
384.943256197167
 30
0.0
 10
546.8530977365507
 20
384.943256197167
 30
0.0
 10
546.8530977365507
 20
384.943256197167
 30
0.0
 10
546.8530977365507
 20
385.9437119260836
 30
0.0
 10
546.8530977365507
 20
385.9437119260836
 30
0.0
 10
546.8530977365507
 20
385.9437119260836
 30
0.0
 10
521.7776257376112
 20
385.9437119260836
 30
0.0
 10
521.7776257376112
 20
385.9437119260836
 30
0.0
 10
521.7776257376112
 20
385.9437119260836
 30
0.0
 10
517.1301919280091
 20
385.9437119260836
 30
0.0
 10
517.1301919280091
 20
385.9437119260836
 30
0.0
  0
ENDBLK
  5
A1
330
9E
100
AcDbEntity
  8
0
100
AcDbBlockEnd
  0
ENDSEC
  0
SECTION
  2
ENTITIES
  0
POLYLINE
  5
3D
330
1F
100
AcDbEntity
  8
Calque 1
  6
AI-Linetype-1
 62
   250
370
    35
100
AcDb2dPolyline
 66
     1
 10
0.0
 20
0.0
 30
0.0
  0
VERTEX
  5
3E
330
3D
100
AcDbEntity
  8
Calque 1
  6
AI-Linetype-1
 62
   250
370
    35
100
AcDbVertex
100
AcDb2dVertex
 10
518.8482610465032
 20
74.50776907859529
 30
0.0
  0
VERTEX
  5
BB
330
3D
100
AcDbEntity
  8
0
100
AcDbVertex
100
AcDb2dVertex
 10
518.8482610465032
 20
74.50776907859529
 30
0.0
  0
SEQEND
  5
3F
330
3D
100
AcDbEntity
  8
Calque 1
  6
AI-Linetype-1
370
    35
  0
SPLINE
  5
41
330
1F
100
AcDbEntity
  8
Calque 1
 62
   250
370
    35
100
AcDbSpline
210
0.0
220
0.0
230
1.0
 70
    11
 71
     3
 72
    20
 73
    16
 74
     0
 42
0.0000000001
 43
0.0000000001
 40
0.0
 40
0.0
 40
0.0
 40
0.0
 40
1.0
 40
1.0
 40
1.0
 40
2.0
 40
2.0
 40
2.0
 40
3.0
 40
3.0
 40
3.0
 40
4.0
 40
4.0
 40
4.0
 40
5.0
 40
5.0
 40
5.0
 40
5.0
 10
129.5362792644909
 20
290.2456772820393
 30
0.0
 10
129.5362792644909
 20
347.0428994900622
 30
0.0
 10
78.00815834638338
 20
367.8567883737476
 30
0.0
 10
66.71926946031671
 20
369.267899484506
 30
0.0
 10
55.43038057425004
 20
370.6790105952643
 30
0.0
 10
-220.464062444884
 20
398.6180459615434
 30
0.0
 10
-220.464062444884
 20
398.6180459615434
 30
0.0
 10
-220.464062444884
 20
398.6180459615434
 30
0.0
 10
-220.464062444884
 20
179.4739718518329
 30
0.0
 10
-220.464062444884
 20
179.4739718518329
 30
0.0
 10
-220.464062444884
 20
179.4739718518329
 30
0.0
 10
117.4529513595257
 20
242.0096896096365
 30
0.0
 10
117.4529513595257
 20
242.0096896096365
 30
0.0
 10
124.8109862969223
 20
256.3011514658726
 30
0.0
 10
129.5362792644909
 20
272.453826158015
 30
0.0
 10
129.5362792644909
 20
290.2456772820393
 30
0.0
  0
SPLINE
  5
42
330
1F
100
AcDbEntity
  8
Calque 1
 62
   250
370
    35
100
AcDbSpline
210
0.0
220
0.0
230
1.0
 70
    11
 71
     3
 72
    20
 73
    16
 74
     0
 42
0.0000000001
 43
0.0000000001
 40
0.0
 40
0.0
 40
0.0
 40
0.0
 40
1.0
 40
1.0
 40
1.0
 40
2.0
 40
2.0
 40
2.0
 40
3.0
 40
3.0
 40
3.0
 40
4.0
 40
4.0
 40
4.0
 40
5.0
 40
5.0
 40
5.0
 40
5.0
 10
365.7712998217517
 20
337.5420151608402
 30
0.0
 10
365.7712998217517
 20
337.5420151608402
 30
0.0
 10
239.0544867023892
 20
337.5420151608402
 30
0.0
 10
239.0544867023892
 20
337.5420151608402
 30
0.0
 10
239.0544867023892
 20
337.5420151608402
 30
0.0
 10
239.0544867023892
 20
-10.75834418133819
 30
0.0
 10
239.0544867023892
 20
-10.75834418133819
 30
0.0
 10
244.9559352686221
 20
-11.85870767932699
 30
0.0
 10
251.0730468122318
 20
-12.45815429376046
 30
0.0
 10
257.3989311422475
 20
-12.45815429376046
 30
0.0
 10
314.1961533502704
 20
-12.45849880330899
 30
0.0
 10
335.0100422339559
 20
39.06944986002431
 30
0.0
 10
336.4211533447142
 20
50.35833874609097
 30
0.0
 10
337.8322644554725
 20
61.64722763215764
 30
0.0
 10
365.7712998217517
 20
337.5420151608402
 30
0.0
 10
365.7712998217517
 20
337.5420151608402
 30
0.0
  0
SPLINE
  5
43
330
1F
100
AcDbEntity
  8
Calque 1
 62
   250
370
    35
100
AcDbSpline
210
0.0
220
0.0
230
1.0
 70
    11
 71
     3
 72
    20
 73
    16
 74
     0
 42
0.0000000001
 43
0.0000000001
 40
0.0
 40
0.0
 40
0.0
 40
0.0
 40
1.0
 40
1.0
 40
1.0
 40
2.0
 40
2.0
 40
2.0
 40
3.0
 40
3.0
 40
3.0
 40
4.0
 40
4.0
 40
4.0
 40
5.0
 40
5.0
 40
5.0
 40
5.0
 10
108.0013318957427
 20
-12.45849880330899
 30
0.0
 10
108.0013318957427
 20
-12.45849880330899
 30
0.0
 10
234.7178005055567
 20
-12.45849880330899
 30
0.0
 10
234.7178005055567
 20
-12.45849880330899
 30
0.0
 10
234.7178005055567
 20
-12.45849880330899
 30
0.0
 10
234.7178005055567
 20
335.8418605388694
 30
0.0
 10
234.7178005055567
 20
335.8418605388694
 30
0.0
 10
228.8163519393237
 20
336.9422240368582
 30
0.0
 10
222.6988958861656
 20
337.5420151608402
 30
0.0
 10
216.3733560656983
 20
337.5420151608402
 30
0.0
 10
159.5761338576754
 20
337.5420151608402
 30
0.0
 10
138.76224497399
 20
286.0140664975069
 30
0.0
 10
137.3511338632317
 20
274.7251776114402
 30
0.0
 10
135.9400227524733
 20
263.4362887253736
 30
0.0
 10
108.0013318957427
 20
-12.45849880330899
 30
0.0
 10
108.0013318957427
 20
-12.45849880330899
 30
0.0
  0
SPLINE
  5
44
330
1F
100
AcDbEntity
  8
Calque 1
 62
   250
370
    35
100
AcDbSpline
210
0.0
220
0.0
230
1.0
 70
    11
 71
     3
 72
    20
 73
    16
 74
     0
 42
0.0000000001
 43
0.0000000001
 40
0.0
 40
0.0
 40
0.0
 40
0.0
 40
1.0
 40
1.0
 40
1.0
 40
2.0
 40
2.0
 40
2.0
 40
3.0
 40
3.0
 40
3.0
 40
4.0
 40
4.0
 40
4.0
 40
5.0
 40
5.0
 40
5.0
 40
5.0
 10
592.9601886538433
 20
337.5420151608402
 30
0.0
 10
592.9601886538433
 20
337.5420151608402
 30
0.0
 10
466.2433755344808
 20
337.5420151608402
 30
0.0
 10
466.2433755344808
 20
337.5420151608402
 30
0.0
 10
466.2433755344808
 20
337.5420151608402
 30
0.0
 10
466.2433755344808
 20
-10.75834418133819
 30
0.0
 10
466.2433755344808
 20
-10.75834418133819
 30
0.0
 10
472.1448241007138
 20
-11.85870767932699
 30
0.0
 10
478.2619356443234
 20
-12.45815429376046
 30
0.0
 10
484.5878199743392
 20
-12.45815429376046
 30
0.0
 10
541.3850421823621
 20
-12.45849880330899
 30
0.0
 10
562.1989310660475
 20
39.06944986002431
 30
0.0
 10
563.6100421768059
 20
50.35833874609097
 30
0.0
 10
565.0211532875642
 20
61.64722763215764
 30
0.0
 10
592.9601886538433
 20
337.5420151608402
 30
0.0
 10
592.9601886538433
 20
337.5420151608402
 30
0.0
  0
SPLINE
  5
45
330
1F
100
AcDbEntity
  8
Calque 1
 62
   250
370
    35
100
AcDbSpline
210
0.0
220
0.0
230
1.0
 70
    11
 71
     3
 72
    20
 73
    16
 74
     0
 42
0.0000000001
 43
0.0000000001
 40
0.0
 40
0.0
 40
0.0
 40
0.0
 40
1.0
 40
1.0
 40
1.0
 40
2.0
 40
2.0
 40
2.0
 40
3.0
 40
3.0
 40
3.0
 40
4.0
 40
4.0
 40
4.0
 40
5.0
 40
5.0
 40
5.0
 40
5.0
 10
335.1902207278344
 20
-12.45849880330899
 30
0.0
 10
335.1902207278344
 20
-12.45849880330899
 30
0.0
 10
461.9066893376483
 20
-12.45849880330899
 30
0.0
 10
461.9066893376483
 20
-12.45849880330899
 30
0.0
 10
461.9066893376483
 20
-12.45849880330899
 30
0.0
 10
461.9066893376483
 20
335.8418605388694
 30
0.0
 10
461.9066893376483
 20
335.8418605388694
 30
0.0
 10
456.0052407714154
 20
336.9422240368582
 30
0.0
 10
449.8877847182573
 20
337.5420151608402
 30
0.0
 10
443.56224489779
 20
337.5420151608402
 30
0.0
 10
386.7650226897671
 20
337.5420151608402
 30
0.0
 10
365.9511338060817
 20
286.0140664975069
 30
0.0
 10
364.5400226953233
 20
274.7251776114402
 30
0.0
 10
363.128911584565
 20
263.4362887253736
 30
0.0
 10
335.1902207278344
 20
-12.45849880330899
 30
0.0
 10
335.1902207278344
 20
-12.45849880330899
 30
0.0
  0
SPLINE
  5
46
330
1F
100
AcDbEntity
  8
Calque 1
 62
   250
370
    35
100
AcDbSpline
210
0.0
220
0.0
230
1.0
 70
    11
 71
     3
 72
    17
 73
    13
 74
     0
 42
0.0000000001
 43
0.0000000001
 40
0.0
 40
0.0
 40
0.0
 40
0.0
 40
1.0
 40
1.0
 40
1.0
 40
2.0
 40
2.0
 40
2.0
 40
3.0
 40
3.0
 40
3.0
 40
4.0
 40
4.0
 40
4.0
 40
4.0
 10
-188.4639485205924
 20
179.895996048776
 30
0.0
 10
-188.4639485205924
 20
179.895996048776
 30
0.0
 10
-188.4639485205924
 20
102.4722981514653
 30
0.0
 10
-188.4639485205924
 20
102.4722981514653
 30
0.0
 10
-122.6764051342615
 20
120.6727376000402
 30
0.0
 10
22.80394829073999
 20
160.9200656064714
 30
0.0
 10
36.93504095213777
 20
164.8295599631329
 30
0.0
 10
50.57555201643598
 20
168.6033175576756
 30
0.0
 10
95.23880341586045
 20
194.4001925512264
 30
0.0
 10
117.1656303960558
 20
236.4565401969623
 30
0.0
 10
117.1656303960558
 20
236.4565401969623
 30
0.0
 10
-188.4639485205924
 20
179.895996048776
 30
0.0
 10
-188.4639485205924
 20
179.895996048776
 30
0.0
  0
SPLINE
  5
47
330
1F
100
AcDbEntity
  8
Calque 1
 62
   250
370
    35
100
AcDbSpline
210
0.0
220
0.0
230
1.0
 70
    11
 71
     3
 72
    20
 73
    16
 74
     0
 42
0.0000000001
 43
0.0000000001
 40
0.0
 40
0.0
 40
0.0
 40
0.0
 40
1.0
 40
1.0
 40
1.0
 40
2.0
 40
2.0
 40
2.0
 40
3.0
 40
3.0
 40
3.0
 40
4.0
 40
4.0
 40
4.0
 40
5.0
 40
5.0
 40
5.0
 40
5.0
 10
-576.4488795216864
 20
290.2456772820393
 30
0.0
 10
-576.4488795216864
 20
347.0428994900622
 30
0.0
 10
-524.9207586035789
 20
367.8567883737476
 30
0.0
 10
-513.6318697175122
 20
369.267899484506
 30
0.0
 10
-502.3429808314455
 20
370.6790105952643
 30
0.0
 10
-226.4487100670858
 20
398.6180459615434
 30
0.0
 10
-226.4487100670858
 20
398.6180459615434
 30
0.0
 10
-226.4487100670858
 20
398.6180459615434
 30
0.0
 10
-226.4487100670858
 20
179.4739718518329
 30
0.0
 10
-226.4487100670858
 20
179.4739718518329
 30
0.0
 10
-226.4487100670858
 20
179.4739718518329
 30
0.0
 10
-564.3655516167212
 20
242.0096896096365
 30
0.0
 10
-564.3655516167212
 20
242.0096896096365
 30
0.0
 10
-571.7239310636662
 20
256.3011514658726
 30
0.0
 10
-576.4488795216864
 20
272.453826158015
 30
0.0
 10
-576.4488795216864
 20
290.2456772820393
 30
0.0
  0
SPLINE
  5
48
330
1F
100
AcDbEntity
  8
Calque 1
 62
   250
370
    35
100
AcDbSpline
210
0.0
220
0.0
230
1.0
 70
    11
 71
     3
 72
    17
 73
    13
 74
     0
 42
0.0000000001
 43
0.0000000001
 40
0.0
 40
0.0
 40
0.0
 40
0.0
 40
1.0
 40
1.0
 40
1.0
 40
2.0
 40
2.0
 40
2.0
 40
3.0
 40
3.0
 40
3.0
 40
4.0
 40
4.0
 40
4.0
 40
4.0
 10
-258.4488239913774
 20
179.895996048776
 30
0.0
 10
-258.4488239913774
 20
179.895996048776
 30
0.0
 10
-258.4488239913774
 20
102.4722981514653
 30
0.0
 10
-258.4488239913774
 20
102.4722981514653
 30
0.0
 10
-324.2363673777083
 20
120.6727376000402
 30
0.0
 10
-469.7165485479355
 20
160.9200656064714
 30
0.0
 10
-483.8478134641075
 20
164.8295599631329
 30
0.0
 10
-497.4883245284057
 20
168.6033175576756
 30
0.0
 10
-542.1515759278302
 20
194.4001925512264
 30
0.0
 10
-564.078747417574
 20
236.4565401969623
 30
0.0
 10
-564.078747417574
 20
236.4565401969623
 30
0.0
 10
-258.4488239913774
 20
179.895996048776
 30
0.0
 10
-258.4488239913774
 20
179.895996048776
 30
0.0
  0
INSERT
  5
4A
330
1F
100
AcDbEntity
  8
Calque 1
100
AcDbBlockReference
  2
block 2
 10
0.0
 20
0.0
 30
0.0
  0
SPLINE
  5
56
330
1F
100
AcDbEntity
  8
Calque 1
 62
   250
370
    35
100
AcDbSpline
210
0.0
220
0.0
230
1.0
 70
    11
 71
     3
 72
    29
 73
    25
 74
     0
 42
0.0000000001
 43
0.0000000001
 40
0.0
 40
0.0
 40
0.0
 40
0.0
 40
1.0
 40
1.0
 40
1.0
 40
2.0
 40
2.0
 40
2.0
 40
3.0
 40
3.0
 40
3.0
 40
4.0
 40
4.0
 40
4.0
 40
5.0
 40
5.0
 40
5.0
 40
6.0
 40
6.0
 40
6.0
 40
7.0
 40
7.0
 40
7.0
 40
8.0
 40
8.0
 40
8.0
 40
8.0
 10
97.90754663350923
 20
77.17875160830948
 30
0.0
 10
97.88894311788889
 20
77.1901204234108
 30
0.0
 10
20.32192924839174
 20
124.9377658107795
 30
0.0
 10
-24.14736327521316
 20
124.9377658107795
 30
0.0
 10
-58.71958548879233
 20
124.9377658107795
 30
0.0
 10
-90.11680770316525
 20
104.8294324824732
 30
0.0
 10
-120.1800889456494
 20
79.71950952868124
 30
0.0
 10
-120.1800889456494
 20
79.71950952868124
 30
0.0
 10
-120.1797444361009
 20
79.71950952868124
 30
0.0
 10
-120.1797444361009
 20
79.71950952868124
 30
0.0
 10
-109.1375243867781
 20
80.06091849126949
 30
0.0
 10
-97.47208656417365
 20
80.33204750595866
 30
0.0
 10
-85.18033038235076
 20
80.516015604871
 30
0.0
 10
-85.18033038235076
 20
80.516015604871
 30
0.0
 10
-85.18033038235076
 20
74.21941458647987
 30
0.0
 10
-85.18033038235076
 20
74.21941458647987
 30
0.0
 10
-85.18033038235076
 20
74.21941458647987
 30
0.0
 10
-5.181423609815756
 20
74.21941458647987
 30
0.0
 10
-5.181423609815756
 20
74.21941458647987
 30
0.0
 10
-5.181423609815756
 20
74.21941458647987
 30
0.0
 10
-5.181423609815756
 20
80.4140407785076
 30
0.0
 10
-5.181423609815756
 20
80.4140407785076
 30
0.0
 10
29.1920165942645
 20
79.84938962847515
 30
0.0
 10
64.13114147702278
 20
78.68012422078137
 30
0.0
 10
97.90754663350923
 20
77.17875160830948
 30
0.0
  0
SPLINE
  5
57
330
1F
100
AcDbEntity
  8
Calque 1
 62
   250
370
    35
100
AcDbSpline
210
0.0
220
0.0
230
1.0
 70
    11
 71
     3
 72
    23
 73
    19
 74
     0
 42
0.0000000001
 43
0.0000000001
 40
0.0
 40
0.0
 40
0.0
 40
0.0
 40
1.0
 40
1.0
 40
1.0
 40
2.0
 40
2.0
 40
2.0
 40
3.0
 40
3.0
 40
3.0
 40
4.0
 40
4.0
 40
4.0
 40
5.0
 40
5.0
 40
5.0
 40
6.0
 40
6.0
 40
6.0
 40
6.0
 10
-421.5804686446049
 20
-196.17441672613
 30
0.0
 10
-425.0731064475512
 20
-195.8512667696136
 30
0.0
 10
-444.375976451406
 20
-194.0859998429716
 30
0.0
 10
-474.146424577644
 20
-191.7347221742885
 30
0.0
 10
-474.146424577644
 20
-191.7347221742885
 30
0.0
 10
-474.146424577644
 20
-219.9593559562949
 30
0.0
 10
-474.146424577644
 20
-219.9593559562949
 30
0.0
 10
-474.146424577644
 20
-219.9593559562949
 30
0.0
 10
-514.1453611995887
 20
-219.9593559562949
 30
0.0
 10
-514.1453611995887
 20
-219.9593559562949
 30
0.0
 10
-514.1453611995887
 20
-219.9593559562949
 30
0.0
 10
-514.1453611995887
 20
-189.0024169449369
 30
0.0
 10
-514.1453611995887
 20
-189.0024169449369
 30
0.0
 10
-514.1453611995887
 20
-189.0024169449369
 30
0.0
 10
-458.8453774894554
 20
-98.96002330425306
 30
0.0
 10
-421.4936522383766
 20
-60.48795300137107
 30
0.0
 10
-421.4936522383766
 20
-60.48795300137107
 30
0.0
 10
-421.5804686446049
 20
-196.17441672613
 30
0.0
 10
-421.5804686446049
 20
-196.17441672613
 30
0.0
  0
INSERT
  5
59
330
1F
100
AcDbEntity
  8
Calque 1
100
AcDbBlockReference
  2
block 3
 10
0.0
 20
0.0
 30
0.0
  0
INSERT
  5
5F
330
1F
100
AcDbEntity
  8
Calque 1
100
AcDbBlockReference
  2
block 4
 10
0.0
 20
0.0
 30
0.0
  0
SPLINE
  5
6A
330
1F
100
AcDbEntity
  8
Calque 1
 62
   250
370
    35
100
AcDbSpline
210
0.0
220
0.0
230
1.0
 70
    11
 71
     3
 72
    38
 73
    34
 74
     0
 42
0.0000000001
 43
0.0000000001
 40
0.0
 40
0.0
 40
0.0
 40
0.0
 40
1.0
 40
1.0
 40
1.0
 40
2.0
 40
2.0
 40
2.0
 40
3.0
 40
3.0
 40
3.0
 40
4.0
 40
4.0
 40
4.0
 40
5.0
 40
5.0
 40
5.0
 40
6.0
 40
6.0
 40
6.0
 40
7.0
 40
7.0
 40
7.0
 40
8.0
 40
8.0
 40
8.0
 40
9.0
 40
9.0
 40
9.0
 40
10.0
 40
10.0
 40
10.0
 40
11.0
 40
11.0
 40
11.0
 40
11.0
 10
-391.4941052623695
 20
-43.38787705078498
 30
0.0
 10
-397.4244926306786
 20
-43.38787705078498
 30
0.0
 10
-406.0565238785206
 20
-49.8181477740038
 30
0.0
 10
-415.9935572961753
 20
-59.97360024542327
 30
0.0
 10
-415.9935572961753
 20
-59.97360024542327
 30
0.0
 10
-415.9935572961753
 20
-213.3089436315686
 30
0.0
 10
-415.9935572961753
 20
-213.3089436315686
 30
0.0
 10
-415.9935572961753
 20
-213.3089436315686
 30
0.0
 10
-415.9715086850696
 20
-213.3023979501466
 30
0.0
 10
-415.9715086850696
 20
-213.3023979501466
 30
0.0
 10
-409.6697400234506
 20
-207.2927733856768
 30
0.0
 10
-406.3135280017203
 20
-204.0233777701747
 30
0.0
 10
-402.9276881588167
 20
-204.0233777701747
 30
0.0
 10
-399.4205809548324
 20
-204.0233777701747
 30
0.0
 10
-396.5776881604042
 20
-209.8156168095253
 30
0.0
 10
-396.5776881604042
 20
-216.9597113172879
 30
0.0
 10
-396.5776881604042
 20
-224.1038058250504
 30
0.0
 10
-399.4205809548324
 20
-229.8950113357554
 30
0.0
 10
-402.9276881588167
 20
-229.8950113357554
 30
0.0
 10
-406.2983695815851
 20
-229.8950113357554
 30
0.0
 10
-409.6394231831804
 20
-226.6545545223294
 30
0.0
 10
-415.8853812979384
 20
-220.6959173710413
 30
0.0
 10
-415.8853812979384
 20
-220.6959173710413
 30
0.0
 10
-415.9935572961753
 20
-220.6128905698468
 30
0.0
 10
-415.9935572961753
 20
-220.6128905698468
 30
0.0
 10
-415.9935572961753
 20
-220.6128905698468
 30
0.0
 10
-415.9935572961753
 20
-246.7956162577456
 30
0.0
 10
-415.9935572961753
 20
-246.7956162577456
 30
0.0
 10
-408.2103975758988
 20
-245.8702636104074
 30
0.0
 10
-325.5832274576667
 20
-234.8859211652369
 30
0.0
 10
-325.5832274576667
 20
-185.4629258433912
 30
0.0
 10
-325.5832274576667
 20
-129.0184814130579
 30
0.0
 10
-352.6885497165154
 20
-43.38787705078498
 30
0.0
 10
-391.4941052623695
 20
-43.38787705078498
 30
0.0
  0
SPLINE
  5
6B
330
1F
100
AcDbEntity
  8
Calque 1
 62
   250
370
    35
100
AcDbSpline
210
0.0
220
0.0
230
1.0
 70
    11
 71
     3
 72
    41
 73
    37
 74
     0
 42
0.0000000001
 43
0.0000000001
 40
0.0
 40
0.0
 40
0.0
 40
0.0
 40
1.0
 40
1.0
 40
1.0
 40
2.0
 40
2.0
 40
2.0
 40
3.0
 40
3.0
 40
3.0
 40
4.0
 40
4.0
 40
4.0
 40
5.0
 40
5.0
 40
5.0
 40
6.0
 40
6.0
 40
6.0
 40
7.0
 40
7.0
 40
7.0
 40
8.0
 40
8.0
 40
8.0
 40
9.0
 40
9.0
 40
9.0
 40
10.0
 40
10.0
 40
10.0
 40
11.0
 40
11.0
 40
11.0
 40
12.0
 40
12.0
 40
12.0
 40
12.0
 10
-295.9926133157588
 20
-246.7956162577456
 30
0.0
 10
-295.9926133157588
 20
-246.7956162577456
 30
0.0
 10
-295.9926133157588
 20
-220.6128905698468
 30
0.0
 10
-295.9926133157588
 20
-220.6128905698468
 30
0.0
 10
-295.9926133157588
 20
-220.6128905698468
 30
0.0
 10
-295.884437317522
 20
-220.6959173710413
 30
0.0
 10
-295.884437317522
 20
-220.6959173710413
 30
0.0
 10
-289.638479202764
 20
-226.6545545223294
 30
0.0
 10
-286.2974256011687
 20
-229.8950113357554
 30
0.0
 10
-282.9267441784003
 20
-229.8950113357554
 30
0.0
 10
-279.4196369744159
 20
-229.8950113357554
 30
0.0
 10
-276.5767441799878
 20
-224.1038058250504
 30
0.0
 10
-276.5767441799878
 20
-216.9597113172879
 30
0.0
 10
-276.5767441799878
 20
-209.8156168095253
 30
0.0
 10
-279.4196369744159
 20
-204.0233777701747
 30
0.0
 10
-282.9267441784003
 20
-204.0233777701747
 30
0.0
 10
-286.3125840213038
 20
-204.0233777701747
 30
0.0
 10
-289.6687960430342
 20
-207.2927733856768
 30
0.0
 10
-295.9705647046532
 20
-213.3023979501466
 30
0.0
 10
-295.9705647046532
 20
-213.3023979501466
 30
0.0
 10
-295.9926133157588
 20
-213.3089436315686
 30
0.0
 10
-295.9926133157588
 20
-213.3089436315686
 30
0.0
 10
-295.9926133157588
 20
-213.3089436315686
 30
0.0
 10
-295.9926133157588
 20
-59.97360024542327
 30
0.0
 10
-295.9926133157588
 20
-59.97360024542327
 30
0.0
 10
-286.0555798981042
 20
-49.8181477740038
 30
0.0
 10
-277.4235486502622
 20
-43.38787705078498
 30
0.0
 10
-271.4931612819531
 20
-43.38787705078498
 30
0.0
 10
-211.1681612970343
 20
-43.38787705078498
 30
0.0
 10
-219.9876057392739
 20
-170.2934814027391
 30
0.0
 10
-176.5828477206112
 20
-207.7282334550124
 30
0.0
 10
-168.6722194673806
 20
-214.5509005540012
 30
0.0
 10
-253.8618516075415
 20
-241.2810519145062
 30
0.0
 10
-295.8196695223992
 20
-246.7649549079268
 30
0.0
 10
-295.8196695223992
 20
-246.7649549079268
 30
0.0
 10
-295.9926133157588
 20
-246.7956162577456
 30
0.0
 10
-295.9926133157588
 20
-246.7956162577456
 30
0.0
  0
POLYLINE
  5
6C
330
1F
100
AcDbEntity
  8
Calque 1
 62
   250
370
    35
100
AcDb2dPolyline
 66
     1
 10
0.0
 20
0.0
 30
0.0
  0
VERTEX
  5
6D
330
6C
100
AcDbEntity
  8
Calque 1
 62
   250
370
    35
100
AcDbVertex
100
AcDb2dVertex
 10
481.8968558908105
 20
350.3176350035665
 30
0.0
  0
VERTEX
  5
6E
330
6C
100
AcDbEntity
  8
Calque 1
 62
   250
370
    35
100
AcDbVertex
100
AcDb2dVertex
 10
141.8972818655674
 20
350.3176350035665
 30
0.0
  0
VERTEX
  5
6F
330
6C
100
AcDbEntity
  8
Calque 1
 62
   250
370
    35
100
AcDbVertex
100
AcDb2dVertex
 10
141.8972818655674
 20
400.3176838191914
 30
0.0
  0
VERTEX
  5
70
330
6C
100
AcDbEntity
  8
Calque 1
 62
   250
370
    35
100
AcDbVertex
100
AcDb2dVertex
 10
481.8968558908105
 20
400.3176838191914
 30
0.0
  0
VERTEX
  5
71
330
6C
100
AcDbEntity
  8
Calque 1
 62
   250
370
    35
100
AcDbVertex
100
AcDb2dVertex
 10
481.8968558908105
 20
350.3176350035665
 30
0.0
  0
SEQEND
  5
72
330
6C
100
AcDbEntity
  8
Calque 1
370
    35
  0
SPLINE
  5
73
330
1F
100
AcDbEntity
  8
Calque 1
 62
   250
370
    35
100
AcDbSpline
210
0.0
220
0.0
230
1.0
 70
    11
 71
     3
 72
    38
 73
    34
 74
     0
 42
0.0000000001
 43
0.0000000001
 40
0.0
 40
0.0
 40
0.0
 40
0.0
 40
1.0
 40
1.0
 40
1.0
 40
2.0
 40
2.0
 40
2.0
 40
3.0
 40
3.0
 40
3.0
 40
4.0
 40
4.0
 40
4.0
 40
5.0
 40
5.0
 40
5.0
 40
6.0
 40
6.0
 40
6.0
 40
7.0
 40
7.0
 40
7.0
 40
8.0
 40
8.0
 40
8.0
 40
9.0
 40
9.0
 40
9.0
 40
10.0
 40
10.0
 40
10.0
 40
11.0
 40
11.0
 40
11.0
 40
11.0
 10
486.8512477081483
 20
-212.3615423731249
 30
0.0
 10
486.8512477081483
 20
-212.3615423731249
 30
0.0
 10
579.4161402631321
 20
-212.3615423731249
 30
0.0
 10
579.4161402631321
 20
-212.3615423731249
 30
0.0
 10
579.4161402631321
 20
-212.3615423731249
 30
0.0
 10
579.4161402631321
 20
-200.6020534437731
 30
0.0
 10
579.4161402631321
 20
-200.6020534437731
 30
0.0
 10
579.4161402631321
 20
-200.6020534437731
 30
0.0
 10
370.258192181741
 20
-180.9036864782116
 30
0.0
 10
194.2710014705295
 20
-180.9036864782116
 30
0.0
 10
18.28363850454367
 20
-180.9036864782116
 30
0.0
 10
-50.58657632198877
 20
-198.4853867776356
 30
0.0
 10
-50.58657632198877
 20
-198.4853867776356
 30
0.0
 10
-50.58657632198877
 20
-198.4853867776356
 30
0.0
 10
-50.58657632198877
 20
-250.2241752846662
 30
0.0
 10
-50.58657632198877
 20
-250.2241752846662
 30
0.0
 10
6.968566892789108
 20
-268.4056667080722
 30
0.0
 10
36.12079263419897
 20
-270.9033609348783
 30
0.0
 10
62.06356742155008
 20
-270.9033609348783
 30
0.0
 10
111.0995062656279
 20
-270.9033609348783
 30
0.0
 10
268.6819633659892
 20
-270.9033609348783
 30
0.0
 10
285.6810980188575
 20
-270.9033609348783
 30
0.0
 10
332.1206406504768
 20
-270.9033609348783
 30
0.0
 10
579.4161402631321
 20
-239.2305310816854
 30
0.0
 10
579.4161402631321
 20
-239.2305310816854
 30
0.0
 10
579.4161402631321
 20
-239.2305310816854
 30
0.0
 10
579.4161402631321
 20
-218.361520670236
 30
0.0
 10
579.4161402631321
 20
-218.361520670236
 30
0.0
 10
579.4161402631321
 20
-218.361520670236
 30
0.0
 10
486.8512477081483
 20
-218.361520670236
 30
0.0
 10
486.8512477081483
 20
-218.361520670236
 30
0.0
 10
486.8512477081483
 20
-218.361520670236
 30
0.0
 10
486.8512477081483
 20
-212.3615423731249
 30
0.0
 10
486.8512477081483
 20
-212.3615423731249
 30
0.0
  0
SPLINE
  5
74
330
1F
100
AcDbEntity
  8
Calque 1
  6
AI-Linetype-3
 62
   250
370
    35
100
AcDbSpline
210
0.0
220
0.0
230
1.0
 70
    11
 71
     3
 72
    17
 73
    13
 74
     0
 42
0.0000000001
 43
0.0000000001
 40
0.0
 40
0.0
 40
0.0
 40
0.0
 40
1.0
 40
1.0
 40
1.0
 40
2.0
 40
2.0
 40
2.0
 40
3.0
 40
3.0
 40
3.0
 40
4.0
 40
4.0
 40
4.0
 40
4.0
 10
114.893245413985
 20
-264.9033826377672
 30
0.0
 10
106.116175646214
 20
-264.9150959624171
 30
0.0
 10
78.36868758891478
 20
-267.4158907751599
 30
0.0
 10
66.99711641120211
 20
-270.9033609348783
 30
0.0
 10
66.99711641120211
 20
-270.9033609348783
 30
0.0
 10
178.0638942697202
 20
-270.9033609348783
 30
0.0
 10
178.0638942697202
 20
-270.9033609348783
 30
0.0
 10
178.0638942697202
 20
-270.9033609348783
 30
0.0
 10
178.0638942697202
 20
-264.9033826377672
 30
0.0
 10
178.0638942697202
 20
-264.9033826377672
 30
0.0
 10
178.0638942697202
 20
-264.9033826377672
 30
0.0
 10
114.893245413985
 20
-264.9033826377672
 30
0.0
 10
114.893245413985
 20
-264.9033826377672
 30
0.0
  0
SPLINE
  5
76
330
1F
100
AcDbEntity
  8
Calque 1
 62
   250
370
    35
100
AcDbSpline
210
0.0
220
0.0
230
1.0
 70
    11
 71
     3
 72
    38
 73
    34
 74
     0
 42
0.0000000001
 43
0.0000000001
 40
0.0
 40
0.0
 40
0.0
 40
0.0
 40
1.0
 40
1.0
 40
1.0
 40
2.0
 40
2.0
 40
2.0
 40
3.0
 40
3.0
 40
3.0
 40
4.0
 40
4.0
 40
4.0
 40
5.0
 40
5.0
 40
5.0
 40
6.0
 40
6.0
 40
6.0
 40
7.0
 40
7.0
 40
7.0
 40
8.0
 40
8.0
 40
8.0
 40
9.0
 40
9.0
 40
9.0
 40
10.0
 40
10.0
 40
10.0
 40
11.0
 40
11.0
 40
11.0
 40
11.0
 10
486.8512477081483
 20
-143.1512966221983
 30
0.0
 10
486.8512477081483
 20
-143.1512966221983
 30
0.0
 10
579.4161402631321
 20
-143.1512966221983
 30
0.0
 10
579.4161402631321
 20
-143.1512966221983
 30
0.0
 10
579.4161402631321
 20
-143.1512966221983
 30
0.0
 10
579.4161402631321
 20
-154.9107855515501
 30
0.0
 10
579.4161402631321
 20
-154.9107855515501
 30
0.0
 10
579.4161402631321
 20
-154.9107855515501
 30
0.0
 10
370.258192181741
 20
-174.6091525171116
 30
0.0
 10
194.2710014705295
 20
-174.6091525171116
 30
0.0
 10
18.28363850454367
 20
-174.6091525171116
 30
0.0
 10
-50.58657632198877
 20
-157.0274522176876
 30
0.0
 10
-50.58657632198877
 20
-157.0274522176876
 30
0.0
 10
-50.58657632198877
 20
-157.0274522176876
 30
0.0
 10
-50.58657632198877
 20
-105.288663710657
 30
0.0
 10
-50.58657632198877
 20
-105.288663710657
 30
0.0
 10
6.968566892789108
 20
-87.10717228725099
 30
0.0
 10
36.12079263419897
 20
-84.60947806044486
 30
0.0
 10
62.06356742155008
 20
-84.60947806044486
 30
0.0
 10
111.0995062656279
 20
-84.60947806044486
 30
0.0
 10
268.6819633659892
 20
-84.60947806044486
 30
0.0
 10
285.6810980188575
 20
-84.60947806044486
 30
0.0
 10
332.1206406504768
 20
-84.60947806044486
 30
0.0
 10
579.4161402631321
 20
-116.2823079136378
 30
0.0
 10
579.4161402631321
 20
-116.2823079136378
 30
0.0
 10
579.4161402631321
 20
-116.2823079136378
 30
0.0
 10
579.4161402631321
 20
-137.1513183250872
 30
0.0
 10
579.4161402631321
 20
-137.1513183250872
 30
0.0
 10
579.4161402631321
 20
-137.1513183250872
 30
0.0
 10
486.8512477081483
 20
-137.1513183250872
 30
0.0
 10
486.8512477081483
 20
-137.1513183250872
 30
0.0
 10
486.8512477081483
 20
-137.1513183250872
 30
0.0
 10
486.8512477081483
 20
-143.1512966221983
 30
0.0
 10
486.8512477081483
 20
-143.1512966221983
 30
0.0
  0
SPLINE
  5
77
330
1F
100
AcDbEntity
  8
Calque 1
  6
AI-Linetype-4
 62
   250
370
    35
100
AcDbSpline
210
0.0
220
0.0
230
1.0
 70
    11
 71
     3
 72
    17
 73
    13
 74
     0
 42
0.0000000001
 43
0.0000000001
 40
0.0
 40
0.0
 40
0.0
 40
0.0
 40
1.0
 40
1.0
 40
1.0
 40
2.0
 40
2.0
 40
2.0
 40
3.0
 40
3.0
 40
3.0
 40
4.0
 40
4.0
 40
4.0
 40
4.0
 10
114.893245413985
 20
-90.60945635755597
 30
0.0
 10
106.116175646214
 20
-90.59774303290612
 30
0.0
 10
78.36868758891478
 20
-88.09694822016327
 30
0.0
 10
66.99711641120211
 20
-84.60947806044486
 30
0.0
 10
66.99711641120211
 20
-84.60947806044486
 30
0.0
 10
178.0638942697202
 20
-84.60947806044486
 30
0.0
 10
178.0638942697202
 20
-84.60947806044486
 30
0.0
 10
178.0638942697202
 20
-84.60947806044486
 30
0.0
 10
178.0638942697202
 20
-90.60945635755597
 30
0.0
 10
178.0638942697202
 20
-90.60945635755597
 30
0.0
 10
178.0638942697202
 20
-90.60945635755597
 30
0.0
 10
114.893245413985
 20
-90.60945635755597
 30
0.0
 10
114.893245413985
 20
-90.60945635755597
 30
0.0
  0
POLYLINE
  5
79
330
1F
100
AcDbEntity
  8
Calque 1
 62
   250
370
    35
100
AcDb2dPolyline
 66
     1
 10
0.0
 20
0.0
 30
0.0
  0
VERTEX
  5
7A
330
79
100
AcDbEntity
  8
Calque 1
 62
   250
370
    35
100
AcDbVertex
100
AcDb2dVertex
 10
65.70572236855621
 20
56.0014051509302
 30
0.0
  0
VERTEX
  5
7B
330
79
100
AcDbEntity
  8
Calque 1
 62
   250
370
    35
100
AcDbVertex
100
AcDb2dVertex
 10
-50.60793591399732
 20
56.0014051509302
 30
0.0
  0
VERTEX
  5
7C
330
79
100
AcDbEntity
  8
Calque 1
 62
   250
370
    35
100
AcDbVertex
100
AcDb2dVertex
 10
-50.60793591399732
 20
-0.9983886716254029
 30
0.0
  0
VERTEX
  5
7D
330
79
100
AcDbEntity
  8
Calque 1
 62
   250
370
    35
100
AcDbVertex
100
AcDb2dVertex
 10
65.70572236855621
 20
-0.9983886716254029
 30
0.0
  0
VERTEX
  5
7E
330
79
100
AcDbEntity
  8
Calque 1
 62
   250
370
    35
100
AcDbVertex
100
AcDb2dVertex
 10
65.70572236855621
 20
56.0014051509302
 30
0.0
  0
SEQEND
  5
7F
330
79
100
AcDbEntity
  8
Calque 1
370
    35
  0
SPLINE
  5
80
330
1F
100
AcDbEntity
  8
Calque 1
 62
   250
370
    35
100
AcDbSpline
210
0.0
220
0.0
230
1.0
 70
    11
 71
     3
 72
    23
 73
    19
 74
     0
 42
0.0000000001
 43
0.0000000001
 40
0.0
 40
0.0
 40
0.0
 40
0.0
 40
1.0
 40
1.0
 40
1.0
 40
2.0
 40
2.0
 40
2.0
 40
3.0
 40
3.0
 40
3.0
 40
4.0
 40
4.0
 40
4.0
 40
5.0
 40
5.0
 40
5.0
 40
6.0
 40
6.0
 40
6.0
 40
6.0
 10
-148.438312408637
 20
-239.6608235077931
 30
0.0
 10
-148.438312408637
 20
-239.6608235077931
 30
0.0
 10
-148.438312408637
 20
-249.8521049722592
 30
0.0
 10
-148.438312408637
 20
-249.8521049722592
 30
0.0
 10
-148.438312408637
 20
-249.8521049722592
 30
0.0
 10
-91.43851858608134
 20
-249.8521049722592
 30
0.0
 10
-91.43851858608134
 20
-249.8521049722592
 30
0.0
 10
-91.43851858608134
 20
-249.8521049722592
 30
0.0
 10
-91.43851858608134
 20
-239.6608235077931
 30
0.0
 10
-91.43851858608134
 20
-239.6608235077931
 30
0.0
 10
-91.43851858608134
 20
-142.823668041551
 30
0.0
 10
-115.3347344004198
 20
40.22183429984037
 30
0.0
 10
-116.8874389356219
 20
53.67768824612919
 30
0.0
 10
-116.8874389356219
 20
53.67768824612919
 30
0.0
 10
-122.9893920590964
 20
53.67768824612919
 30
0.0
 10
-122.9893920590964
 20
53.67768824612919
 30
0.0
 10
-124.5420965942985
 20
40.22183429984037
 30
0.0
 10
-148.438312408637
 20
-142.8240125510996
 30
0.0
 10
-148.438312408637
 20
-239.6608235077931
 30
0.0
  0
POLYLINE
  5
81
330
1F
100
AcDbEntity
  8
Calque 1
 62
   250
370
    35
100
AcDb2dPolyline
 66
     1
 10
0.0
 20
0.0
 30
0.0
  0
VERTEX
  5
82
330
81
100
AcDbEntity
  8
Calque 1
 62
   250
370
    35
100
AcDbVertex
100
AcDb2dVertex
 10
-7.495321992483809
 20
-20.34673393588554
 30
0.0
  0
VERTEX
  5
83
330
81
100
AcDbEntity
  8
Calque 1
 62
   250
370
    35
100
AcDbVertex
100
AcDb2dVertex
 10
-7.495321992483809
 20
-77.34652775844116
 30
0.0
  0
VERTEX
  5
84
330
81
100
AcDbEntity
  8
Calque 1
 62
   250
370
    35
100
AcDbVertex
100
AcDb2dVertex
 10
252.6805283656493
 20
-77.34652775844116
 30
0.0
  0
VERTEX
  5
85
330
81
100
AcDbEntity
  8
Calque 1
 62
   250
370
    35
100
AcDbVertex
100
AcDb2dVertex
 10
252.6805283656493
 20
-20.34673393588554
 30
0.0
  0
VERTEX
  5
86
330
81
100
AcDbEntity
  8
Calque 1
 62
   250
370
    35
100
AcDbVertex
100
AcDb2dVertex
 10
-7.495321992483809
 20
-20.34673393588554
 30
0.0
  0
SEQEND
  5
87
330
81
100
AcDbEntity
  8
Calque 1
370
    35
  0
POLYLINE
  5
88
330
1F
100
AcDbEntity
  8
Calque 1
 62
   250
370
    35
100
AcDb2dPolyline
 66
     1
 10
0.0
 20
0.0
 30
0.0
  0
VERTEX
  5
89
330
88
100
AcDbEntity
  8
Calque 1
 62
   250
370
    35
100
AcDbVertex
100
AcDb2dVertex
 10
232.5311984010686
 20
-51.8976074089006
 30
0.0
  0
VERTEX
  5
8A
330
88
100
AcDbEntity
  8
Calque 1
 62
   250
370
    35
100
AcDbVertex
100
AcDb2dVertex
 10
152.5309135903395
 20
-51.8976074089006
 30
0.0
  0
VERTEX
  5
8B
330
88
100
AcDbEntity
  8
Calque 1
 62
   250
370
    35
100
AcDbVertex
100
AcDb2dVertex
 10
152.5309135903395
 20
-45.89762911178948
 30
0.0
  0
VERTEX
  5
8C
330
88
100
AcDbEntity
  8
Calque 1
 62
   250
370
    35
100
AcDbVertex
100
AcDb2dVertex
 10
232.5311984010686
 20
-45.89762911178948
 30
0.0
  0
VERTEX
  5
8D
330
88
100
AcDbEntity
  8
Calque 1
 62
   250
370
    35
100
AcDbVertex
100
AcDb2dVertex
 10
232.5311984010686
 20
-51.8976074089006
 30
0.0
  0
SEQEND
  5
8E
330
88
100
AcDbEntity
  8
Calque 1
370
    35
  0
SPLINE
  5
8F
330
1F
100
AcDbEntity
  8
Calque 1
 62
   250
370
    35
100
AcDbSpline
210
0.0
220
0.0
230
1.0
 70
    11
 71
     3
 72
    23
 73
    19
 74
     0
 42
0.0000000001
 43
0.0000000001
 40
0.0
 40
0.0
 40
0.0
 40
0.0
 40
1.0
 40
1.0
 40
1.0
 40
2.0
 40
2.0
 40
2.0
 40
3.0
 40
3.0
 40
3.0
 40
4.0
 40
4.0
 40
4.0
 40
5.0
 40
5.0
 40
5.0
 40
6.0
 40
6.0
 40
6.0
 40
6.0
 10
285.9994248416946
 20
-20.2054850209903
 30
0.0
 10
285.9994248416946
 20
-20.2054850209903
 30
0.0
 10
257.6803954433924
 20
-20.2054850209903
 30
0.0
 10
257.6803954433924
 20
-20.2054850209903
 30
0.0
 10
257.6803954433924
 20
-20.2054850209903
 30
0.0
 10
257.6803954433924
 20
-77.20527884354591
 30
0.0
 10
257.6803954433924
 20
-77.20527884354591
 30
0.0
 10
257.6803954433924
 20
-77.20527884354591
 30
0.0
 10
285.9994248416946
 20
-77.20527884354591
 30
0.0
 10
285.9994248416946
 20
-77.20527884354591
 30
0.0
 10
382.8362357983882
 20
-77.20527884354591
 30
0.0
 10
565.8817381397796
 20
-53.30906302920746
 30
0.0
 10
579.3375920860684
 20
-51.75635849400535
 30
0.0
 10
579.3375920860684
 20
-51.75635849400535
 30
0.0
 10
579.3375920860684
 20
-45.65440537053085
 30
0.0
 10
579.3375920860684
 20
-45.65440537053085
 30
0.0
 10
565.8817381397796
 20
-44.10170083532874
 30
0.0
 10
382.8362357983882
 20
-20.2054850209903
 30
0.0
 10
285.9994248416946
 20
-20.2054850209903
 30
0.0
  0
POLYLINE
  5
90
330
1F
100
AcDbEntity
  8
Calque 1
 62
   250
370
    35
100
AcDb2dPolyline
 66
     1
 10
0.0
 20
0.0
 30
0.0
  0
VERTEX
  5
91
330
90
100
AcDbEntity
  8
Calque 1
 62
   250
370
    35
100
AcDbVertex
100
AcDb2dVertex
 10
526.7716361530294
 20
-51.75635849400535
 30
0.0
  0
VERTEX
  5
92
330
90
100
AcDbEntity
  8
Calque 1
 62
   250
370
    35
100
AcDbVertex
100
AcDb2dVertex
 10
486.7726995310846
 20
-51.75635849400535
 30
0.0
  0
VERTEX
  5
93
330
90
100
AcDbEntity
  8
Calque 1
 62
   250
370
    35
100
AcDbVertex
100
AcDb2dVertex
 10
486.7726995310846
 20
-45.75638019689424
 30
0.0
  0
VERTEX
  5
94
330
90
100
AcDbEntity
  8
Calque 1
 62
   250
370
    35
100
AcDbVertex
100
AcDb2dVertex
 10
526.7716361530294
 20
-45.75638019689424
 30
0.0
  0
VERTEX
  5
95
330
90
100
AcDbEntity
  8
Calque 1
 62
   250
370
    35
100
AcDbVertex
100
AcDb2dVertex
 10
526.7716361530294
 20
-51.75635849400535
 30
0.0
  0
SEQEND
  5
96
330
90
100
AcDbEntity
  8
Calque 1
370
    35
  0
POLYLINE
  5
97
330
1F
100
AcDbEntity
  8
Calque 1
 62
   250
370
    35
100
AcDb2dPolyline
 66
     1
 10
0.0
 20
0.0
 30
0.0
  0
VERTEX
  5
98
330
97
100
AcDbEntity
  8
Calque 1
 62
   250
370
    35
100
AcDbVertex
100
AcDb2dVertex
 10
-60.60801457903203
 20
-20.2054850209903
 30
0.0
  0
VERTEX
  5
99
330
97
100
AcDbEntity
  8
Calque 1
 62
   250
370
    35
100
AcDbVertex
100
AcDb2dVertex
 10
-60.60801457903203
 20
-77.20527884354591
 30
0.0
  0
VERTEX
  5
9A
330
97
100
AcDbEntity
  8
Calque 1
 62
   250
370
    35
100
AcDbVertex
100
AcDb2dVertex
 10
-12.49536132500116
 20
-77.20527884354591
 30
0.0
  0
VERTEX
  5
9B
330
97
100
AcDbEntity
  8
Calque 1
 62
   250
370
    35
100
AcDbVertex
100
AcDb2dVertex
 10
-12.49536132500116
 20
-20.2054850209903
 30
0.0
  0
VERTEX
  5
9C
330
97
100
AcDbEntity
  8
Calque 1
 62
   250
370
    35
100
AcDbVertex
100
AcDb2dVertex
 10
-60.60801457903203
 20
-20.2054850209903
 30
0.0
  0
SEQEND
  5
9D
330
97
100
AcDbEntity
  8
Calque 1
370
    35
  0
INSERT
  5
9F
330
1F
100
AcDbEntity
  8
Calque 1
100
AcDbBlockReference
  2
block 5
 10
0.0
 20
0.0
 30
0.0
  0
POLYLINE
  5
AD
330
1F
100
AcDbEntity
  8
Calque 1
 62
   250
370
    35
100
AcDb2dPolyline
 66
     1
 10
0.0
 20
0.0
 30
0.0
  0
VERTEX
  5
AE
330
AD
100
AcDbEntity
  8
Calque 1
 62
   250
370
    35
100
AcDbVertex
100
AcDb2dVertex
 10
-190.803857374174
 20
-77.20217825760918
 30
0.0
  0
VERTEX
  5
AF
330
AD
100
AcDbEntity
  8
Calque 1
 62
   250
370
    35
100
AcDbVertex
100
AcDb2dVertex
 10
-220.8037488597296
 20
-77.20217825760918
 30
0.0
  0
VERTEX
  5
B0
330
AD
100
AcDbEntity
  8
Calque 1
 62
   250
370
    35
100
AcDbVertex
100
AcDb2dVertex
 10
-220.8037488597296
 20
-32.20234102927581
 30
0.0
  0
VERTEX
  5
B1
330
AD
100
AcDbEntity
  8
Calque 1
 62
   250
370
    35
100
AcDbVertex
100
AcDb2dVertex
 10
-190.803857374174
 20
-32.20234102927581
 30
0.0
  0
VERTEX
  5
B2
330
AD
100
AcDbEntity
  8
Calque 1
 62
   250
370
    35
100
AcDbVertex
100
AcDb2dVertex
 10
-190.803857374174
 20
-77.20217825760918
 30
0.0
  0
SEQEND
  5
B3
330
AD
100
AcDbEntity
  8
Calque 1
370
    35
  0
POLYLINE
  5
B4
330
1F
100
AcDbEntity
  8
Calque 1
 62
   250
370
    35
100
AcDb2dPolyline
 66
     1
 10
0.0
 20
0.0
 30
0.0
  0
VERTEX
  5
B5
330
B4
100
AcDbEntity
  8
Calque 1
 62
   250
370
    35
100
AcDbVertex
100
AcDb2dVertex
 10
-152.7000677786653
 20
-77.20217825760918
 30
0.0
  0
VERTEX
  5
B6
330
B4
100
AcDbEntity
  8
Calque 1
 62
   250
370
    35
100
AcDbVertex
100
AcDb2dVertex
 10
-182.6999592642209
 20
-77.20217825760918
 30
0.0
  0
VERTEX
  5
B7
330
B4
100
AcDbEntity
  8
Calque 1
 62
   250
370
    35
100
AcDbVertex
100
AcDb2dVertex
 10
-182.6999592642209
 20
-32.20234102927581
 30
0.0
  0
VERTEX
  5
B8
330
B4
100
AcDbEntity
  8
Calque 1
 62
   250
370
    35
100
AcDbVertex
100
AcDb2dVertex
 10
-152.7000677786653
 20
-32.20234102927581
 30
0.0
  0
VERTEX
  5
B9
330
B4
100
AcDbEntity
  8
Calque 1
 62
   250
370
    35
100
AcDbVertex
100
AcDb2dVertex
 10
-152.7000677786653
 20
-77.20217825760918
 30
0.0
  0
SEQEND
  5
BA
330
B4
100
AcDbEntity
  8
Calque 1
370
    35
  0
ENDSEC
  0
SECTION
  2
OBJECTS
  0
DICTIONARY
  5
C
330
0
100
AcDbDictionary
281
     1
  3
ACAD_GROUP
350
D
  3
ACAD_LAYOUT
350
1A
  3
ACAD_MLINESTYLE
350
17
  3
ACAD_PLOTSETTINGS
350
19
  3
ACAD_PLOTSTYLENAME
350
E
  3
ACAD_TABLESTYLE
350
BC
  3
ACAD_VISUALSTYLE
350
2A
  0
DICTIONARY
  5
D
102
{ACAD_REACTORS
330
C
102
}
330
C
100
AcDbDictionary
281
     1
  0
DICTIONARY
  5
1A
102
{ACAD_REACTORS
330
C
102
}
330
C
100
AcDbDictionary
281
     1
  3
Layout1
350
1E
  3
Layout2
350
26
  3
Model
350
22
  0
DICTIONARY
  5
17
102
{ACAD_REACTORS
330
C
102
}
330
C
100
AcDbDictionary
281
     1
  3
Standard
350
18
  0
DICTIONARY
  5
19
102
{ACAD_REACTORS
330
C
102
}
330
C
100
AcDbDictionary
281
     1
  0
ACDBDICTIONARYWDFLT
  5
E
102
{ACAD_REACTORS
330
C
102
}
330
C
100
AcDbDictionary
281
     1
  3
Normal
350
F
100
AcDbDictionaryWithDefault
340
F
  0
DICTIONARY
  5
BC
102
{ACAD_REACTORS
330
C
102
}
330
C
100
AcDbDictionary
281
     1
  0
DICTIONARY
  5
2A
102
{ACAD_REACTORS
330
C
102
}
330
C
100
AcDbDictionary
281
     1
  3
2dWireframe
350
2F
  3
3D Hidden
350
31
  3
3dWireframe
350
30
  3
Basic
350
32
  3
Brighten
350
36
  3
ColorChange
350
3A
  3
Conceptual
350
34
  3
Dim
350
35
  3
Facepattern
350
39
  3
Flat
350
2B
  3
FlatWithEdges
350
2C
  3
Gouraud
350
2D
  3
GouraudWithEdges
350
2E
  3
Linepattern
350
38
  3
Realistic
350
33
  3
Thicken
350
37
  0
LAYOUT
  5
1E
102
{ACAD_REACTORS
330
1A
102
}
330
1A
100
AcDbPlotSettings
  1

  2
none_device
  4

  6

 40
0.0
 41
0.0
 42
0.0
 43
0.0
 44
0.0
 45
0.0
 46
0.0
 47
0.0
 48
0.0
 49
0.0
140
0.0
141
0.0
142
1.0
143
1.0
 70
   688
 72
     0
 73
     0
 74
     5
  7

 75
    16
 76
     0
 77
     2
 78
   300
147
1.0
148
0.0
149
0.0
100
AcDbLayout
  1
Layout1
 70
     1
 71
     1
 10
0.0
 20
0.0
 11
12.0
 21
9.0
 12
0.0
 22
0.0
 32
0.0
 14
1.000000000000000E+20
 24
1.000000000000000E+20
 34
1.000000000000000E+20
 15
-1.000000000000000E+20
 25
-1.000000000000000E+20
 35
-1.000000000000000E+20
146
0.0
 13
0.0
 23
0.0
 33
0.0
 16
1.0
 26
0.0
 36
0.0
 17
0.0
 27
1.0
 37
0.0
 76
     0
330
1B
  0
LAYOUT
  5
26
102
{ACAD_REACTORS
330
1A
102
}
330
1A
100
AcDbPlotSettings
  1

  2
none_device
  4

  6

 40
0.0
 41
0.0
 42
0.0
 43
0.0
 44
0.0
 45
0.0
 46
0.0
 47
0.0
 48
0.0
 49
0.0
140
0.0
141
0.0
142
1.0
143
1.0
 70
   688
 72
     0
 73
     0
 74
     5
  7

 75
    16
 76
     0
 77
     2
 78
   300
147
1.0
148
0.0
149
0.0
100
AcDbLayout
  1
Layout2
 70
     1
 71
     2
 10
0.0
 20
0.0
 11
0.0
 21
0.0
 12
0.0
 22
0.0
 32
0.0
 14
0.0
 24
0.0
 34
0.0
 15
0.0
 25
0.0
 35
0.0
146
0.0
 13
0.0
 23
0.0
 33
0.0
 16
1.0
 26
0.0
 36
0.0
 17
0.0
 27
1.0
 37
0.0
 76
     0
330
23
  0
LAYOUT
  5
22
102
{ACAD_REACTORS
330
1A
102
}
330
1A
100
AcDbPlotSettings
  1

  2
none_device
  4

  6

 40
0.0
 41
0.0
 42
0.0
 43
0.0
 44
0.0
 45
0.0
 46
0.0
 47
0.0
 48
0.0
 49
0.0
140
0.0
141
0.0
142
1.0
143
1.0
 70
  1712
 72
     0
 73
     0
 74
     0
  7

 75
     0
 76
     0
 77
     2
 78
   300
147
1.0
148
0.0
149
0.0
100
AcDbLayout
  1
Model
 70
     1
 71
     0
 10
0.0
 20
0.0
 11
12.0
 21
9.0
 12
0.0
 22
0.0
 32
0.0
 14
1.000000000000000E+20
 24
1.000000000000000E+20
 34
1.000000000000000E+20
 15
-1.000000000000000E+20
 25
-1.000000000000000E+20
 35
-1.000000000000000E+20
146
0.0
 13
0.0
 23
0.0
 33
0.0
 16
1.0
 26
0.0
 36
0.0
 17
0.0
 27
1.0
 37
0.0
 76
     0
330
1F
331
29
  0
MLINESTYLE
  5
18
102
{ACAD_REACTORS
330
17
102
}
330
17
100
AcDbMlineStyle
  2
Standard
 70
     0
  3

 62
   256
 51
90.0
 52
90.0
 71
     2
 49
0.5
 62
   256
  6
BYLAYER
 49
-0.5
 62
   256
  6
BYLAYER
  0
ACDBPLACEHOLDER
  5
F
102
{ACAD_REACTORS
330
E
102
}
330
E
  0
VISUALSTYLE
  5
2F
102
{ACAD_REACTORS
330
2A
102
}
330
2A
100
AcDbVisualStyle
  2
2dWireframe
 70
     4
 71
     0
 72
     2
 73
     0
 90
        0
 40
-0.6
 41
-30.0
 62
     5
 63
     7
421
 16777215
 74
     1
 91
        4
 64
     7
 65
   257
 75
     1
175
     1
 42
1.0
 92
        0
 66
   257
 43
1.0
 76
     1
 77
     6
 78
     2
 67
     7
 79
     5
170
     0
171
     0
290
     0
174
     0
 93
        1
 44
0.0
173
     0
291
     0
 45
0.0
1001
ACAD
1000
AcDbSavedByObjectVersion
1070
     0
  0
VISUALSTYLE
  5
31
102
{ACAD_REACTORS
330
2A
102
}
330
2A
100
AcDbVisualStyle
  2
3D Hidden
 70
     6
 71
     1
 72
     2
 73
     2
 90
        0
 40
-0.6
 41
-30.0
 62
     5
 63
     7
421
 16777215
 74
     2
 91
        2
 64
     7
 65
   257
 75
     2
175
     1
 42
40.0
 92
        0
 66
   257
 43
1.0
 76
     1
 77
     6
 78
     2
 67
     7
 79
     3
170
     0
171
     0
290
     0
174
     0
 93
        1
 44
0.0
173
     0
291
     0
 45
0.0
1001
ACAD
1000
AcDbSavedByObjectVersion
1070
     0
  0
VISUALSTYLE
  5
30
102
{ACAD_REACTORS
330
2A
102
}
330
2A
100
AcDbVisualStyle
  2
3dWireframe
 70
     5
 71
     0
 72
     2
 73
     0
 90
        0
 40
-0.6
 41
-30.0
 62
     5
 63
     7
421
 16777215
 74
     1
 91
        4
 64
     7
 65
   257
 75
     1
175
     1
 42
1.0
 92
        0
 66
   257
 43
1.0
 76
     1
 77
     6
 78
     2
 67
     7
 79
     5
170
     0
171
     0
290
     0
174
     0
 93
        1
 44
0.0
173
     0
291
     0
 45
0.0
1001
ACAD
1000
AcDbSavedByObjectVersion
1070
     0
  0
VISUALSTYLE
  5
32
102
{ACAD_REACTORS
330
2A
102
}
330
2A
100
AcDbVisualStyle
  2
Basic
 70
     7
 71
     1
 72
     0
 73
     1
 90
        0
 40
-0.6
 41
-30.0
 62
     5
 63
     7
421
 16777215
 74
     0
 91
        4
 64
     7
 65
   257
 75
     1
175
     1
 42
1.0
 92
        8
 66
     7
 43
1.0
 76
     1
 77
     6
 78
     2
 67
     7
 79
     5
170
     0
171
     0
290
     0
174
     0
 93
        1
 44
0.0
173
     0
291
     1
 45
0.0
1001
ACAD
1000
AcDbSavedByObjectVersion
1070
     0
  0
VISUALSTYLE
  5
36
102
{ACAD_REACTORS
330
2A
102
}
330
2A
100
AcDbVisualStyle
  2
Brighten
 70
    12
 71
     2
 72
     2
 73
     0
 90
        0
 40
-0.6
 41
-30.0
 62
     5
 63
     7
421
 16777215
 74
     1
 91
        4
 64
     7
 65
   257
 75
     1
175
     1
 42
1.0
 92
        8
 66
     7
 43
1.0
 76
     1
 77
     6
 78
     2
 67
     7
 79
     5
170
     0
171
     0
290
     0
174
     0
 93
        1
 44
50.0
173
     0
291
     1
 45
0.0
1001
ACAD
1000
AcDbSavedByObjectVersion
1070
     0
  0
VISUALSTYLE
  5
3A
102
{ACAD_REACTORS
330
2A
102
}
330
2A
100
AcDbVisualStyle
  2
ColorChange
 70
    16
 71
     2
 72
     2
 73
     3
 90
        0
 40
-0.6
 41
-30.0
 62
     5
 63
     8
421
  8421504
 74
     1
 91
        4
 64
     7
 65
   257
 75
     1
175
     1
 42
1.0
 92
        8
 66
     8
424
  8421504
 43
1.0
 76
     1
 77
     6
 78
     2
 67
     7
 79
     5
170
     0
171
     0
290
     0
174
     0
 93
        1
 44
0.0
173
     0
291
     1
 45
0.0
1001
ACAD
1000
AcDbSavedByObjectVersion
1070
     0
  0
VISUALSTYLE
  5
34
102
{ACAD_REACTORS
330
2A
102
}
330
2A
100
AcDbVisualStyle
  2
Conceptual
 70
     9
 71
     3
 72
     2
 73
     0
 90
        0
 40
-0.6
 41
-30.0
 62
     5
 63
     7
421
 16777215
 74
     2
 91
        2
 64
     7
 65
   257
 75
     1
175
     1
 42
40.0
 92
        8
 66
     7
 43
1.0
 76
     1
 77
     6
 78
     2
 67
     7
 79
     3
170
     0
171
     0
290
     0
174
     0
 93
        1
 44
0.0
173
     0
291
     0
 45
0.0
1001
ACAD
1000
AcDbSavedByObjectVersion
1070
     0
  0
VISUALSTYLE
  5
35
102
{ACAD_REACTORS
330
2A
102
}
330
2A
100
AcDbVisualStyle
  2
Dim
 70
    11
 71
     2
 72
     2
 73
     0
 90
        0
 40
-0.6
 41
-30.0
 62
     5
 63
     7
421
 16777215
 74
     1
 91
        4
 64
     7
 65
   257
 75
     1
175
     1
 42
1.0
 92
        8
 66
     7
 43
1.0
 76
     1
 77
     6
 78
     2
 67
     7
 79
     5
170
     0
171
     0
290
     0
174
     0
 93
        1
 44
-50.0
173
     0
291
     1
 45
0.0
1001
ACAD
1000
AcDbSavedByObjectVersion
1070
     0
  0
VISUALSTYLE
  5
39
102
{ACAD_REACTORS
330
2A
102
}
330
2A
100
AcDbVisualStyle
  2
Facepattern
 70
    15
 71
     2
 72
     2
 73
     0
 90
        0
 40
-0.6
 41
-30.0
 62
     5
 63
     7
421
 16777215
 74
     1
 91
        4
 64
     7
 65
   257
 75
     1
175
     1
 42
1.0
 92
        8
 66
     7
 43
1.0
 76
     1
 77
     6
 78
     2
 67
     7
 79
     5
170
     0
171
     0
290
     0
174
     0
 93
        1
 44
0.0
173
     0
291
     1
 45
0.0
1001
ACAD
1000
AcDbSavedByObjectVersion
1070
     0
  0
VISUALSTYLE
  5
2B
102
{ACAD_REACTORS
330
2A
102
}
330
2A
100
AcDbVisualStyle
  2
Flat
 70
     0
 71
     2
 72
     1
 73
     1
 90
        2
 40
-0.6
 41
30.0
 62
     5
 63
     7
421
 16777215
 74
     0
 91
        4
 64
     7
 65
   257
 75
     1
175
     1
 42
1.0
 92
        8
 66
     7
 43
1.0
 76
     1
 77
     6
 78
     2
 67
     7
 79
     5
170
     0
171
     0
290
     0
174
     0
 93
       13
 44
0.0
173
     0
291
     1
 45
0.0
1001
ACAD
1000
AcDbSavedByObjectVersion
1070
     0
  0
VISUALSTYLE
  5
2C
102
{ACAD_REACTORS
330
2A
102
}
330
2A
100
AcDbVisualStyle
  2
FlatWithEdges
 70
     1
 71
     2
 72
     1
 73
     1
 90
        2
 40
-0.6
 41
30.0
 62
     5
 63
     7
421
 16777215
 74
     1
 91
        4
 64
     7
 65
   257
 75
     1
175
     1
 42
1.0
 92
        0
 66
   257
 43
1.0
 76
     1
 77
     6
 78
     2
 67
     7
 79
     5
170
     0
171
     0
290
     0
174
     0
 93
       13
 44
0.0
173
     0
291
     1
 45
0.0
1001
ACAD
1000
AcDbSavedByObjectVersion
1070
     0
  0
VISUALSTYLE
  5
2D
102
{ACAD_REACTORS
330
2A
102
}
330
2A
100
AcDbVisualStyle
  2
Gouraud
 70
     2
 71
     2
 72
     2
 73
     1
 90
        2
 40
-0.6
 41
30.0
 62
     5
 63
     7
421
 16777215
 74
     0
 91
        4
 64
     7
 65
   257
 75
     1
175
     1
 42
1.0
 92
        0
 66
     7
 43
1.0
 76
     1
 77
     6
 78
     2
 67
     7
 79
     5
170
     0
171
     0
290
     0
174
     0
 93
       13
 44
0.0
173
     0
291
     1
 45
0.0
1001
ACAD
1000
AcDbSavedByObjectVersion
1070
     0
  0
VISUALSTYLE
  5
2E
102
{ACAD_REACTORS
330
2A
102
}
330
2A
100
AcDbVisualStyle
  2
GouraudWithEdges
 70
     3
 71
     2
 72
     2
 73
     1
 90
        2
 40
-0.6
 41
30.0
 62
     5
 63
     7
421
 16777215
 74
     1
 91
        4
 64
     7
 65
   257
 75
     1
175
     1
 42
1.0
 92
        0
 66
   257
 43
1.0
 76
     1
 77
     6
 78
     2
 67
     7
 79
     5
170
     0
171
     0
290
     0
174
     0
 93
       13
 44
0.0
173
     0
291
     1
 45
0.0
1001
ACAD
1000
AcDbSavedByObjectVersion
1070
     0
  0
VISUALSTYLE
  5
38
102
{ACAD_REACTORS
330
2A
102
}
330
2A
100
AcDbVisualStyle
  2
Linepattern
 70
    14
 71
     2
 72
     2
 73
     0
 90
        0
 40
-0.6
 41
-30.0
 62
     5
 63
     7
421
 16777215
 74
     1
 91
        4
 64
     7
 65
   257
 75
     7
175
     7
 42
1.0
 92
        8
 66
     7
 43
1.0
 76
     1
 77
     6
 78
     2
 67
     7
 79
     5
170
     0
171
     0
290
     0
174
     0
 93
        1
 44
0.0
173
     0
291
     1
 45
0.0
1001
ACAD
1000
AcDbSavedByObjectVersion
1070
     0
  0
VISUALSTYLE
  5
33
102
{ACAD_REACTORS
330
2A
102
}
330
2A
100
AcDbVisualStyle
  2
Realistic
 70
     8
 71
     2
 72
     2
 73
     0
 90
        0
 40
-0.6
 41
-30.0
 62
     5
 63
     7
421
 16777215
 74
     1
 91
        0
 64
     7
 65
   257
 75
     1
175
     1
 42
1.0
 92
        8
 66
     8
424
  7895160
 43
1.0
 76
     1
 77
     6
 78
     2
 67
     7
 79
     5
170
     0
171
     0
290
     0
174
     0
 93
       13
 44
0.0
173
     0
291
     0
 45
0.0
1001
ACAD
1000
AcDbSavedByObjectVersion
1070
     0
  0
VISUALSTYLE
  5
37
102
{ACAD_REACTORS
330
2A
102
}
330
2A
100
AcDbVisualStyle
  2
Thicken
 70
    13
 71
     2
 72
     2
 73
     0
 90
        0
 40
-0.6
 41
-30.0
 62
     5
 63
     7
421
 16777215
 74
     1
 91
        4
 64
     7
 65
   257
 75
     1
175
     1
 42
1.0
 92
       12
 66
     7
 43
1.0
 76
     1
 77
     6
 78
     2
 67
     7
 79
     5
170
     0
171
     0
290
     0
174
     0
 93
        1
 44
0.0
173
     0
291
     1
 45
0.0
1001
ACAD
1000
AcDbSavedByObjectVersion
1070
     0
  0
ENDSEC
  0
EOF
