  0
SECTION
  2
HEADER
  9
$ACADVER
  1
AC1015
  9
$ACADMAINTVER
 70
     6
  9
$DWGCODEPAGE
  3
ASCII
  9
$INSBASE
 10
0.0
 20
0.0
 30
0.0
  9
$EXTMIN
 10
1.000000000000000E+20
 20
1.000000000000000E+20
 30
1.000000000000000E+20
  9
$EXTMAX
 10
-1.000000000000000E+20
 20
-1.000000000000000E+20
 30
-1.000000000000000E+20
  9
$LIMMIN
 10
0.0
 20
0.0
  9
$LIMMAX
 10
12.0
 20
9.0
  9
$ORTHOMODE
 70
     0
  9
$REGENMODE
 70
     1
  9
$FILLMODE
 70
     1
  9
$QTEXTMODE
 70
     0
  9
$MIRRTEXT
 70
     1
  9
$LTSCALE
 40
1.0
  9
$ATTMODE
 70
     1
  9
$TEXTSIZE
 40
0.2
  9
$TRACEWID
 40
0.05
  9
$TEXTSTYLE
  7
Standard
  9
$CLAYER
  8
0
  9
$CELTYPE
  6
ByLayer
  9
$CECOLOR
 62
   256
  9
$CELTSCALE
 40
1.0
  9
$DISPSILH
 70
     0
  9
$DIMSCALE
 40
1.0
  9
$DIMASZ
 40
0.18
  9
$DIMEXO
 40
0.0625
  9
$DIMDLI
 40
0.38
  9
$DIMRND
 40
0.0
  9
$DIMDLE
 40
0.0
  9
$DIMEXE
 40
0.18
  9
$DIMTP
 40
0.0
  9
$DIMTM
 40
0.0
  9
$DIMTXT
 40
0.18
  9
$DIMCEN
 40
0.09
  9
$DIMTSZ
 40
0.0
  9
$DIMTOL
 70
     0
  9
$DIMLIM
 70
     0
  9
$DIMTIH
 70
     1
  9
$DIMTOH
 70
     1
  9
$DIMSE1
 70
     0
  9
$DIMSE2
 70
     0
  9
$DIMTAD
 70
     0
  9
$DIMZIN
 70
     0
  9
$DIMBLK
  1

  9
$DIMASO
 70
     1
  9
$DIMSHO
 70
     1
  9
$DIMPOST
  1

  9
$DIMAPOST
  1

  9
$DIMALT
 70
     0
  9
$DIMALTD
 70
     2
  9
$DIMALTF
 40
25.4
  9
$DIMLFAC
 40
1.0
  9
$DIMTOFL
 70
     0
  9
$DIMTVP
 40
0.0
  9
$DIMTIX
 70
     0
  9
$DIMSOXD
 70
     0
  9
$DIMSAH
 70
     0
  9
$DIMBLK1
  1

  9
$DIMBLK2
  1

  9
$DIMSTYLE
  2
Standard
  9
$DIMCLRD
 70
     0
  9
$DIMCLRE
 70
     0
  9
$DIMCLRT
 70
     0
  9
$DIMTFAC
 40
1.0
  9
$DIMGAP
 40
0.09
  9
$DIMJUST
 70
     0
  9
$DIMSD1
 70
     0
  9
$DIMSD2
 70
     0
  9
$DIMTOLJ
 70
     1
  9
$DIMTZIN
 70
     0
  9
$DIMALTZ
 70
     0
  9
$DIMALTTZ
 70
     0
  9
$DIMUPT
 70
     0
  9
$DIMDEC
 70
     4
  9
$DIMTDEC
 70
     4
  9
$DIMALTU
 70
     2
  9
$DIMALTTD
 70
     2
  9
$DIMTXSTY
  7
Standard
  9
$DIMAUNIT
 70
     0
  9
$DIMADEC
 70
     0
  9
$DIMALTRND
 40
0.0
  9
$DIMAZIN
 70
     0
  9
$DIMDSEP
 70
    46
  9
$DIMATFIT
 70
     3
  9
$DIMFRAC
 70
     0
  9
$DIMLDRBLK
  1

  9
$DIMLUNIT
 70
     2
  9
$DIMLWD
 70
    -2
  9
$DIMLWE
 70
    -2
  9
$DIMTMOVE
 70
     0
  9
$LUNITS
 70
     2
  9
$LUPREC
 70
     4
  9
$SKETCHINC
 40
0.1
  9
$FILLETRAD
 40
0.5
  9
$AUNITS
 70
     0
  9
$AUPREC
 70
     0
  9
$MENU
  1
.
  9
$ELEVATION
 40
0.0
  9
$PELEVATION
 40
0.0
  9
$THICKNESS
 40
0.0
  9
$LIMCHECK
 70
     0
  9
$CHAMFERA
 40
0.5
  9
$CHAMFERB
 40
0.5
  9
$CHAMFERC
 40
1.0
  9
$CHAMFERD
 40
0.0
  9
$SKPOLY
 70
     0
  9
$TDCREATE
 40
2455128.931750208
  9
$TDUCREATE
 40
2455128.848416875
  9
$TDUPDATE
 40
2455128.93175022
  9
$TDUUPDATE
 40
2455128.848416887
  9
$TDINDWG
 40
0.0000000116
  9
$TDUSRTIMER
 40
0.0000000116
  9
$USRTIMER
 70
     1
  9
$ANGBASE
 50
0.0
  9
$ANGDIR
 70
     0
  9
$PDMODE
 70
     0
  9
$PDSIZE
 40
0.0
  9
$PLINEWID
 40
0.0
  9
$SPLFRAME
 70
     0
  9
$SPLINETYPE
 70
     6
  9
$SPLINESEGS
 70
     8
  9
$HANDSEED
  5
5B
  9
$SURFTAB1
 70
     6
  9
$SURFTAB2
 70
     6
  9
$SURFTYPE
 70
     6
  9
$SURFU
 70
     6
  9
$SURFV
 70
     6
  9
$UCSBASE
  2

  9
$UCSNAME
  2

  9
$UCSORG
 10
0.0
 20
0.0
 30
0.0
  9
$UCSXDIR
 10
1.0
 20
0.0
 30
0.0
  9
$UCSYDIR
 10
0.0
 20
1.0
 30
0.0
  9
$UCSORTHOREF
  2

  9
$UCSORTHOVIEW
 70
     0
  9
$UCSORGTOP
 10
0.0
 20
0.0
 30
0.0
  9
$UCSORGBOTTOM
 10
0.0
 20
0.0
 30
0.0
  9
$UCSORGLEFT
 10
0.0
 20
0.0
 30
0.0
  9
$UCSORGRIGHT
 10
0.0
 20
0.0
 30
0.0
  9
$UCSORGFRONT
 10
0.0
 20
0.0
 30
0.0
  9
$UCSORGBACK
 10
0.0
 20
0.0
 30
0.0
  9
$PUCSBASE
  2

  9
$PUCSNAME
  2

  9
$PUCSORG
 10
0.0
 20
0.0
 30
0.0
  9
$PUCSXDIR
 10
1.0
 20
0.0
 30
0.0
  9
$PUCSYDIR
 10
0.0
 20
1.0
 30
0.0
  9
$PUCSORTHOREF
  2

  9
$PUCSORTHOVIEW
 70
     0
  9
$PUCSORGTOP
 10
0.0
 20
0.0
 30
0.0
  9
$PUCSORGBOTTOM
 10
0.0
 20
0.0
 30
0.0
  9
$PUCSORGLEFT
 10
0.0
 20
0.0
 30
0.0
  9
$PUCSORGRIGHT
 10
0.0
 20
0.0
 30
0.0
  9
$PUCSORGFRONT
 10
0.0
 20
0.0
 30
0.0
  9
$PUCSORGBACK
 10
0.0
 20
0.0
 30
0.0
  9
$USERI1
 70
     0
  9
$USERI2
 70
     0
  9
$USERI3
 70
     0
  9
$USERI4
 70
     0
  9
$USERI5
 70
     0
  9
$USERR1
 40
0.0
  9
$USERR2
 40
0.0
  9
$USERR3
 40
0.0
  9
$USERR4
 40
0.0
  9
$USERR5
 40
0.0
  9
$WORLDVIEW
 70
     1
  9
$SHADEDGE
 70
     3
  9
$SHADEDIF
 70
    70
  9
$TILEMODE
 70
     1
  9
$MAXACTVP
 70
    64
  9
$PINSBASE
 10
0.0
 20
0.0
 30
0.0
  9
$PLIMCHECK
 70
     0
  9
$PEXTMIN
 10
1.000000000000000E+20
 20
1.000000000000000E+20
 30
1.000000000000000E+20
  9
$PEXTMAX
 10
-1.000000000000000E+20
 20
-1.000000000000000E+20
 30
-1.000000000000000E+20
  9
$PLIMMIN
 10
0.0
 20
0.0
  9
$PLIMMAX
 10
12.0
 20
9.0
  9
$UNITMODE
 70
     0
  9
$VISRETAIN
 70
     1
  9
$PLINEGEN
 70
     0
  9
$PSLTSCALE
 70
     1
  9
$TREEDEPTH
 70
  3020
  9
$CMLSTYLE
  2
Standard
  9
$CMLJUST
 70
     0
  9
$CMLSCALE
 40
1.0
  9
$PROXYGRAPHICS
 70
     1
  9
$MEASUREMENT
 70
     0
  9
$CELWEIGHT
370
    -1
  9
$ENDCAPS
280
     0
  9
$JOINSTYLE
280
     0
  9
$LWDISPLAY
290
     1
  9
$INSUNITS
 70
     1
  9
$HYPERLINKBASE
  1

  9
$STYLESHEET
  1

  9
$XEDIT
290
     1
  9
$CEPSNTYPE
380
     0
  9
$PSTYLEMODE
290
     1
  9
$FINGERPRINTGUID
  2
{8417BF32-854E-4F9A-A9AA-675535F1404D}
  9
$VERSIONGUID
  2
{FAEB1C32-E019-11D5-929B-00C0DF256EC4}
  9
$EXTNAMES
290
     1
  9
$PSVPSCALE
 40
0.0
  9
$OLESTARTUP
290
     0
  0
ENDSEC
  0
SECTION
  2
CLASSES
  0
CLASS
  1
ACDBDICTIONARYWDFLT
  2
AcDbDictionaryWithDefault
  3
ObjectDBX Classes
 90
        0
280
     0
281
     0
  0
CLASS
  1
VISUALSTYLE
  2
AcDbVisualStyle
  3
ObjectDBX Classes
 90
     4095
280
     0
281
     0
  0
CLASS
  1
ACDBPLACEHOLDER
  2
AcDbPlaceHolder
  3
ObjectDBX Classes
 90
        0
280
     0
281
     0
  0
CLASS
  1
LAYOUT
  2
AcDbLayout
  3
ObjectDBX Classes
 90
        0
280
     0
281
     0
  0
ENDSEC
  0
SECTION
  2
TABLES
  0
TABLE
  2
VPORT
  5
8
330
0
100
AcDbSymbolTable
 70
     1
  0
VPORT
  5
29
330
8
100
AcDbSymbolTableRecord
100
AcDbViewportTableRecord
  2
*Active
 70
     0
 10
0.0
 20
0.0
 11
1.0
 21
1.0
 12
0.0
 22
0.0
 13
0.0
 23
0.0
 14
0.5
 24
0.5
 15
0.5
 25
0.5
 16
0.0
 26
0.0
 36
1.0
 17
107.7294988031212
 27
31.84338308661568
 37
0.0
 40
39.73279475625827
 41
3.963867515698239
 42
50.0
 43
0.0
 44
0.0
 50
0.0
 51
0.0
 71
     0
 72
   100
 73
     1
 74
     3
 75
     0
 76
     0
 77
     0
 78
     0
281
     0
 65
     1
110
0.0
120
0.0
130
0.0
111
1.0
121
0.0
131
0.0
112
0.0
122
1.0
132
0.0
 79
     0
146
0.0
  0
ENDTAB
  0
TABLE
  2
LTYPE
  5
5
330
0
100
AcDbSymbolTable
 70
     1
  0
LTYPE
  5
14
330
5
100
AcDbSymbolTableRecord
100
AcDbLinetypeTableRecord
  2
ByBlock
 70
     0
  3

 72
    65
 73
     0
 40
0.0
  0
LTYPE
  5
15
330
5
100
AcDbSymbolTableRecord
100
AcDbLinetypeTableRecord
  2
ByLayer
 70
     0
  3

 72
    65
 73
     0
 40
0.0
  0
LTYPE
  5
16
330
5
100
AcDbSymbolTableRecord
100
AcDbLinetypeTableRecord
  2
Continuous
 70
     0
  3
Solid line
 72
    65
 73
     0
 40
0.0
  0
ENDTAB
  0
TABLE
  2
LAYER
  5
2
330
0
100
AcDbSymbolTable
 70
     2
  0
LAYER
  5
10
330
2
100
AcDbSymbolTableRecord
100
AcDbLayerTableRecord
  2
0
 70
     0
 62
     7
  6
Continuous
370
    -3
390
F
  0
LAYER
  5
3B
330
2
100
AcDbSymbolTableRecord
100
AcDbLayerTableRecord
  2
Calque 1
 70
     0
 62
     7
  6
Continuous
370
    -3
390
F
  0
ENDTAB
  0
TABLE
  2
STYLE
  5
3
330
0
100
AcDbSymbolTable
 70
     1
  0
STYLE
  5
11
330
3
100
AcDbSymbolTableRecord
100
AcDbTextStyleTableRecord
  2
Standard
 70
     0
 40
0.0
 41
1.0
 50
0.0
 71
     0
 42
0.2
  3
txt
  4

  0
ENDTAB
  0
TABLE
  2
VIEW
  5
6
330
0
100
AcDbSymbolTable
 70
     0
  0
ENDTAB
  0
TABLE
  2
UCS
  5
7
330
0
100
AcDbSymbolTable
 70
     0
  0
ENDTAB
  0
TABLE
  2
APPID
  5
9
330
0
100
AcDbSymbolTable
 70
     1
  0
APPID
  5
12
330
9
100
AcDbSymbolTableRecord
100
AcDbRegAppTableRecord
  2
ACAD
 70
     0
  0
ENDTAB
  0
TABLE
  2
DIMSTYLE
  5
A
330
0
100
AcDbSymbolTable
 70
     1
100
AcDbDimStyleTable
  0
DIMSTYLE
105
27
330
A
100
AcDbSymbolTableRecord
100
AcDbDimStyleTableRecord
  2
Standard
 70
     0
340
11
  0
ENDTAB
  0
TABLE
  2
BLOCK_RECORD
  5
1
330
0
100
AcDbSymbolTable
 70
     3
  0
BLOCK_RECORD
  5
1F
330
1
100
AcDbSymbolTableRecord
100
AcDbBlockTableRecord
  2
*Model_Space
340
22
  0
BLOCK_RECORD
  5
1B
330
1
100
AcDbSymbolTableRecord
100
AcDbBlockTableRecord
  2
*Paper_Space
340
1E
  0
BLOCK_RECORD
  5
23
330
1
100
AcDbSymbolTableRecord
100
AcDbBlockTableRecord
  2
*Paper_Space0
340
26
  0
BLOCK_RECORD
  5
3C
330
1
100
AcDbSymbolTableRecord
100
AcDbBlockTableRecord
  2
block 2
340
0
102
{BLKREFS
331
3D
102
}
  0
BLOCK_RECORD
  5
4B
330
1
100
AcDbSymbolTableRecord
100
AcDbBlockTableRecord
  2
block 3
340
0
102
{BLKREFS
331
4C
102
}
  0
ENDTAB
  0
ENDSEC
  0
SECTION
  2
BLOCKS
  0
BLOCK
  5
20
330
1F
100
AcDbEntity
  8
0
100
AcDbBlockBegin
  2
*Model_Space
 70
     0
 71
     0
 10
0.0
 20
0.0
 30
0.0
  3
*Model_Space
  1

  0
ENDBLK
  5
21
330
1F
100
AcDbEntity
  8
0
100
AcDbBlockEnd
  0
BLOCK
  5
1C
330
1B
100
AcDbEntity
 67
     1
  8
0
100
AcDbBlockBegin
  2
*Paper_Space
 70
     0
 71
     0
 10
0.0
 20
0.0
 30
0.0
  3
*Paper_Space
  1

  0
ENDBLK
  5
1D
330
1B
100
AcDbEntity
 67
     1
  8
0
100
AcDbBlockEnd
  0
BLOCK
  5
24
330
23
100
AcDbEntity
  8
0
100
AcDbBlockBegin
  2
*Paper_Space0
 70
     0
 71
     0
 10
0.0
 20
0.0
 30
0.0
  3
*Paper_Space0
  1

  0
ENDBLK
  5
25
330
23
100
AcDbEntity
  8
0
100
AcDbBlockEnd
  0
BLOCK
  5
3E
330
3C
100
AcDbEntity
  8
0
100
AcDbBlockBegin
  2
block 2
 70
     0
 71
     0
 10
0.0
 20
0.0
 30
0.0
  3
block 2
  1

  0
SPLINE
  5
40
330
3C
100
AcDbEntity
  8
Calque 1
 62
   250
370
    18
100
AcDbSpline
210
0.0
220
0.0
230
1.0
 70
    11
 71
     3
 72
    26
 73
    22
 74
     0
 42
0.0000000001
 43
0.0000000001
 40
0.0
 40
0.0
 40
0.0
 40
0.0
 40
1.0
 40
1.0
 40
1.0
 40
2.0
 40
2.0
 40
2.0
 40
3.0
 40
3.0
 40
3.0
 40
4.0
 40
4.0
 40
4.0
 40
5.0
 40
5.0
 40
5.0
 40
6.0
 40
6.0
 40
6.0
 40
7.0
 40
7.0
 40
7.0
 40
7.0
 10
81.78817106800156
 20
26.84282369093429
 30
0.0
 10
80.24511178221053
 20
23.31848868453948
 30
0.0
 10
79.84582495206277
 20
16.74662020145177
 30
0.0
 10
81.73373852342577
 20
13.64672123883784
 30
0.0
 10
85.89059347818234
 20
14.40464274558941
 30
0.0
 10
88.7991172603415
 20
16.5185547298747
 30
0.0
 10
88.7991172603415
 20
16.5185547298747
 30
0.0
 10
88.7991172603415
 20
16.5185547298747
 30
0.0
 10
87.28379101150205
 20
20.81528065360452
 30
0.0
 10
88.69541981782686
 20
23.95652078931399
 30
0.0
 10
89.81817717714657
 20
26.45903980069736
 30
0.0
 10
91.78291642851212
 20
28.19399103160687
 30
0.0
 10
92.87139506514012
 20
28.83615725369092
 30
0.0
 10
92.87139506514012
 20
28.83615725369092
 30
0.0
 10
93.67548088184837
 20
29.53551209855715
 30
0.0
 10
93.67548088184837
 20
29.53551209855715
 30
0.0
 10
92.78009997455413
 20
31.02586138865137
 30
0.0
 10
90.71665867242298
 20
32.82799202584113
 30
0.0
 10
90.05037676603318
 20
34.24530524346658
 30
0.0
 10
88.80531843630584
 20
36.10703607186907
 30
0.0
 10
83.36843740957859
 20
30.4567312390361
 30
0.0
 10
81.78817106800156
 20
26.84282369093429
 30
0.0
  0
SPLINE
  5
41
330
3C
100
AcDbEntity
  8
Calque 1
 62
   250
370
    18
100
AcDbSpline
210
0.0
220
0.0
230
1.0
 70
    11
 71
     3
 72
   140
 73
   136
 74
     0
 42
0.0000000001
 43
0.0000000001
 40
0.0
 40
0.0
 40
0.0
 40
0.0
 40
1.0
 40
1.0
 40
1.0
 40
2.0
 40
2.0
 40
2.0
 40
3.0
 40
3.0
 40
3.0
 40
4.0
 40
4.0
 40
4.0
 40
5.0
 40
5.0
 40
5.0
 40
6.0
 40
6.0
 40
6.0
 40
7.0
 40
7.0
 40
7.0
 40
8.0
 40
8.0
 40
8.0
 40
9.0
 40
9.0
 40
9.0
 40
10.0
 40
10.0
 40
10.0
 40
11.0
 40
11.0
 40
11.0
 40
12.0
 40
12.0
 40
12.0
 40
13.0
 40
13.0
 40
13.0
 40
14.0
 40
14.0
 40
14.0
 40
15.0
 40
15.0
 40
15.0
 40
16.0
 40
16.0
 40
16.0
 40
17.0
 40
17.0
 40
17.0
 40
18.0
 40
18.0
 40
18.0
 40
19.0
 40
19.0
 40
19.0
 40
20.0
 40
20.0
 40
20.0
 40
21.0
 40
21.0
 40
21.0
 40
22.0
 40
22.0
 40
22.0
 40
23.0
 40
23.0
 40
23.0
 40
24.0
 40
24.0
 40
24.0
 40
25.0
 40
25.0
 40
25.0
 40
26.0
 40
26.0
 40
26.0
 40
27.0
 40
27.0
 40
27.0
 40
28.0
 40
28.0
 40
28.0
 40
29.0
 40
29.0
 40
29.0
 40
30.0
 40
30.0
 40
30.0
 40
31.0
 40
31.0
 40
31.0
 40
32.0
 40
32.0
 40
32.0
 40
33.0
 40
33.0
 40
33.0
 40
34.0
 40
34.0
 40
34.0
 40
35.0
 40
35.0
 40
35.0
 40
36.0
 40
36.0
 40
36.0
 40
37.0
 40
37.0
 40
37.0
 40
38.0
 40
38.0
 40
38.0
 40
39.0
 40
39.0
 40
39.0
 40
40.0
 40
40.0
 40
40.0
 40
41.0
 40
41.0
 40
41.0
 40
42.0
 40
42.0
 40
42.0
 40
43.0
 40
43.0
 40
43.0
 40
44.0
 40
44.0
 40
44.0
 40
45.0
 40
45.0
 40
45.0
 40
45.0
 10
85.38933175439892
 20
37.42030733720406
 30
0.0
 10
86.63852420143583
 20
37.93638298134672
 30
0.0
 10
88.18278927144216
 20
38.71979821150721
 30
0.0
 10
88.12181104112624
 20
38.90445545133396
 30
0.0
 10
87.97642791574025
 20
39.05466171358109
 30
0.0
 10
87.83035577080267
 20
39.2062460149314
 30
0.0
 10
87.68135529277083
 20
39.36403149224605
 30
0.0
 10
85.46650194417727
 20
41.68740542021541
 30
0.0
 10
83.72328247864864
 20
43.32933901165995
 30
0.0
 10
83.80630933461552
 20
43.69658643265867
 30
0.0
 10
83.68641993263846
 20
43.70623270638096
 30
0.0
 10
76.83549853115585
 20
42.73678219729054
 30
0.0
 10
73.39281234162473
 20
39.33371463197599
 30
0.0
 10
71.69196757851904
 20
37.6511288869875
 30
0.0
 10
67.44002792564272
 20
34.03308722157613
 30
0.0
 10
65.62928454405807
 20
30.57179750415202
 30
0.0
 10
65.7705335521345
 20
29.24061173047563
 30
0.0
 10
66.0302939230848
 20
27.00198720735212
 30
0.0
 10
65.71610100755869
 20
25.69422809842986
 30
0.0
 10
65.34678652790521
 20
24.15978155703373
 30
0.0
 10
64.38009209702116
 20
23.65404120616495
 30
0.0
 10
64.38009209702116
 20
23.65404120616495
 30
0.0
 10
64.38009209702116
 20
23.65404120616495
 30
0.0
 10
63.17671945016514
 20
16.55713982476388
 30
0.0
 10
65.65512277724278
 20
15.54841520123269
 30
0.0
 10
68.13421512387201
 20
14.53831253859832
 30
0.0
 10
70.2749988706694
 20
14.1717541371512
 30
0.0
 10
70.2749988706694
 20
14.1717541371512
 30
0.0
 10
70.2749988706694
 20
14.1717541371512
 30
0.0
 10
70.26259651874074
 20
16.00523516393841
 30
0.0
 10
70.26259651874074
 20
16.00523516393841
 30
0.0
 10
70.40866866367831
 20
15.69379832661868
 30
0.0
 10
70.56473159211397
 20
15.46848893324798
 30
0.0
 10
70.74938883194072
 20
15.37271521557665
 30
0.0
 10
70.85859843086811
 20
15.18254581933716
 30
0.0
 10
70.98882312611906
 20
14.95861446506965
 30
0.0
 10
71.14523056433052
 20
14.69196389860342
 30
0.0
 10
71.27717780846045
 20
14.47078862254228
 30
0.0
 10
71.46562465582096
 20
14.26614981571935
 30
0.0
 10
71.69162306874324
 20
14.08149257589261
 30
0.0
 10
72.06644970480947
 20
13.60882516350026
 30
0.0
 10
72.48227300419545
 20
13.16854167003276
 30
0.0
 10
72.85434356205532
 20
12.95425658948754
 30
0.0
 10
73.41486096727569
 20
12.58769818804042
 30
0.0
 10
74.61306596749476
 20
12.35412056005062
 30
0.0
 10
74.88350614149475
 20
12.49743662678182
 30
0.0
 10
74.93724966651895
 20
12.52913152615507
 30
0.0
 10
74.9865145644578
 20
12.56633858194106
 30
0.0
 10
75.03577946239666
 20
12.61112485279456
 30
0.0
 10
75.04060259925781
 20
12.61525897010411
 30
0.0
 10
75.04439220679156
 20
12.62008210696526
 30
0.0
 10
75.0495598534285
 20
12.62352720472322
 30
0.0
 10
75.09365710473041
 20
12.66624641692194
 30
0.0
 10
75.13672082670493
 20
12.71447778553341
 30
0.0
 10
75.17840650957628
 20
12.77028836921239
 30
0.0
 10
75.28658257917627
 20
12.91636051414996
 30
0.0
 10
75.38683492393295
 20
13.10377383218308
 30
0.0
 10
75.47296236788199
 20
13.35457694896269
 30
0.0
 10
75.99696173686797
 20
14.88420035349768
 30
0.0
 10
73.0710402110311
 20
17.16554408881991
 30
0.0
 10
73.0710402110311
 20
17.16554408881991
 30
0.0
 10
73.39729096871008
 20
17.9847883356632
 30
0.0
 10
73.34940410987441
 20
18.60077181478675
 30
0.0
 10
73.3673186182158
 20
19.82033642110519
 30
0.0
 10
73.3683521475432
 20
19.88854935671283
 30
0.0
 10
73.36249548135467
 20
19.95882935097525
 30
0.0
 10
73.35319371740817
 20
20.02979836478926
 30
0.0
 10
73.35112665875339
 20
20.04909091223384
 30
0.0
 10
73.34733705121964
 20
20.06976149878161
 30
0.0
 10
73.34354744368588
 20
20.08974306577779
 30
0.0
 10
73.33459018951518
 20
20.14968776676632
 30
0.0
 10
73.32149881803493
 20
20.20894344820326
 30
0.0
 10
73.3056513683483
 20
20.27095520784658
 30
0.0
 10
73.30255078036613
 20
20.28335755977524
 30
0.0
 10
73.30013921193556
 20
20.29782697035868
 30
0.0
 10
73.29566058485021
 20
20.31298540049371
 30
0.0
 10
73.27567901785403
 20
20.38395441430772
 30
0.0
 10
73.2512188237725
 20
20.4569904867765
 30
0.0
 10
73.22331353193302
 20
20.53140459834848
 30
0.0
 10
73.21538980708971
 20
20.55414224355103
 30
0.0
 10
73.20539902359161
 20
20.57619086920198
 30
0.0
 10
73.19644176942091
 20
20.59961753395612
 30
0.0
 10
73.17335961444257
 20
20.65749517628988
 30
0.0
 10
73.14821040080945
 20
20.71537281862363
 30
0.0
 10
73.12099412852155
 20
20.77393948050898
 30
0.0
 10
73.11134785479926
 20
20.79529908660835
 30
0.0
 10
73.10239060062855
 20
20.8166586927077
 30
0.0
 10
73.09171079757888
 20
20.83732927925548
 30
0.0
 10
73.05622629067187
 20
20.91105437127586
 30
0.0
 10
73.0176411957827
 20
20.98684652195101
 30
0.0
 10
72.97595551291137
 20
21.06194965307458
 30
0.0
 10
72.9635531609827
 20
21.08399827872553
 30
0.0
 10
72.95046178950244
 20
21.10673592392808
 30
0.0
 10
72.93805943757378
 20
21.12947356913063
 30
0.0
 10
72.90464198932156
 20
21.18804023101598
 30
0.0
 10
72.87019101174194
 20
21.24660689290133
 30
0.0
 10
72.83401748528334
 20
21.30586257433827
 30
0.0
 10
72.81920356492411
 20
21.32928923909241
 30
0.0
 10
72.80507866411646
 20
21.35271590384654
 30
0.0
 10
72.78957572420563
 20
21.37752060770387
 30
0.0
 10
72.74203337514577
 20
21.45331275837903
 30
0.0
 10
72.69276847720691
 20
21.52841588950259
 30
0.0
 10
72.64178103038908
 20
21.60351902062616
 30
0.0
 10
72.63041220778781
 20
21.62074450941596
 30
0.0
 10
72.61800985585914
 20
21.63865901775737
 30
0.0
 10
72.60595201370627
 20
21.65519548699558
 30
0.0
 10
72.56357731128335
 20
21.71789626619048
 30
0.0
 10
72.52016907953303
 20
21.7792190062822
 30
0.0
 10
72.47538280867953
 20
21.84123076592551
 30
0.0
 10
72.45712379056233
 20
21.86534645023124
 30
0.0
 10
72.43920928222093
 20
21.88946213453698
 30
0.0
 10
72.42095026410374
 20
21.9142668383943
 30
0.0
 10
72.3709963466133
 20
21.98247977400194
 30
0.0
 10
72.32069791934705
 20
22.05069270960958
 30
0.0
 10
72.26902145297763
 20
22.11614956701085
 30
0.0
 10
72.25834164992794
 20
22.1306189775943
 30
0.0
 10
72.24731733710247
 20
22.14371034907455
 30
0.0
 10
72.23698204382858
 20
22.15817975965799
 30
0.0
 10
72.18461655790756
 20
22.22570367571404
 30
0.0
 10
72.13121754265916
 20
22.29253857221849
 30
0.0
 10
72.07781852741076
 20
22.35799542961977
 30
0.0
 10
72.05749245063878
 20
22.38348915302868
 30
0.0
 10
72.0375108836426
 20
22.40691581778282
 30
0.0
 10
72.01752931664642
 20
22.43172052164014
 30
0.0
 10
71.97377657512031
 20
22.48546404666435
 30
0.0
 10
71.93002383359419
 20
22.53782953258537
 30
0.0
 10
71.88592658229229
 20
22.59019501850639
 30
0.0
 10
71.87007913260567
 20
22.60948756595097
 30
0.0
 10
71.85388717314324
 20
22.62946913294715
 30
0.0
 10
71.83803972345662
 20
22.64807266084014
 30
0.0
 10
71.83700619412923
 20
22.65013971949492
 30
0.0
 10
71.83562815502604
 20
22.6515177585981
 30
0.0
 10
71.83425011592286
 20
22.65289579770129
 30
0.0
 10
74.85628986920685
 20
31.06100138578258
 30
0.0
 10
81.20284895892388
 20
35.69431336046526
 30
0.0
 10
85.38933175439892
 20
37.42030733720406
 30
0.0
  0
SPLINE
  5
42
330
3C
100
AcDbEntity
  8
Calque 1
 62
   250
370
    18
100
AcDbSpline
210
0.0
220
0.0
230
1.0
 70
    11
 71
     3
 72
    47
 73
    43
 74
     0
 42
0.0000000001
 43
0.0000000001
 40
0.0
 40
0.0
 40
0.0
 40
0.0
 40
1.0
 40
1.0
 40
1.0
 40
2.0
 40
2.0
 40
2.0
 40
3.0
 40
3.0
 40
3.0
 40
4.0
 40
4.0
 40
4.0
 40
5.0
 40
5.0
 40
5.0
 40
6.0
 40
6.0
 40
6.0
 40
7.0
 40
7.0
 40
7.0
 40
8.0
 40
8.0
 40
8.0
 40
9.0
 40
9.0
 40
9.0
 40
10.0
 40
10.0
 40
10.0
 40
11.0
 40
11.0
 40
11.0
 40
12.0
 40
12.0
 40
12.0
 40
13.0
 40
13.0
 40
13.0
 40
14.0
 40
14.0
 40
14.0
 40
14.0
 10
54.51781074530423
 20
21.94251664000959
 30
0.0
 10
53.36714809414502
 20
21.9053095842236
 30
0.0
 10
50.32684932274383
 20
20.75189085485803
 30
0.0
 10
47.84258932947766
 20
20.9792673068835
 30
0.0
 10
45.17229405728155
 20
21.22386924769878
 30
0.0
 10
43.87762631983956
 20
22.17609426799939
 30
0.0
 10
42.72903072733513
 20
23.97236823900061
 30
0.0
 10
41.5804351348307
 20
25.76864221000184
 30
0.0
 10
44.77025114892743
 20
28.31870357044508
 30
0.0
 10
46.77908765159489
 20
29.11658821118901
 30
0.0
 10
48.60257789488401
 20
29.84143677946415
 30
0.0
 10
52.3625575879234
 20
30.30583595723738
 30
0.0
 10
53.85462942689661
 20
30.37542693194821
 30
0.0
 10
54.13127077686093
 20
31.32420685449086
 30
0.0
 10
54.46751231803799
 20
32.09728679137746
 30
0.0
 10
54.71039170997429
 20
32.59234733919656
 30
0.0
 10
53.82603511550552
 20
34.13230603700543
 30
0.0
 10
50.69478576329414
 20
34.51608992724236
 30
0.0
 10
48.22327263173243
 20
35.85623295508946
 30
0.0
 10
45.66873264420384
 20
37.24116225379006
 30
0.0
 10
44.91253368633124
 20
38.91479074460784
 30
0.0
 10
39.09962023932249
 20
40.66145530789442
 30
0.0
 10
36.9405774744079
 20
41.31120074504599
 30
0.0
 10
32.50777018923859
 20
41.76388659044216
 30
0.0
 10
31.15935892677239
 20
38.12586335803461
 30
0.0
 10
29.81129217408198
 20
34.48852914517867
 30
0.0
 10
31.19346539457621
 20
31.03481864282207
 30
0.0
 10
32.79888094978636
 20
28.53367767054189
 30
0.0
 10
34.4049855245481
 20
26.03322571781329
 30
0.0
 10
36.4455169265888
 20
25.31664538415727
 30
0.0
 10
38.71342478065498
 20
23.47558514230254
 30
0.0
 10
40.98202165427276
 20
21.63314686134463
 30
0.0
 10
41.29931515778102
 20
20.25441873860836
 30
0.0
 10
45.14748935342423
 20
18.84744081425681
 30
0.0
 10
47.02920174882291
 20
18.15911028221606
 30
0.0
 10
51.95362448405334
 20
19.22088941121985
 30
0.0
 10
55.20476323824179
 20
19.84031798810136
 30
0.0
 10
55.09693167841759
 20
20.09318816353575
 30
0.0
 10
54.9884110990418
 20
20.36603990596632
 30
0.0
 10
54.8802350294418
 20
20.66025125449625
 30
0.0
 10
54.8802350294418
 20
20.66025125449625
 30
0.0
 10
54.72520563033353
 20
21.1680586640198
 30
0.0
 10
54.51781074530423
 20
21.94251664000959
 30
0.0
  0
SPLINE
  5
43
330
3C
100
AcDbEntity
  8
Calque 1
 62
   250
370
    18
100
AcDbSpline
210
0.0
220
0.0
230
1.0
 70
    11
 71
     3
 72
    20
 73
    16
 74
     0
 42
0.0000000001
 43
0.0000000001
 40
0.0
 40
0.0
 40
0.0
 40
0.0
 40
1.0
 40
1.0
 40
1.0
 40
2.0
 40
2.0
 40
2.0
 40
3.0
 40
3.0
 40
3.0
 40
4.0
 40
4.0
 40
4.0
 40
5.0
 40
5.0
 40
5.0
 40
5.0
 10
100.3567312187514
 20
45.4742568757669
 30
0.0
 10
100.7405151089883
 20
45.66029215469683
 30
0.0
 10
101.7130662060609
 20
46.00893604780256
 30
0.0
 10
101.8291660005042
 20
46.11711211740255
 30
0.0
 10
101.9452657949475
 20
46.22666622610573
 30
0.0
 10
101.6252162132329
 20
46.3823846447656
 30
0.0
 10
101.6252162132329
 20
46.3823846447656
 30
0.0
 10
101.1615060550112
 20
46.52845678970318
 30
0.0
 10
101.0137113611947
 20
46.47746934288534
 30
0.0
 10
100.7150213855794
 20
46.36309209732102
 30
0.0
 10
100.4170204295157
 20
46.2473368126535
 30
0.0
 10
99.28909542355905
 20
45.67407254572868
 30
0.0
 10
99.46066129190554
 20
45.46667766069938
 30
0.0
 10
99.63222716025203
 20
45.25928277567009
 30
0.0
 10
99.97294732851444
 20
45.28822159683697
 30
0.0
 10
100.3567312187514
 20
45.4742568757669
 30
0.0
  0
SPLINE
  5
44
330
3C
100
AcDbEntity
  8
Calque 1
 62
   250
370
    18
100
AcDbSpline
210
0.0
220
0.0
230
1.0
 70
    11
 71
     3
 72
    23
 73
    19
 74
     0
 42
0.0000000001
 43
0.0000000001
 40
0.0
 40
0.0
 40
0.0
 40
0.0
 40
1.0
 40
1.0
 40
1.0
 40
2.0
 40
2.0
 40
2.0
 40
3.0
 40
3.0
 40
3.0
 40
4.0
 40
4.0
 40
4.0
 40
5.0
 40
5.0
 40
5.0
 40
6.0
 40
6.0
 40
6.0
 40
6.0
 10
102.987235611843
 20
46.15018505587899
 30
0.0
 10
102.6384194638494
 20
46.19428230718089
 30
0.0
 10
102.3032114519997
 20
46.06474663148153
 30
0.0
 10
101.6541550343997
 20
45.82634586663058
 30
0.0
 10
101.004754107024
 20
45.59070117998601
 30
0.0
 10
100.5045259125679
 20
45.40397688150448
 30
0.0
 10
100.5189953231514
 20
45.18693572275289
 30
0.0
 10
100.5341537532864
 20
44.9705835835529
 30
0.0
 10
100.4683523861093
 20
44.84380398605991
 30
0.0
 10
101.3561540783361
 20
44.78454830462297
 30
0.0
 10
102.2449892998902
 20
44.72529262318603
 30
0.0
 10
102.7915540591908
 20
44.62469576865355
 30
0.0
 10
103.1577679508621
 20
44.77145693314272
 30
0.0
 10
103.5243263523092
 20
44.91890711718347
 30
0.0
 10
103.7561814314201
 20
45.13525925638347
 30
0.0
 10
103.7341328057691
 20
45.40673295971085
 30
0.0
 10
103.7131177094456
 20
45.67820666303823
 30
0.0
 10
103.8443759340239
 20
46.03994192762421
 30
0.0
 10
102.987235611843
 20
46.15018505587899
 30
0.0
  0
SPLINE
  5
45
330
3C
100
AcDbEntity
  8
Calque 1
 62
   250
370
    18
100
AcDbSpline
210
0.0
220
0.0
230
1.0
 70
    11
 71
     3
 72
    23
 73
    19
 74
     0
 42
0.0000000001
 43
0.0000000001
 40
0.0
 40
0.0
 40
0.0
 40
0.0
 40
1.0
 40
1.0
 40
1.0
 40
2.0
 40
2.0
 40
2.0
 40
3.0
 40
3.0
 40
3.0
 40
4.0
 40
4.0
 40
4.0
 40
5.0
 40
5.0
 40
5.0
 40
6.0
 40
6.0
 40
6.0
 40
6.0
 10
102.3831377199844
 20
44.45450793941024
 30
0.0
 10
101.741660517452
 20
44.59782400614144
 30
0.0
 10
100.4225325859284
 20
44.67292713726501
 30
0.0
 10
99.9860386999947
 20
44.70875615394781
 30
0.0
 10
99.54885579450936
 20
44.74389615107902
 30
0.0
 10
99.09031328292465
 20
44.70117693888029
 30
0.0
 10
98.94596368686607
 20
44.34013069384591
 30
0.0
 10
98.80161409080746
 20
43.97908444881153
 30
0.0
 10
98.89497624004822
 20
43.76686642692108
 30
0.0
 10
99.4468809008737
 20
43.59874565633255
 30
0.0
 10
99.99878556169915
 20
43.42924684664084
 30
0.0
 10
101.0901925314214
 20
43.21358372699244
 30
0.0
 10
101.6324509185246
 20
43.19222412089308
 30
0.0
 10
102.1753983251793
 20
43.1722425538969
 30
0.0
 10
102.4833900647411
 20
43.25905901739753
 30
0.0
 10
102.7011202430443
 20
43.58496526530071
 30
0.0
 10
102.9186781664596
 20
43.9094934741007
 30
0.0
 10
103.2184016714022
 20
44.26709462137713
 30
0.0
 10
102.3831377199844
 20
44.45450793941024
 30
0.0
  0
SPLINE
  5
46
330
3C
100
AcDbEntity
  8
Calque 1
 62
   250
370
    18
100
AcDbSpline
210
0.0
220
0.0
230
1.0
 70
    11
 71
     3
 72
    20
 73
    16
 74
     0
 42
0.0000000001
 43
0.0000000001
 40
0.0
 40
0.0
 40
0.0
 40
0.0
 40
1.0
 40
1.0
 40
1.0
 40
2.0
 40
2.0
 40
2.0
 40
3.0
 40
3.0
 40
3.0
 40
4.0
 40
4.0
 40
4.0
 40
5.0
 40
5.0
 40
5.0
 40
5.0
 10
99.69596146877433
 20
43.27421744753256
 30
0.0
 10
98.90186643556416
 20
43.36241195013638
 30
0.0
 10
98.48914372416034
 20
43.38170449758097
 30
0.0
 10
98.05506140665717
 20
43.21496176609563
 30
0.0
 10
97.62149585381769
 20
43.04821903461028
 30
0.0
 10
97.56292919193234
 20
42.40880889073259
 30
0.0
 10
97.76102231301513
 20
42.21174929897718
 30
0.0
 10
97.96032121831323
 20
42.01537872677336
 30
0.0
 10
99.05413975646606
 20
41.9223610873084
 30
0.0
 10
99.48236540778069
 20
41.93889755654661
 30
0.0
 10
100.5510347323004
 20
41.98161676874534
 30
0.0
 10
101.7402824783488
 20
42.42465634041921
 30
0.0
 10
101.3733795671259
 20
42.84495826689054
 30
0.0
 10
101.1776980144736
 20
43.06820060160646
 30
0.0
 10
100.4900565019845
 20
43.18602294492874
 30
0.0
 10
99.69596146877433
 20
43.27421744753256
 30
0.0
  0
SPLINE
  5
47
330
3C
100
AcDbEntity
  8
Calque 1
 62
   250
370
    18
100
AcDbSpline
210
0.0
220
0.0
230
1.0
 70
    11
 71
     3
 72
    32
 73
    28
 74
     0
 42
0.0000000001
 43
0.0000000001
 40
0.0
 40
0.0
 40
0.0
 40
0.0
 40
1.0
 40
1.0
 40
1.0
 40
2.0
 40
2.0
 40
2.0
 40
3.0
 40
3.0
 40
3.0
 40
4.0
 40
4.0
 40
4.0
 40
5.0
 40
5.0
 40
5.0
 40
6.0
 40
6.0
 40
6.0
 40
7.0
 40
7.0
 40
7.0
 40
8.0
 40
8.0
 40
8.0
 40
9.0
 40
9.0
 40
9.0
 40
9.0
 10
56.89699525695257
 20
47.85826452427639
 30
0.0
 10
56.89699525695257
 20
47.85826452427639
 30
0.0
 10
56.49598587792583
 20
48.11044568015918
 30
0.0
 10
56.29720373729144
 20
48.05394607692861
 30
0.0
 10
56.09738806732966
 20
47.99744647369804
 30
0.0
 10
55.53377007412713
 20
47.80934413611333
 30
0.0
 10
55.22267774658319
 20
46.79235127796304
 30
0.0
 10
54.84130542477683
 20
45.54315883092613
 30
0.0
 10
55.27711029115898
 20
44.75078634659494
 30
0.0
 10
55.5544406606749
 20
44.45037382210069
 30
0.0
 10
55.83246004974241
 20
44.14858325850324
 30
0.0
 10
56.41605960994112
 20
43.99562091804975
 30
0.0
 10
56.41605960994112
 20
43.99562091804975
 30
0.0
 10
56.41605960994112
 20
43.99562091804975
 30
0.0
 10
56.72198429084812
 20
45.40466590105607
 30
0.0
 10
56.72198429084812
 20
45.40466590105607
 30
0.0
 10
56.72198429084812
 20
45.40466590105607
 30
0.0
 10
58.57337982597673
 20
45.97103997246497
 30
0.0
 10
58.57337982597673
 20
45.97103997246497
 30
0.0
 10
58.57337982597673
 20
45.97103997246497
 30
0.0
 10
57.61564264926338
 20
47.62399787673499
 30
0.0
 10
57.61564264926338
 20
47.62399787673499
 30
0.0
 10
57.61564264926338
 20
47.62399787673499
 30
0.0
 10
57.48714050289141
 20
48.25582880554516
 30
0.0
 10
57.48714050289141
 20
48.25582880554516
 30
0.0
 10
57.48714050289141
 20
48.25582880554516
 30
0.0
 10
56.89699525695257
 20
47.85826452427639
 30
0.0
 10
56.89699525695257
 20
47.85826452427639
 30
0.0
  0
SPLINE
  5
48
330
3C
100
AcDbEntity
  8
Calque 1
 62
   250
370
    18
100
AcDbSpline
210
0.0
220
0.0
230
1.0
 70
    11
 71
     3
 72
    20
 73
    16
 74
     0
 42
0.0000000001
 43
0.0000000001
 40
0.0
 40
0.0
 40
0.0
 40
0.0
 40
1.0
 40
1.0
 40
1.0
 40
2.0
 40
2.0
 40
2.0
 40
3.0
 40
3.0
 40
3.0
 40
4.0
 40
4.0
 40
4.0
 40
5.0
 40
5.0
 40
5.0
 40
5.0
 10
65.00606635964279
 20
26.00773199440438
 30
0.0
 10
65.15386105345935
 20
27.33547267032281
 30
0.0
 10
63.72035587637149
 20
29.12416742625652
 30
0.0
 10
62.44084656906452
 20
29.52242072707689
 30
0.0
 10
60.2845598823563
 20
30.19352577032783
 30
0.0
 10
58.7015374625729
 20
29.02494861082722
 30
0.0
 10
58.41318278023151
 20
28.30354514031005
 30
0.0
 10
58.1258616272175
 20
27.58214166979287
 30
0.0
 10
58.35978376498311
 20
26.42458882311774
 30
0.0
 10
58.85622235190539
 20
25.29390773895472
 30
0.0
 10
59.35231642905187
 20
24.1625376352401
 30
0.0
 10
60.1939538113219
 20
23.79942433155094
 30
0.0
 10
61.69739447289639
 20
23.79253413603501
 30
0.0
 10
63.20152415402247
 20
23.78702197962227
 30
0.0
 10
64.85723813649885
 20
24.67861327938276
 30
0.0
 10
65.00606635964279
 20
26.00773199440438
 30
0.0
  0
SPLINE
  5
49
330
3C
100
AcDbEntity
  8
Calque 1
 62
   250
370
    18
100
AcDbSpline
210
0.0
220
0.0
230
1.0
 70
    11
 71
     3
 72
    80
 73
    76
 74
     0
 42
0.0000000001
 43
0.0000000001
 40
0.0
 40
0.0
 40
0.0
 40
0.0
 40
1.0
 40
1.0
 40
1.0
 40
2.0
 40
2.0
 40
2.0
 40
3.0
 40
3.0
 40
3.0
 40
4.0
 40
4.0
 40
4.0
 40
5.0
 40
5.0
 40
5.0
 40
6.0
 40
6.0
 40
6.0
 40
7.0
 40
7.0
 40
7.0
 40
8.0
 40
8.0
 40
8.0
 40
9.0
 40
9.0
 40
9.0
 40
10.0
 40
10.0
 40
10.0
 40
11.0
 40
11.0
 40
11.0
 40
12.0
 40
12.0
 40
12.0
 40
13.0
 40
13.0
 40
13.0
 40
14.0
 40
14.0
 40
14.0
 40
15.0
 40
15.0
 40
15.0
 40
16.0
 40
16.0
 40
16.0
 40
17.0
 40
17.0
 40
17.0
 40
18.0
 40
18.0
 40
18.0
 40
19.0
 40
19.0
 40
19.0
 40
20.0
 40
20.0
 40
20.0
 40
21.0
 40
21.0
 40
21.0
 40
22.0
 40
22.0
 40
22.0
 40
23.0
 40
23.0
 40
23.0
 40
24.0
 40
24.0
 40
24.0
 40
25.0
 40
25.0
 40
25.0
 40
25.0
 10
51.72073587561513
 20
37.91226729704099
 30
0.0
 10
53.45706514562782
 20
36.42605212425632
 30
0.0
 10
57.44579932979587
 20
34.97704400725763
 30
0.0
 10
59.67581110852447
 20
35.1238051717468
 30
0.0
 10
61.90547837747727
 20
35.26918829713279
 30
0.0
 10
64.05039624158422
 20
35.89068393266908
 30
0.0
 10
66.0747356841625
 20
37.60220849882444
 30
0.0
 10
68.0983861071892
 20
39.3144220845314
 30
0.0
 10
70.06553692698533
 20
41.74941717985872
 30
0.0
 10
70.37008356878914
 20
45.41086707702041
 30
0.0
 10
70.67394119104137
 20
49.07300599373368
 30
0.0
 10
69.56186363477133
 20
49.95012788291073
 30
0.0
 10
69.56186363477133
 20
49.95012788291073
 30
0.0
 10
69.56186363477133
 20
49.95012788291073
 30
0.0
 10
68.29923530647837
 20
49.48090556827634
 30
0.0
 10
66.57840897637651
 20
47.69979002741015
 30
0.0
 10
66.57840897637651
 20
47.69979002741015
 30
0.0
 10
66.57634191772173
 20
47.71977159440632
 30
0.0
 10
66.57634191772173
 20
47.71977159440632
 30
0.0
 10
64.96782577452942
 20
45.92074154519874
 30
0.0
 10
62.17833011990784
 20
42.53765554688036
 30
0.0
 10
59.69579267552065
 20
38.21957001705118
 30
0.0
 10
59.1338972311971
 20
39.41708599771866
 30
0.0
 10
59.10564742958181
 20
40.501602771925
 30
0.0
 10
59.1790280118264
 20
41.16375056100524
 30
0.0
 10
59.25344212339837
 20
41.82520933053388
 30
0.0
 10
59.60243052627989
 20
43.17706569075805
 30
0.0
 10
58.91616705289392
 20
43.25423588053638
 30
0.0
 10
58.22955906973215
 20
43.33071705076313
 30
0.0
 10
57.97634438452197
 20
42.84358022778736
 30
0.0
 10
57.09887798556912
 20
42.99309747048289
 30
0.0
 10
56.22141158661628
 20
43.14192569362684
 30
0.0
 10
54.44029604575009
 20
44.00871228953
 30
0.0
 10
54.77894915535772
 20
46.59804776441401
 30
0.0
 10
55.11725775518956
 20
49.1880722588496
 30
0.0
 10
58.2798574969984
 20
48.68233190798082
 30
0.0
 10
59.17248232608627
 20
48.22275586706873
 30
0.0
 10
60.06510715517414
 20
47.76317982615664
 30
0.0
 10
60.72105376829005
 20
46.96805126361909
 30
0.0
 10
60.25252047320726
 20
44.54614753977202
 30
0.0
 10
59.78364266834867
 20
42.12631087457973
 30
0.0
 10
60.29627321473337
 20
40.93568508942817
 30
0.0
 10
60.29627321473337
 20
40.93568508942817
 30
0.0
 10
60.29627321473337
 20
40.93568508942817
 30
0.0
 10
63.99320761880206
 20
46.09230741354523
 30
0.0
 10
67.17923402536503
 20
49.14328598799609
 30
0.0
 10
67.17923402536503
 20
49.14328598799609
 30
0.0
 10
67.23470009926821
 20
49.24043774477062
 30
0.0
 10
67.23470009926821
 20
49.24043774477062
 30
0.0
 10
66.67935034068479
 20
49.84126279375914
 30
0.0
 10
66.2828195887434
 20
50.31599726480626
 30
0.0
 10
65.68302806908227
 20
50.52545920849033
 30
0.0
 10
65.08392556897273
 20
50.73698821082917
 30
0.0
 10
64.83691205972687
 20
50.69151292042408
 30
0.0
 10
64.06693271082244
 20
50.92164545065592
 30
0.0
 10
63.296953361918
 20
51.15108896133617
 30
0.0
 10
62.56521459812694
 20
51.41222737138967
 30
0.0
 10
61.86861583146708
 20
51.05944936097439
 30
0.0
 10
61.17201706480723
 20
50.70667135055911
 30
0.0
 10
60.10265872073592
 20
50.10791336022537
 30
0.0
 10
58.82108235477418
 20
49.78476319052857
 30
0.0
 10
57.54019500836402
 20
49.46161302083176
 30
0.0
 10
56.37988608348252
 20
49.91292082712474
 30
0.0
 10
55.4018228299972
 20
49.52017968271711
 30
0.0
 10
54.42410408628767
 20
49.12674951875788
 30
0.0
 10
52.80490814004568
 20
47.01214851492099
 30
0.0
 10
52.96062655870555
 20
46.24113563668917
 30
0.0
 10
52.96062655870555
 20
46.24113563668917
 30
0.0
 10
52.51069679151575
 20
47.47448063403946
 30
0.0
 10
52.12553486217563
 20
47.12308066272736
 30
0.0
 10
51.74037293283552
 20
46.77099167186368
 30
0.0
 10
51.22119670071069
 20
45.21449650481659
 30
0.0
 10
50.85808339702153
 20
43.82060995194529
 30
0.0
 10
50.49497009333236
 20
42.42465634041921
 30
0.0
 10
49.98371758605085
 20
39.39641541117089
 30
0.0
 10
51.72073587561513
 20
37.91226729704099
 30
0.0
  0
SPLINE
  5
4A
330
3C
100
AcDbEntity
  8
Calque 1
 62
   250
370
    18
100
AcDbSpline
210
0.0
220
0.0
230
1.0
 70
    11
 71
     3
 72
    59
 73
    55
 74
     0
 42
0.0000000001
 43
0.0000000001
 40
0.0
 40
0.0
 40
0.0
 40
0.0
 40
1.0
 40
1.0
 40
1.0
 40
2.0
 40
2.0
 40
2.0
 40
3.0
 40
3.0
 40
3.0
 40
4.0
 40
4.0
 40
4.0
 40
5.0
 40
5.0
 40
5.0
 40
6.0
 40
6.0
 40
6.0
 40
7.0
 40
7.0
 40
7.0
 40
8.0
 40
8.0
 40
8.0
 40
9.0
 40
9.0
 40
9.0
 40
10.0
 40
10.0
 40
10.0
 40
11.0
 40
11.0
 40
11.0
 40
12.0
 40
12.0
 40
12.0
 40
13.0
 40
13.0
 40
13.0
 40
14.0
 40
14.0
 40
14.0
 40
15.0
 40
15.0
 40
15.0
 40
16.0
 40
16.0
 40
16.0
 40
17.0
 40
17.0
 40
17.0
 40
18.0
 40
18.0
 40
18.0
 40
18.0
 10
53.93283314600234
 20
24.3871580090592
 30
0.0
 10
53.91078452035138
 20
24.48982192224646
 30
0.0
 10
53.88942491425202
 20
24.59455289408849
 30
0.0
 10
53.86840981792845
 20
24.69928386593053
 30
0.0
 10
53.86151962241253
 20
24.73649092171652
 30
0.0
 10
53.85394040734501
 20
24.77300895795091
 30
0.0
 10
53.8463611922775
 20
24.81021601373689
 30
0.0
 10
53.81811139066221
 20
24.95422110001969
 30
0.0
 10
53.79123962815011
 20
25.0975371667509
 30
0.0
 10
53.7650568851896
 20
25.24223127258529
 30
0.0
 10
53.76471237541381
 20
25.24223127258529
 30
0.0
 10
53.76471237541381
 20
25.24223127258529
 30
0.0
 10
53.76471237541381
 20
25.24223127258529
 30
0.0
 10
53.7381851226775
 20
25.38692537841968
 30
0.0
 10
53.71372492859597
 20
25.53093046470248
 30
0.0
 10
53.68995375406604
 20
25.67493555098528
 30
0.0
 10
53.68547512698068
 20
25.70111829394579
 30
0.0
 10
53.68134100967113
 20
25.7273010369063
 30
0.0
 10
53.67720689236157
 20
25.7541727994184
 30
0.0
 10
53.65550277648642
 20
25.88784259242731
 30
0.0
 10
53.63517669971444
 20
26.02013434633304
 30
0.0
 10
53.61622866204566
 20
26.15242610023877
 30
0.0
 10
53.61416160339088
 20
26.16413943261584
 30
0.0
 10
53.6124390545119
 20
26.1765417845445
 30
0.0
 10
53.61071650563292
 20
26.18756609736998
 30
0.0
 10
53.56868631298578
 20
26.48315548500309
 30
0.0
 10
53.53354631585457
 20
26.77323271622346
 30
0.0
 10
53.50839710222146
 20
27.05435269327314
 30
0.0
 10
53.50633004356668
 20
27.07364524071772
 30
0.0
 10
53.50495200446349
 20
27.09224876861072
 30
0.0
 10
53.50254043603292
 20
27.11085229650371
 30
0.0
 10
53.49117161343165
 20
27.24934522637377
 30
0.0
 10
53.48014730060617
 20
27.38301501938269
 30
0.0
 10
53.47325710509025
 20
27.5166848123916
 30
0.0
 10
53.23554535979089
 20
27.57180637651899
 30
0.0
 10
52.96234910758453
 20
27.60970245185656
 30
0.0
 10
52.64195501609409
 20
27.61865970602726
 30
0.0
 10
51.44822864296037
 20
27.65379970315847
 30
0.0
 10
47.58489601718212
 20
27.40575266458523
 30
0.0
 10
47.84637893701142
 20
25.66115515995343
 30
0.0
 10
48.08409068231077
 20
24.07434313263628
 30
0.0
 10
51.32971728008648
 20
24.41058467381334
 30
0.0
 10
52.26092720406353
 20
24.30792076062608
 30
0.0
 10
52.83074637323039
 20
24.24453096187959
 30
0.0
 10
53.55214984374757
 20
23.9103564793573
 30
0.0
 10
54.04686588179086
 20
23.85385687612673
 30
0.0
 10
54.04548784268768
 20
23.86005805209106
 30
0.0
 10
54.0441098035845
 20
23.86832628671017
 30
0.0
 10
54.04273176448131
 20
23.8745274626745
 30
0.0
 10
54.01482647264182
 20
24.0006180406159
 30
0.0
 10
53.98657667102654
 20
24.12877567721207
 30
0.0
 10
53.95970490851444
 20
24.25762233335984
 30
0.0
 10
53.95005863479214
 20
24.29965252600697
 30
0.0
 10
53.94179040017303
 20
24.34306075775729
 30
0.0
 10
53.93283314600234
 20
24.3871580090592
 30
0.0
  0
ENDBLK
  5
3F
330
3C
100
AcDbEntity
  8
0
100
AcDbBlockEnd
  0
BLOCK
  5
4D
330
4B
100
AcDbEntity
  8
0
100
AcDbBlockBegin
  2
block 3
 70
     0
 71
     0
 10
0.0
 20
0.0
 30
0.0
  3
block 3
  1

  0
SPLINE
  5
4F
330
4B
100
AcDbEntity
  8
Calque 1
 62
   250
370
    18
100
AcDbSpline
210
0.0
220
0.0
230
1.0
 70
    11
 71
     3
 72
    26
 73
    22
 74
     0
 42
0.0000000001
 43
0.0000000001
 40
0.0
 40
0.0
 40
0.0
 40
0.0
 40
1.0
 40
1.0
 40
1.0
 40
2.0
 40
2.0
 40
2.0
 40
3.0
 40
3.0
 40
3.0
 40
4.0
 40
4.0
 40
4.0
 40
5.0
 40
5.0
 40
5.0
 40
6.0
 40
6.0
 40
6.0
 40
7.0
 40
7.0
 40
7.0
 40
7.0
 10
125.4087930950972
 20
34.24564975324237
 30
0.0
 10
124.7425111887074
 20
32.82764751606534
 30
0.0
 10
122.6792421414641
 20
31.02586138865137
 30
0.0
 10
121.7838612341699
 20
29.53620111810874
 30
0.0
 10
121.7838612341699
 20
29.53620111810874
 30
0.0
 10
122.5879470508781
 20
28.83684627324252
 30
0.0
 10
122.5879470508781
 20
28.83684627324252
 30
0.0
 10
123.6762534326183
 20
28.19468005115846
 30
0.0
 10
125.6409926839838
 20
26.45903980069736
 30
0.0
 10
126.7637500433035
 20
23.95652078931399
 30
0.0
 10
128.1752065947404
 20
20.81528065360452
 30
0.0
 10
126.6600526007889
 20
16.5185547298747
 30
0.0
 10
126.6600526007889
 20
16.5185547298747
 30
0.0
 10
126.6600526007889
 20
16.5185547298747
 30
0.0
 10
129.5684041280601
 20
14.40464274558941
 30
0.0
 10
133.7252590828167
 20
13.64672123883784
 30
0.0
 10
135.6131726541797
 20
16.74662020145177
 30
0.0
 10
135.2138858240319
 20
23.31848868453948
 30
0.0
 10
133.6708265382409
 20
26.84351271048589
 30
0.0
 10
132.0905601966639
 20
30.4567312390361
 30
0.0
 10
126.6541959346003
 20
36.10669156209327
 30
0.0
 10
125.4087930950972
 20
34.24564975324237
 30
0.0
  0
SPLINE
  5
50
330
4B
100
AcDbEntity
  8
Calque 1
 62
   250
370
    18
100
AcDbSpline
210
0.0
220
0.0
230
1.0
 70
    11
 71
     3
 72
   140
 73
   136
 74
     0
 42
0.0000000001
 43
0.0000000001
 40
0.0
 40
0.0
 40
0.0
 40
0.0
 40
1.0
 40
1.0
 40
1.0
 40
2.0
 40
2.0
 40
2.0
 40
3.0
 40
3.0
 40
3.0
 40
4.0
 40
4.0
 40
4.0
 40
5.0
 40
5.0
 40
5.0
 40
6.0
 40
6.0
 40
6.0
 40
7.0
 40
7.0
 40
7.0
 40
8.0
 40
8.0
 40
8.0
 40
9.0
 40
9.0
 40
9.0
 40
10.0
 40
10.0
 40
10.0
 40
11.0
 40
11.0
 40
11.0
 40
12.0
 40
12.0
 40
12.0
 40
13.0
 40
13.0
 40
13.0
 40
14.0
 40
14.0
 40
14.0
 40
15.0
 40
15.0
 40
15.0
 40
16.0
 40
16.0
 40
16.0
 40
17.0
 40
17.0
 40
17.0
 40
18.0
 40
18.0
 40
18.0
 40
19.0
 40
19.0
 40
19.0
 40
20.0
 40
20.0
 40
20.0
 40
21.0
 40
21.0
 40
21.0
 40
22.0
 40
22.0
 40
22.0
 40
23.0
 40
23.0
 40
23.0
 40
24.0
 40
24.0
 40
24.0
 40
25.0
 40
25.0
 40
25.0
 40
26.0
 40
26.0
 40
26.0
 40
27.0
 40
27.0
 40
27.0
 40
28.0
 40
28.0
 40
28.0
 40
29.0
 40
29.0
 40
29.0
 40
30.0
 40
30.0
 40
30.0
 40
31.0
 40
31.0
 40
31.0
 40
32.0
 40
32.0
 40
32.0
 40
33.0
 40
33.0
 40
33.0
 40
34.0
 40
34.0
 40
34.0
 40
35.0
 40
35.0
 40
35.0
 40
36.0
 40
36.0
 40
36.0
 40
37.0
 40
37.0
 40
37.0
 40
38.0
 40
38.0
 40
38.0
 40
39.0
 40
39.0
 40
39.0
 40
40.0
 40
40.0
 40
40.0
 40
41.0
 40
41.0
 40
41.0
 40
42.0
 40
42.0
 40
42.0
 40
43.0
 40
43.0
 40
43.0
 40
44.0
 40
44.0
 40
44.0
 40
45.0
 40
45.0
 40
45.0
 40
45.0
 10
143.6247474903196
 20
22.65289579770129
 30
0.0
 10
143.6233694512164
 20
22.6515177585981
 30
0.0
 10
143.6219914121132
 20
22.65013971949492
 30
0.0
 10
143.6209578827859
 20
22.64876168039173
 30
0.0
 10
143.6051104330992
 20
22.62946913294715
 30
0.0
 10
143.5889184736368
 20
22.61017658550256
 30
0.0
 10
143.5730710239502
 20
22.59088403805798
 30
0.0
 10
143.5289737726483
 20
22.53851855213696
 30
0.0
 10
143.4852210311222
 20
22.48615306621594
 30
0.0
 10
143.4414682895961
 20
22.43240954119174
 30
0.0
 10
143.4214867225999
 20
22.40760483733441
 30
0.0
 10
143.4015051556037
 20
22.38348915302868
 30
0.0
 10
143.3811790788317
 20
22.35868444917136
 30
0.0
 10
143.3277800635833
 20
22.29253857221849
 30
0.0
 10
143.2743810483349
 20
22.22570367571404
 30
0.0
 10
143.2220155624139
 20
22.15817975965799
 30
0.0
 10
143.21168026914
 20
22.14371034907455
 30
0.0
 10
143.2006559563145
 20
22.1306189775943
 30
0.0
 10
143.1899761532648
 20
22.11683858656245
 30
0.0
 10
143.1382996868954
 20
22.05069270960958
 30
0.0
 10
143.0880012596292
 20
21.98247977400194
 30
0.0
 10
143.0380473421387
 20
21.91495585794589
 30
0.0
 10
143.0197883240215
 20
21.89015115408857
 30
0.0
 10
143.0018738156801
 20
21.86534645023124
 30
0.0
 10
142.983614797563
 20
21.84123076592551
 30
0.0
 10
142.9388285267094
 20
21.7792190062822
 30
0.0
 10
142.8954202949591
 20
21.71789626619048
 30
0.0
 10
142.8530455925362
 20
21.65588450654717
 30
0.0
 10
142.8409877503833
 20
21.63865901775737
 30
0.0
 10
142.8285853984547
 20
21.62074450941596
 30
0.0
 10
142.8172165758534
 20
21.60351902062616
 30
0.0
 10
142.7662291290356
 20
21.52841588950259
 30
0.0
 10
142.7169642310967
 20
21.45331275837903
 30
0.0
 10
142.6694218820368
 20
21.37820962725546
 30
0.0
 10
142.653918942126
 20
21.35340492339814
 30
0.0
 10
142.6397940413184
 20
21.32928923909241
 30
0.0
 10
142.6249801209591
 20
21.30586257433827
 30
0.0
 10
142.5888065945005
 20
21.24660689290133
 30
0.0
 10
142.5543556169209
 20
21.18804023101598
 30
0.0
 10
142.5209381686687
 20
21.13016258868222
 30
0.0
 10
142.50853581674
 20
21.10673592392808
 30
0.0
 10
142.4954444452598
 20
21.08399827872553
 30
0.0
 10
142.4830420933311
 20
21.06194965307458
 30
0.0
 10
142.4413564104598
 20
20.98684652195101
 30
0.0
 10
142.4027713155706
 20
20.91174339082745
 30
0.0
 10
142.3672868086636
 20
20.83732927925548
 30
0.0
 10
142.3566070056139
 20
20.8166586927077
 30
0.0
 10
142.3476497514432
 20
20.79529908660835
 30
0.0
 10
142.3380034777209
 20
20.77462850006057
 30
0.0
 10
142.310787205433
 20
20.71537281862363
 30
0.0
 10
142.2856379917999
 20
20.65749517628988
 30
0.0
 10
142.2625558368215
 20
20.59961753395612
 30
0.0
 10
142.2535985826509
 20
20.57687988875357
 30
0.0
 10
142.2436077991528
 20
20.55414224355103
 30
0.0
 10
142.2356840743095
 20
20.53140459834848
 30
0.0
 10
142.20777878247
 20
20.4576795063281
 30
0.0
 10
142.1833185883884
 20
20.38464343385931
 30
0.0
 10
142.1633370213923
 20
20.31298540049371
 30
0.0
 10
142.1588583943069
 20
20.29782697035868
 30
0.0
 10
142.1564468258763
 20
20.28404657932683
 30
0.0
 10
142.1533462378942
 20
20.27095520784658
 30
0.0
 10
142.1374987882076
 20
20.20963246775486
 30
0.0
 10
142.1244074167273
 20
20.14968776676632
 30
0.0
 10
142.1154501625566
 20
20.08974306577779
 30
0.0
 10
142.1116605550228
 20
20.0704505183332
 30
0.0
 10
142.1078709474891
 20
20.04977993178543
 30
0.0
 10
142.1058038888343
 20
20.02979836478926
 30
0.0
 10
142.0965021248878
 20
19.95882935097525
 30
0.0
 10
142.0906454586993
 20
19.88923837626442
 30
0.0
 10
142.0916789880266
 20
19.82102544065678
 30
0.0
 10
142.1095934963681
 20
18.60146083433834
 30
0.0
 10
142.0617066375324
 20
17.9847883356632
 30
0.0
 10
142.3879573952114
 20
17.16554408881991
 30
0.0
 10
142.3879573952114
 20
17.16554408881991
 30
0.0
 10
139.4620358693745
 20
14.88420035349768
 30
0.0
 10
139.9860352383605
 20
13.35457694896269
 30
0.0
 10
140.0721626823095
 20
13.10377383218308
 30
0.0
 10
140.1724150270662
 20
12.91636051414996
 30
0.0
 10
140.2805910966662
 20
12.77097738876398
 30
0.0
 10
140.3222767795375
 20
12.71447778553341
 30
0.0
 10
140.3653405015121
 20
12.66693543647354
 30
0.0
 10
140.409437752814
 20
12.62352720472322
 30
0.0
 10
140.4146053994509
 20
12.62008210696526
 30
0.0
 10
140.4183950069847
 20
12.6159479896557
 30
0.0
 10
140.4232181438458
 20
12.61181387234615
 30
0.0
 10
140.4724830417847
 20
12.56633858194106
 30
0.0
 10
140.5217479397235
 20
12.52913152615507
 30
0.0
 10
140.5754914647477
 20
12.49812564633341
 30
0.0
 10
140.8459316387477
 20
12.35412056005062
 30
0.0
 10
142.0441366389668
 20
12.58838720759201
 30
0.0
 10
142.6046540441872
 20
12.95425658948754
 30
0.0
 10
142.976724602047
 20
13.16854167003276
 30
0.0
 10
143.392547901433
 20
13.60951418305185
 30
0.0
 10
143.7673745374992
 20
14.08149257589261
 30
0.0
 10
143.9933729504215
 20
14.26683883527094
 30
0.0
 10
144.181819797782
 20
14.47078862254228
 30
0.0
 10
144.3137670419119
 20
14.69265291815501
 30
0.0
 10
144.4701744801234
 20
14.95930348462124
 30
0.0
 10
144.6003991753743
 20
15.18323483888875
 30
0.0
 10
144.7096087743018
 20
15.37340423512824
 30
0.0
 10
144.8942660141285
 20
15.46917795279957
 30
0.0
 10
145.0503289425642
 20
15.69448734617027
 30
0.0
 10
145.1964010875017
 20
16.00523516393841
 30
0.0
 10
145.1964010875017
 20
16.00523516393841
 30
0.0
 10
145.1839987355731
 20
14.1717541371512
 30
0.0
 10
145.1839987355731
 20
14.1717541371512
 30
0.0
 10
145.1839987355731
 20
14.1717541371512
 30
0.0
 10
147.3247824823705
 20
14.53831253859832
 30
0.0
 10
149.8038748289997
 20
15.54910422078428
 30
0.0
 10
152.2822781560773
 20
16.55782884431547
 30
0.0
 10
151.0789055092213
 20
23.65473022571654
 30
0.0
 10
151.0789055092213
 20
23.65473022571654
 30
0.0
 10
151.0789055092213
 20
23.65473022571654
 30
0.0
 10
150.1122110783373
 20
24.15978155703373
 30
0.0
 10
149.7428965986838
 20
25.69491711798146
 30
0.0
 10
149.4287036831577
 20
27.00198720735212
 30
0.0
 10
149.688464054108
 20
29.24130075002722
 30
0.0
 10
149.8297130621844
 20
30.57248652370362
 30
0.0
 10
148.0189696805998
 20
34.03343173135193
 30
0.0
 10
143.7670300277234
 20
37.65147339676329
 30
0.0
 10
142.0661852646177
 20
39.33337012220019
 30
0.0
 10
138.6234990750866
 20
42.73643768751474
 30
0.0
 10
131.772577673604
 20
43.70588819660517
 30
0.0
 10
131.6526882716269
 20
43.69693094243446
 30
0.0
 10
131.7357151275938
 20
43.32899450188415
 30
0.0
 10
129.9924956620652
 20
41.68774992999121
 30
0.0
 10
127.7776423134716
 20
39.36437600202184
 30
0.0
 10
127.6291586001035
 20
39.2065905247072
 30
0.0
 10
127.4830864551659
 20
39.05500622335688
 30
0.0
 10
127.3377033297799
 20
38.90479996110975
 30
0.0
 10
127.2763805896882
 20
38.72014272128301
 30
0.0
 10
128.8204734048066
 20
37.93672749112252
 30
0.0
 10
130.0696658518436
 20
37.42065184697986
 30
0.0
 10
134.2561486473186
 20
35.69465787024105
 30
0.0
 10
140.6027077370356
 20
31.06100138578258
 30
0.0
 10
143.6247474903196
 20
22.65289579770129
 30
0.0
  0
SPLINE
  5
51
330
4B
100
AcDbEntity
  8
Calque 1
 62
   250
370
    18
100
AcDbSpline
210
0.0
220
0.0
230
1.0
 70
    11
 71
     3
 72
    47
 73
    43
 74
     0
 42
0.0000000001
 43
0.0000000001
 40
0.0
 40
0.0
 40
0.0
 40
0.0
 40
1.0
 40
1.0
 40
1.0
 40
2.0
 40
2.0
 40
2.0
 40
3.0
 40
3.0
 40
3.0
 40
4.0
 40
4.0
 40
4.0
 40
5.0
 40
5.0
 40
5.0
 40
6.0
 40
6.0
 40
6.0
 40
7.0
 40
7.0
 40
7.0
 40
8.0
 40
8.0
 40
8.0
 40
9.0
 40
9.0
 40
9.0
 40
10.0
 40
10.0
 40
10.0
 40
11.0
 40
11.0
 40
11.0
 40
12.0
 40
12.0
 40
12.0
 40
13.0
 40
13.0
 40
13.0
 40
14.0
 40
14.0
 40
14.0
 40
14.0
 10
160.5787625768007
 20
20.66025125449625
 30
0.0
 10
160.4705865072007
 20
20.36672892551791
 30
0.0
 10
160.3620659278249
 20
20.09318816353575
 30
0.0
 10
160.2542343680007
 20
19.84031798810136
 30
0.0
 10
163.5053731221891
 20
19.22157843077144
 30
0.0
 10
168.4297958574195
 20
18.15911028221606
 30
0.0
 10
170.3115082528182
 20
18.8481298338084
 30
0.0
 10
174.1596824484614
 20
20.25441873860836
 30
0.0
 10
174.4769759519697
 20
21.63314686134463
 30
0.0
 10
176.7455728255875
 20
23.47627416185413
 30
0.0
 10
179.0134806796537
 20
25.31733440370886
 30
0.0
 10
181.0540120816944
 20
26.03322571781329
 30
0.0
 10
182.6601166564561
 20
28.53436669009348
 30
0.0
 10
184.2655322116663
 20
31.03550766237367
 30
0.0
 10
185.6477054321605
 20
34.48887365495446
 30
0.0
 10
184.2996386794701
 20
38.12620786781041
 30
0.0
 10
182.9512274170039
 20
41.76354208066636
 30
0.0
 10
178.5184201318346
 20
41.31154525482179
 30
0.0
 10
176.35937736692
 20
40.66111079811862
 30
0.0
 10
170.5464639199112
 20
38.91444623483205
 30
0.0
 10
169.7902649620386
 20
37.24081774401426
 30
0.0
 10
167.23572497451
 20
35.85588844531366
 30
0.0
 10
164.7642118429483
 20
34.51643443701816
 30
0.0
 10
161.632962490737
 20
34.13196152722963
 30
0.0
 10
160.7486058962682
 20
32.59269184897235
 30
0.0
 10
160.9914852882045
 20
32.09728679137746
 30
0.0
 10
161.3277268293815
 20
31.32489587404245
 30
0.0
 10
161.6043681793459
 20
30.37542693194821
 30
0.0
 10
163.0964400183191
 20
30.30583595723738
 30
0.0
 10
166.8564197113585
 20
29.84212579901574
 30
0.0
 10
168.6799099546476
 20
29.1172772307406
 30
0.0
 10
170.688746457315
 20
28.31939258999667
 30
0.0
 10
173.8785624714118
 20
25.76864221000184
 30
0.0
 10
172.7299668789073
 20
23.97236823900061
 30
0.0
 10
171.5813712864029
 20
22.17609426799939
 30
0.0
 10
170.2867035489609
 20
21.22386924769878
 30
0.0
 10
167.6164082767648
 20
20.97995632643509
 30
0.0
 10
165.1321482834986
 20
20.75257987440962
 30
0.0
 10
162.0918495120974
 20
21.90599860377519
 30
0.0
 10
160.9411868609382
 20
21.94320565956118
 30
0.0
 10
160.733791975909
 20
21.1680586640198
 30
0.0
 10
160.5787625768007
 20
20.66025125449625
 30
0.0
 10
160.5787625768007
 20
20.66025125449625
 30
0.0
  0
SPLINE
  5
52
330
4B
100
AcDbEntity
  8
Calque 1
 62
   250
370
    18
100
AcDbSpline
210
0.0
220
0.0
230
1.0
 70
    11
 71
     3
 72
    20
 73
    16
 74
     0
 42
0.0000000001
 43
0.0000000001
 40
0.0
 40
0.0
 40
0.0
 40
0.0
 40
1.0
 40
1.0
 40
1.0
 40
2.0
 40
2.0
 40
2.0
 40
3.0
 40
3.0
 40
3.0
 40
4.0
 40
4.0
 40
4.0
 40
5.0
 40
5.0
 40
5.0
 40
5.0
 10
115.9991975887764
 20
45.46702217047518
 30
0.0
 10
116.1707634571229
 20
45.67441705550447
 30
0.0
 10
115.0428384511663
 20
46.24699230287771
 30
0.0
 10
114.7444929853268
 20
46.36274758754522
 30
0.0
 10
114.4461475194873
 20
46.47712483310955
 30
0.0
 10
114.2980083158949
 20
46.52811227992738
 30
0.0
 10
113.8342981576733
 20
46.38272915454139
 30
0.0
 10
113.8342981576733
 20
46.38272915454139
 30
0.0
 10
113.5145930857344
 20
46.22632171632993
 30
0.0
 10
113.630348370402
 20
46.11676760762676
 30
0.0
 10
113.7467926746211
 20
46.00859153802676
 30
0.0
 10
114.7189992619179
 20
45.66063666447263
 30
0.0
 10
115.1027831521548
 20
45.4746013855427
 30
0.0
 10
115.4865670423917
 20
45.28856610661276
 30
0.0
 10
115.8276317204299
 20
45.25893826589429
 30
0.0
 10
115.9991975887764
 20
45.46702217047518
 30
0.0
  0
SPLINE
  5
53
330
4B
100
AcDbEntity
  8
Calque 1
 62
   250
370
    18
100
AcDbSpline
210
0.0
220
0.0
230
1.0
 70
    11
 71
     3
 72
    23
 73
    19
 74
     0
 42
0.0000000001
 43
0.0000000001
 40
0.0
 40
0.0
 40
0.0
 40
0.0
 40
1.0
 40
1.0
 40
1.0
 40
2.0
 40
2.0
 40
2.0
 40
3.0
 40
3.0
 40
3.0
 40
4.0
 40
4.0
 40
4.0
 40
5.0
 40
5.0
 40
5.0
 40
6.0
 40
6.0
 40
6.0
 40
6.0
 10
111.7258983298007
 20
45.40638844993505
 30
0.0
 10
111.7038497041498
 20
45.13491474660767
 30
0.0
 10
111.9353602734848
 20
44.91925162695927
 30
0.0
 10
112.3019186749319
 20
44.77111242336692
 30
0.0
 10
112.6684770763791
 20
44.62435125887775
 30
0.0
 10
113.2148695807918
 20
44.72494811341024
 30
0.0
 10
114.1037048023459
 20
44.78420379484717
 30
0.0
 10
114.9911619847968
 20
44.84345947628412
 30
0.0
 10
114.9257051273956
 20
44.97092809332869
 30
0.0
 10
114.9408635575306
 20
45.1865912129771
 30
0.0
 10
114.955332968114
 20
45.40432139128028
 30
0.0
 10
114.455104773658
 20
45.59035667021021
 30
0.0
 10
113.8053593365064
 20
45.82669037640638
 30
0.0
 10
113.1563029189064
 20
46.06509114125733
 30
0.0
 10
112.8214394168326
 20
46.1939377974051
 30
0.0
 10
112.4727955237268
 20
46.14984054610319
 30
0.0
 10
111.615655201546
 20
46.04028643740001
 30
0.0
 10
111.7465689163485
 20
45.67855117281402
 30
0.0
 10
111.7258983298007
 20
45.40638844993505
 30
0.0
  0
SPLINE
  5
54
330
4B
100
AcDbEntity
  8
Calque 1
 62
   250
370
    18
100
AcDbSpline
210
0.0
220
0.0
230
1.0
 70
    11
 71
     3
 72
    23
 73
    19
 74
     0
 42
0.0000000001
 43
0.0000000001
 40
0.0
 40
0.0
 40
0.0
 40
0.0
 40
1.0
 40
1.0
 40
1.0
 40
2.0
 40
2.0
 40
2.0
 40
3.0
 40
3.0
 40
3.0
 40
4.0
 40
4.0
 40
4.0
 40
5.0
 40
5.0
 40
5.0
 40
6.0
 40
6.0
 40
6.0
 40
6.0
 10
112.7587386376377
 20
43.5853097750765
 30
0.0
 10
112.9764688159408
 20
43.25940352717333
 30
0.0
 10
113.2844605555026
 20
43.17258706367269
 30
0.0
 10
113.8274079621574
 20
43.19187961111728
 30
0.0
 10
114.3696663492605
 20
43.21323921721665
 30
0.0
 10
115.4610733189828
 20
43.42890233686504
 30
0.0
 10
116.0129779798083
 20
43.59840114655676
 30
0.0
 10
116.5648826406337
 20
43.76721093669688
 30
0.0
 10
116.6579002800987
 20
43.97942895858732
 30
0.0
 10
116.5138951938159
 20
44.33978618407011
 30
0.0
 10
116.3692010879815
 20
44.7008324291045
 30
0.0
 10
115.9110030861726
 20
44.74355164130323
 30
0.0
 10
115.4734756709115
 20
44.70841164417202
 30
0.0
 10
115.0373262947535
 20
44.67327164704081
 30
0.0
 10
113.7178538534542
 20
44.59816851591724
 30
0.0
 10
113.0763766509217
 20
44.45416342963444
 30
0.0
 10
112.2412849543918
 20
44.26675011160133
 30
0.0
 10
112.5410084593345
 20
43.9098379838765
 30
0.0
 10
112.7587386376377
 20
43.5853097750765
 30
0.0
  0
SPLINE
  5
55
330
4B
100
AcDbEntity
  8
Calque 1
 62
   250
370
    18
100
AcDbSpline
210
0.0
220
0.0
230
1.0
 70
    11
 71
     3
 72
    20
 73
    16
 74
     0
 42
0.0000000001
 43
0.0000000001
 40
0.0
 40
0.0
 40
0.0
 40
0.0
 40
1.0
 40
1.0
 40
1.0
 40
2.0
 40
2.0
 40
2.0
 40
3.0
 40
3.0
 40
3.0
 40
4.0
 40
4.0
 40
4.0
 40
5.0
 40
5.0
 40
5.0
 40
5.0
 10
114.0864793135561
 20
42.84461375711474
 30
0.0
 10
113.7192318925574
 20
42.42500085019501
 30
0.0
 10
114.9084796386058
 20
41.98196127852113
 30
0.0
 10
115.9771489631255
 20
41.93855304677082
 30
0.0
 10
116.4057191242159
 20
41.9227055970842
 30
0.0
 10
117.4991931525929
 20
42.01503421699757
 30
0.0
 10
117.6983198030031
 20
42.21209380875298
 30
0.0
 10
117.8967574338617
 20
42.40846438095679
 30
0.0
 10
117.8381907719764
 20
43.04856354438608
 30
0.0
 10
117.4047974740248
 20
43.21530627587142
 30
0.0
 10
116.9707151565216
 20
43.38204900735676
 30
0.0
 10
116.5579924451178
 20
43.36275645991218
 30
0.0
 10
115.7635529021318
 20
43.27456195730836
 30
0.0
 10
114.9698023786975
 20
43.18567843515295
 30
0.0
 10
114.2821608662083
 20
43.06785609183066
 30
0.0
 10
114.0864793135561
 20
42.84461375711474
 30
0.0
  0
SPLINE
  5
56
330
4B
100
AcDbEntity
  8
Calque 1
 62
   250
370
    18
100
AcDbSpline
210
0.0
220
0.0
230
1.0
 70
    11
 71
     3
 72
    32
 73
    28
 74
     0
 42
0.0000000001
 43
0.0000000001
 40
0.0
 40
0.0
 40
0.0
 40
0.0
 40
1.0
 40
1.0
 40
1.0
 40
2.0
 40
2.0
 40
2.0
 40
3.0
 40
3.0
 40
3.0
 40
4.0
 40
4.0
 40
4.0
 40
5.0
 40
5.0
 40
5.0
 40
6.0
 40
6.0
 40
6.0
 40
7.0
 40
7.0
 40
7.0
 40
8.0
 40
8.0
 40
8.0
 40
9.0
 40
9.0
 40
9.0
 40
9.0
 10
157.9718571033511
 20
48.25548429576937
 30
0.0
 10
157.9718571033511
 20
48.25548429576937
 30
0.0
 10
157.8433549569791
 20
47.6236533669592
 30
0.0
 10
157.8433549569791
 20
47.6236533669592
 30
0.0
 10
157.8433549569791
 20
47.6236533669592
 30
0.0
 10
156.8856177802657
 20
45.97069546268918
 30
0.0
 10
156.8856177802657
 20
45.97069546268918
 30
0.0
 10
156.8856177802657
 20
45.97069546268918
 30
0.0
 10
158.7370133153944
 20
45.40501041083187
 30
0.0
 10
158.7370133153944
 20
45.40501041083187
 30
0.0
 10
158.7370133153944
 20
45.40501041083187
 30
0.0
 10
159.0429379963014
 20
43.99596542782554
 30
0.0
 10
159.0429379963014
 20
43.99596542782554
 30
0.0
 10
159.0429379963014
 20
43.99596542782554
 30
0.0
 10
159.6265375565001
 20
44.14823874872744
 30
0.0
 10
159.9045569455676
 20
44.45002931232489
 30
0.0
 10
160.1818873150835
 20
44.75113085637074
 30
0.0
 10
160.6176921814656
 20
45.54281432115034
 30
0.0
 10
160.2363198596593
 20
46.79200676818724
 30
0.0
 10
159.9252275321153
 20
47.80899962633754
 30
0.0
 10
159.3616095389128
 20
47.99779098347383
 30
0.0
 10
159.161793868951
 20
48.05360156715282
 30
0.0
 10
158.9630117283166
 20
48.11079018993498
 30
0.0
 10
158.5620023492899
 20
47.85792001450059
 30
0.0
 10
158.5620023492899
 20
47.85792001450059
 30
0.0
 10
158.5620023492899
 20
47.85792001450059
 30
0.0
 10
157.9718571033511
 20
48.25548429576937
 30
0.0
 10
157.9718571033511
 20
48.25548429576937
 30
0.0
  0
SPLINE
  5
57
330
4B
100
AcDbEntity
  8
Calque 1
 62
   250
370
    18
100
AcDbSpline
210
0.0
220
0.0
230
1.0
 70
    11
 71
     3
 72
    20
 73
    16
 74
     0
 42
0.0000000001
 43
0.0000000001
 40
0.0
 40
0.0
 40
0.0
 40
0.0
 40
1.0
 40
1.0
 40
1.0
 40
2.0
 40
2.0
 40
2.0
 40
3.0
 40
3.0
 40
3.0
 40
4.0
 40
4.0
 40
4.0
 40
5.0
 40
5.0
 40
5.0
 40
5.0
 10
153.7616031333461
 20
23.79253413603501
 30
0.0
 10
155.2650437949206
 20
23.79942433155094
 30
0.0
 10
156.1066811771906
 20
24.1625376352401
 30
0.0
 10
156.6027752543371
 20
25.29459675850631
 30
0.0
 10
157.0992138412594
 20
26.42458882311774
 30
0.0
 10
157.333135979025
 20
27.58283068934446
 30
0.0
 10
157.045814826011
 20
28.30354514031005
 30
0.0
 10
156.7574601436696
 20
29.02494861082722
 30
0.0
 10
155.1744377238862
 20
30.19352577032783
 30
0.0
 10
153.0181510371779
 20
29.52310974662849
 30
0.0
 10
151.738641729871
 20
29.12416742625652
 30
0.0
 10
150.3051365527831
 20
27.33616168987441
 30
0.0
 10
150.4529312465997
 20
26.00773199440438
 30
0.0
 10
150.6017594697436
 20
24.67861327938276
 30
0.0
 10
152.25747345222
 20
23.78702197962227
 30
0.0
 10
153.7616031333461
 20
23.79253413603501
 30
0.0
  0
SPLINE
  5
58
330
4B
100
AcDbEntity
  8
Calque 1
 62
   250
370
    18
100
AcDbSpline
210
0.0
220
0.0
230
1.0
 70
    11
 71
     3
 72
    80
 73
    76
 74
     0
 42
0.0000000001
 43
0.0000000001
 40
0.0
 40
0.0
 40
0.0
 40
0.0
 40
1.0
 40
1.0
 40
1.0
 40
2.0
 40
2.0
 40
2.0
 40
3.0
 40
3.0
 40
3.0
 40
4.0
 40
4.0
 40
4.0
 40
5.0
 40
5.0
 40
5.0
 40
6.0
 40
6.0
 40
6.0
 40
7.0
 40
7.0
 40
7.0
 40
8.0
 40
8.0
 40
8.0
 40
9.0
 40
9.0
 40
9.0
 40
10.0
 40
10.0
 40
10.0
 40
11.0
 40
11.0
 40
11.0
 40
12.0
 40
12.0
 40
12.0
 40
13.0
 40
13.0
 40
13.0
 40
14.0
 40
14.0
 40
14.0
 40
15.0
 40
15.0
 40
15.0
 40
16.0
 40
16.0
 40
16.0
 40
17.0
 40
17.0
 40
17.0
 40
18.0
 40
18.0
 40
18.0
 40
19.0
 40
19.0
 40
19.0
 40
20.0
 40
20.0
 40
20.0
 40
21.0
 40
21.0
 40
21.0
 40
22.0
 40
22.0
 40
22.0
 40
23.0
 40
23.0
 40
23.0
 40
24.0
 40
24.0
 40
24.0
 40
25.0
 40
25.0
 40
25.0
 40
25.0
 10
164.6009142092209
 20
43.82026544216949
 30
0.0
 10
164.2378009055318
 20
45.21484101459239
 30
0.0
 10
163.718624673407
 20
46.77133618163948
 30
0.0
 10
163.3334627440668
 20
47.12342517250316
 30
0.0
 10
162.9483008147267
 20
47.47413612426366
 30
0.0
 10
162.4983710475369
 20
46.24079112691337
 30
0.0
 10
162.4983710475369
 20
46.24079112691337
 30
0.0
 10
162.6540894661968
 20
47.0118040051452
 30
0.0
 10
161.0348935199548
 20
49.12709402853368
 30
0.0
 10
160.0571747762453
 20
49.5205241924929
 30
0.0
 10
159.0791115227599
 20
49.91257631734894
 30
0.0
 10
157.9188025978785
 20
49.46126851105596
 30
0.0
 10
156.6379152514683
 20
49.78441868075276
 30
0.0
 10
155.3563388855065
 20
50.10756885044957
 30
0.0
 10
154.2869805414352
 20
50.70632684078331
 30
0.0
 10
153.5903817747754
 20
51.05910485119859
 30
0.0
 10
152.8937830081155
 20
51.41188286161387
 30
0.0
 10
152.1620442443245
 20
51.15143347111196
 30
0.0
 10
151.39206489542
 20
50.92130094088012
 30
0.0
 10
150.6220855465156
 20
50.69185743019987
 30
0.0
 10
150.3750720372697
 20
50.73664370105338
 30
0.0
 10
149.7759695371602
 20
50.52580371826613
 30
0.0
 10
149.1761780174991
 20
50.31565275503046
 30
0.0
 10
148.7796472655577
 20
49.84091828398334
 30
0.0
 10
148.2242975069743
 20
49.24009323499482
 30
0.0
 10
148.2242975069743
 20
49.24009323499482
 30
0.0
 10
148.2797635808774
 20
49.1429414782203
 30
0.0
 10
148.2797635808774
 20
49.1429414782203
 30
0.0
 10
151.4657899874404
 20
46.09265192332102
 30
0.0
 10
155.1627243915091
 20
40.93534057965238
 30
0.0
 10
155.1627243915091
 20
40.93534057965238
 30
0.0
 10
155.1627243915091
 20
40.93534057965238
 30
0.0
 10
155.6753549378938
 20
42.12596636480394
 30
0.0
 10
155.2064771330352
 20
44.54649204954782
 30
0.0
 10
154.7379438379524
 20
46.96770675384329
 30
0.0
 10
155.3938904510683
 20
47.76283531638085
 30
0.0
 10
156.2865152801562
 20
48.22241135729294
 30
0.0
 10
157.1791401092441
 20
48.68198739820502
 30
0.0
 10
160.3417398510529
 20
49.1877277490738
 30
0.0
 10
160.6800484508848
 20
46.5977032546382
 30
0.0
 10
161.0187015604924
 20
44.0090567993058
 30
0.0
 10
159.2375860196262
 20
43.14158118385104
 30
0.0
 10
158.3601196206733
 20
42.99344198025869
 30
0.0
 10
157.4826532217205
 20
42.84323571801156
 30
0.0
 10
157.2294385365103
 20
43.33106156053893
 30
0.0
 10
156.5428305533486
 20
43.25389137076059
 30
0.0
 10
155.8565670799626
 20
43.17672118098225
 30
0.0
 10
156.2055554828441
 20
41.82486482075808
 30
0.0
 10
156.2799695944161
 20
41.16340605122944
 30
0.0
 10
156.3533501766607
 20
40.5012582621492
 30
0.0
 10
156.3251003750454
 20
39.41743050749445
 30
0.0
 10
155.7632049307218
 20
38.21991452682697
 30
0.0
 10
153.2806674863346
 20
42.53731103710456
 30
0.0
 10
150.491171831713
 20
45.92039703542294
 30
0.0
 10
148.8826556885207
 20
47.72011610418213
 30
0.0
 10
148.8826556885207
 20
47.72011610418213
 30
0.0
 10
148.880588629866
 20
47.69944551763435
 30
0.0
 10
148.880588629866
 20
47.69944551763435
 30
0.0
 10
147.1597622997641
 20
49.48125007805214
 30
0.0
 10
145.8971339714711
 20
49.94978337313493
 30
0.0
 10
145.8971339714711
 20
49.94978337313493
 30
0.0
 10
145.8971339714711
 20
49.94978337313493
 30
0.0
 10
144.7850564152011
 20
49.07266148395788
 30
0.0
 10
145.0889140374533
 20
45.41052256724461
 30
0.0
 10
145.3934606792571
 20
41.74907267008292
 30
0.0
 10
147.3606114990532
 20
39.3140775747556
 30
0.0
 10
149.38426192208
 20
37.60255300860024
 30
0.0
 10
151.4086013646582
 20
35.89102844244487
 30
0.0
 10
153.5535192287652
 20
35.26884378735699
 30
0.0
 10
155.783186497718
 20
35.1241496815226
 30
0.0
 10
158.0131982764466
 20
34.97669949748184
 30
0.0
 10
162.0019324606147
 20
36.42639663403212
 30
0.0
 10
163.7382617306273
 20
37.9119227872652
 30
0.0
 10
165.4752800201916
 20
39.39675992094669
 30
0.0
 10
164.9640275129101
 20
42.42500085019501
 30
0.0
 10
164.6009142092209
 20
43.82026544216949
 30
0.0
  0
SPLINE
  5
59
330
4B
100
AcDbEntity
  8
Calque 1
 62
   250
370
    18
100
AcDbSpline
210
0.0
220
0.0
230
1.0
 70
    11
 71
     3
 72
    59
 73
    55
 74
     0
 42
0.0000000001
 43
0.0000000001
 40
0.0
 40
0.0
 40
0.0
 40
0.0
 40
1.0
 40
1.0
 40
1.0
 40
2.0
 40
2.0
 40
2.0
 40
3.0
 40
3.0
 40
3.0
 40
4.0
 40
4.0
 40
4.0
 40
5.0
 40
5.0
 40
5.0
 40
6.0
 40
6.0
 40
6.0
 40
7.0
 40
7.0
 40
7.0
 40
8.0
 40
8.0
 40
8.0
 40
9.0
 40
9.0
 40
9.0
 40
10.0
 40
10.0
 40
10.0
 40
11.0
 40
11.0
 40
11.0
 40
12.0
 40
12.0
 40
12.0
 40
13.0
 40
13.0
 40
13.0
 40
14.0
 40
14.0
 40
14.0
 40
15.0
 40
15.0
 40
15.0
 40
16.0
 40
16.0
 40
16.0
 40
17.0
 40
17.0
 40
17.0
 40
18.0
 40
18.0
 40
18.0
 40
18.0
 10
161.499292697728
 20
24.25762233335984
 30
0.0
 10
161.4724209352159
 20
24.12946469676367
 30
0.0
 10
161.4441711336006
 20
24.0006180406159
 30
0.0
 10
161.4162658417611
 20
23.8745274626745
 30
0.0
 10
161.414887802658
 20
23.86832628671017
 30
0.0
 10
161.4135097635548
 20
23.86074707164265
 30
0.0
 10
161.4121317244516
 20
23.85385687612673
 30
0.0
 10
161.9068477624949
 20
23.91104549890889
 30
0.0
 10
162.6282512330121
 20
24.24453096187959
 30
0.0
 10
163.1980704021789
 20
24.30792076062608
 30
0.0
 10
164.129280326156
 20
24.41127369336493
 30
0.0
 10
167.3749069239317
 20
24.07434313263628
 30
0.0
 10
167.612618669231
 20
25.66184417950502
 30
0.0
 10
167.8741015890603
 20
27.40644168413682
 30
0.0
 10
164.0107689632821
 20
27.65379970315847
 30
0.0
 10
162.8170425901484
 20
27.61934872557886
 30
0.0
 10
162.4966484986579
 20
27.61039147140816
 30
0.0
 10
162.2234522464516
 20
27.57180637651899
 30
0.0
 10
161.9857405011522
 20
27.5166848123916
 30
0.0
 10
161.9788503056363
 20
27.38301501938269
 30
0.0
 10
161.9678259928108
 20
27.24934522637377
 30
0.0
 10
161.9564571702095
 20
27.11085229650371
 30
0.0
 10
161.954045601779
 20
27.09293778816231
 30
0.0
 10
161.9526675626758
 20
27.07364524071772
 30
0.0
 10
161.950600504021
 20
27.05504171282473
 30
0.0
 10
161.9254512903879
 20
26.77392173577506
 30
0.0
 10
161.8903112932567
 20
26.48384450455469
 30
0.0
 10
161.8482811006095
 20
26.18825511692157
 30
0.0
 10
161.8465585517306
 20
26.1765417845445
 30
0.0
 10
161.8448360028516
 20
26.16482845216743
 30
0.0
 10
161.8427689441968
 20
26.15242610023877
 30
0.0
 10
161.823820906528
 20
26.02013434633304
 30
0.0
 10
161.8034948297561
 20
25.88853161197891
 30
0.0
 10
161.7817907138809
 20
25.7541727994184
 30
0.0
 10
161.7776565965713
 20
25.72799005645789
 30
0.0
 10
161.7735224792618
 20
25.70111829394579
 30
0.0
 10
161.7690438521764
 20
25.67562457053687
 30
0.0
 10
161.7452726776465
 20
25.53093046470248
 30
0.0
 10
161.720812483565
 20
25.38761439797127
 30
0.0
 10
161.6942852308287
 20
25.24223127258529
 30
0.0
 10
161.6942852308287
 20
25.24223127258529
 30
0.0
 10
161.6942852308287
 20
25.24223127258529
 30
0.0
 10
161.6939407210529
 20
25.24223127258529
 30
0.0
 10
161.6677579780924
 20
25.09822618630249
 30
0.0
 10
161.6408862155803
 20
24.95422110001969
 30
0.0
 10
161.612636413965
 20
24.81021601373689
 30
0.0
 10
161.6050571988975
 20
24.7736979775025
 30
0.0
 10
161.5974779838299
 20
24.73717994126811
 30
0.0
 10
161.590587788314
 20
24.69928386593053
 30
0.0
 10
161.5695726919905
 20
24.59524191364009
 30
0.0
 10
161.5482130858911
 20
24.49051094179805
 30
0.0
 10
161.5261644602401
 20
24.3871580090592
 30
0.0
 10
161.5172072060694
 20
24.34306075775729
 30
0.0
 10
161.5089389714503
 20
24.30034154555857
 30
0.0
 10
161.499292697728
 20
24.25762233335984
 30
0.0
  0
ENDBLK
  5
4E
330
4B
100
AcDbEntity
  8
0
100
AcDbBlockEnd
  0
ENDSEC
  0
SECTION
  2
ENTITIES
  0
INSERT
  5
3D
330
1F
100
AcDbEntity
  8
Calque 1
100
AcDbBlockReference
  2
block 2
 10
0.0
 20
0.0
 30
0.0
  0
INSERT
  5
4C
330
1F
100
AcDbEntity
  8
Calque 1
100
AcDbBlockReference
  2
block 3
 10
0.0
 20
0.0
 30
0.0
  0
ENDSEC
  0
SECTION
  2
OBJECTS
  0
DICTIONARY
  5
C
330
0
100
AcDbDictionary
281
     1
  3
ACAD_GROUP
350
D
  3
ACAD_LAYOUT
350
1A
  3
ACAD_MLINESTYLE
350
17
  3
ACAD_PLOTSETTINGS
350
19
  3
ACAD_PLOTSTYLENAME
350
E
  3
ACAD_TABLESTYLE
350
5A
  3
ACAD_VISUALSTYLE
350
2A
  0
DICTIONARY
  5
D
102
{ACAD_REACTORS
330
C
102
}
330
C
100
AcDbDictionary
281
     1
  0
DICTIONARY
  5
1A
102
{ACAD_REACTORS
330
C
102
}
330
C
100
AcDbDictionary
281
     1
  3
Layout1
350
1E
  3
Layout2
350
26
  3
Model
350
22
  0
DICTIONARY
  5
17
102
{ACAD_REACTORS
330
C
102
}
330
C
100
AcDbDictionary
281
     1
  3
Standard
350
18
  0
DICTIONARY
  5
19
102
{ACAD_REACTORS
330
C
102
}
330
C
100
AcDbDictionary
281
     1
  0
ACDBDICTIONARYWDFLT
  5
E
102
{ACAD_REACTORS
330
C
102
}
330
C
100
AcDbDictionary
281
     1
  3
Normal
350
F
100
AcDbDictionaryWithDefault
340
F
  0
DICTIONARY
  5
5A
102
{ACAD_REACTORS
330
C
102
}
330
C
100
AcDbDictionary
281
     1
  0
DICTIONARY
  5
2A
102
{ACAD_REACTORS
330
C
102
}
330
C
100
AcDbDictionary
281
     1
  3
2dWireframe
350
2F
  3
3D Hidden
350
31
  3
3dWireframe
350
30
  3
Basic
350
32
  3
Brighten
350
36
  3
ColorChange
350
3A
  3
Conceptual
350
34
  3
Dim
350
35
  3
Facepattern
350
39
  3
Flat
350
2B
  3
FlatWithEdges
350
2C
  3
Gouraud
350
2D
  3
GouraudWithEdges
350
2E
  3
Linepattern
350
38
  3
Realistic
350
33
  3
Thicken
350
37
  0
LAYOUT
  5
1E
102
{ACAD_REACTORS
330
1A
102
}
330
1A
100
AcDbPlotSettings
  1

  2
none_device
  4

  6

 40
0.0
 41
0.0
 42
0.0
 43
0.0
 44
0.0
 45
0.0
 46
0.0
 47
0.0
 48
0.0
 49
0.0
140
0.0
141
0.0
142
1.0
143
1.0
 70
   688
 72
     0
 73
     0
 74
     5
  7

 75
    16
147
1.0
148
0.0
149
0.0
100
AcDbLayout
  1
Layout1
 70
     1
 71
     1
 10
0.0
 20
0.0
 11
12.0
 21
9.0
 12
0.0
 22
0.0
 32
0.0
 14
1.000000000000000E+20
 24
1.000000000000000E+20
 34
1.000000000000000E+20
 15
-1.000000000000000E+20
 25
-1.000000000000000E+20
 35
-1.000000000000000E+20
146
0.0
 13
0.0
 23
0.0
 33
0.0
 16
1.0
 26
0.0
 36
0.0
 17
0.0
 27
1.0
 37
0.0
 76
     0
330
1B
  0
LAYOUT
  5
26
102
{ACAD_REACTORS
330
1A
102
}
330
1A
100
AcDbPlotSettings
  1

  2
none_device
  4

  6

 40
0.0
 41
0.0
 42
0.0
 43
0.0
 44
0.0
 45
0.0
 46
0.0
 47
0.0
 48
0.0
 49
0.0
140
0.0
141
0.0
142
1.0
143
1.0
 70
   688
 72
     0
 73
     0
 74
     5
  7

 75
    16
147
1.0
148
0.0
149
0.0
100
AcDbLayout
  1
Layout2
 70
     1
 71
     2
 10
0.0
 20
0.0
 11
0.0
 21
0.0
 12
0.0
 22
0.0
 32
0.0
 14
0.0
 24
0.0
 34
0.0
 15
0.0
 25
0.0
 35
0.0
146
0.0
 13
0.0
 23
0.0
 33
0.0
 16
1.0
 26
0.0
 36
0.0
 17
0.0
 27
1.0
 37
0.0
 76
     0
330
23
  0
LAYOUT
  5
22
102
{ACAD_REACTORS
330
1A
102
}
330
1A
100
AcDbPlotSettings
  1

  2
none_device
  4

  6

 40
0.0
 41
0.0
 42
0.0
 43
0.0
 44
0.0
 45
0.0
 46
0.0
 47
0.0
 48
0.0
 49
0.0
140
0.0
141
0.0
142
1.0
143
1.0
 70
  1712
 72
     0
 73
     0
 74
     0
  7

 75
     0
147
1.0
148
0.0
149
0.0
100
AcDbLayout
  1
Model
 70
     1
 71
     0
 10
0.0
 20
0.0
 11
12.0
 21
9.0
 12
0.0
 22
0.0
 32
0.0
 14
1.000000000000000E+20
 24
1.000000000000000E+20
 34
1.000000000000000E+20
 15
-1.000000000000000E+20
 25
-1.000000000000000E+20
 35
-1.000000000000000E+20
146
0.0
 13
0.0
 23
0.0
 33
0.0
 16
1.0
 26
0.0
 36
0.0
 17
0.0
 27
1.0
 37
0.0
 76
     0
330
1F
331
29
  0
MLINESTYLE
  5
18
102
{ACAD_REACTORS
330
17
102
}
330
17
100
AcDbMlineStyle
  2
Standard
 70
     0
  3

 62
   256
 51
90.0
 52
90.0
 71
     2
 49
0.5
 62
   256
  6
BYLAYER
 49
-0.5
 62
   256
  6
BYLAYER
  0
ACDBPLACEHOLDER
  5
F
102
{ACAD_REACTORS
330
E
102
}
330
E
  0
VISUALSTYLE
  5
2F
102
{ACAD_REACTORS
330
2A
102
}
330
2A
100
AcDbVisualStyle
  2
2dWireframe
 70
     4
 71
     0
 72
     2
 73
     0
 90
        0
 40
-0.6
 41
-30.0
 62
     5
 63
     7
 74
     1
 91
        4
 64
     7
 65
   257
 75
     1
175
     1
 42
1.0
 92
        0
 66
   257
 43
1.0
 76
     1
 77
     6
 78
     2
 67
     7
 79
     5
170
     0
171
     0
290
     0
174
     0
 93
        1
 44
0.0
173
     0
291
     0
 45
0.0
1001
ACAD
1000
AcDbSavedByObjectVersion
1070
     0
  0
VISUALSTYLE
  5
31
102
{ACAD_REACTORS
330
2A
102
}
330
2A
100
AcDbVisualStyle
  2
3D Hidden
 70
     6
 71
     1
 72
     2
 73
     2
 90
        0
 40
-0.6
 41
-30.0
 62
     5
 63
     7
 74
     2
 91
        2
 64
     7
 65
   257
 75
     2
175
     1
 42
40.0
 92
        0
 66
   257
 43
1.0
 76
     1
 77
     6
 78
     2
 67
     7
 79
     3
170
     0
171
     0
290
     0
174
     0
 93
        1
 44
0.0
173
     0
291
     0
 45
0.0
1001
ACAD
1000
AcDbSavedByObjectVersion
1070
     0
  0
VISUALSTYLE
  5
30
102
{ACAD_REACTORS
330
2A
102
}
330
2A
100
AcDbVisualStyle
  2
3dWireframe
 70
     5
 71
     0
 72
     2
 73
     0
 90
        0
 40
-0.6
 41
-30.0
 62
     5
 63
     7
 74
     1
 91
        4
 64
     7
 65
   257
 75
     1
175
     1
 42
1.0
 92
        0
 66
   257
 43
1.0
 76
     1
 77
     6
 78
     2
 67
     7
 79
     5
170
     0
171
     0
290
     0
174
     0
 93
        1
 44
0.0
173
     0
291
     0
 45
0.0
1001
ACAD
1000
AcDbSavedByObjectVersion
1070
     0
  0
VISUALSTYLE
  5
32
102
{ACAD_REACTORS
330
2A
102
}
330
2A
100
AcDbVisualStyle
  2
Basic
 70
     7
 71
     1
 72
     0
 73
     1
 90
        0
 40
-0.6
 41
-30.0
 62
     5
 63
     7
 74
     0
 91
        4
 64
     7
 65
   257
 75
     1
175
     1
 42
1.0
 92
        8
 66
     7
 43
1.0
 76
     1
 77
     6
 78
     2
 67
     7
 79
     5
170
     0
171
     0
290
     0
174
     0
 93
        1
 44
0.0
173
     0
291
     1
 45
0.0
1001
ACAD
1000
AcDbSavedByObjectVersion
1070
     0
  0
VISUALSTYLE
  5
36
102
{ACAD_REACTORS
330
2A
102
}
330
2A
100
AcDbVisualStyle
  2
Brighten
 70
    12
 71
     2
 72
     2
 73
     0
 90
        0
 40
-0.6
 41
-30.0
 62
     5
 63
     7
 74
     1
 91
        4
 64
     7
 65
   257
 75
     1
175
     1
 42
1.0
 92
        8
 66
     7
 43
1.0
 76
     1
 77
     6
 78
     2
 67
     7
 79
     5
170
     0
171
     0
290
     0
174
     0
 93
        1
 44
50.0
173
     0
291
     1
 45
0.0
1001
ACAD
1000
AcDbSavedByObjectVersion
1070
     0
  0
VISUALSTYLE
  5
3A
102
{ACAD_REACTORS
330
2A
102
}
330
2A
100
AcDbVisualStyle
  2
ColorChange
 70
    16
 71
     2
 72
     2
 73
     3
 90
        0
 40
-0.6
 41
-30.0
 62
     5
 63
     8
 74
     1
 91
        4
 64
     7
 65
   257
 75
     1
175
     1
 42
1.0
 92
        8
 66
     8
 43
1.0
 76
     1
 77
     6
 78
     2
 67
     7
 79
     5
170
     0
171
     0
290
     0
174
     0
 93
        1
 44
0.0
173
     0
291
     1
 45
0.0
1001
ACAD
1000
AcDbSavedByObjectVersion
1070
     0
  0
VISUALSTYLE
  5
34
102
{ACAD_REACTORS
330
2A
102
}
330
2A
100
AcDbVisualStyle
  2
Conceptual
 70
     9
 71
     3
 72
     2
 73
     0
 90
        0
 40
-0.6
 41
-30.0
 62
     5
 63
     7
 74
     2
 91
        2
 64
     7
 65
   257
 75
     1
175
     1
 42
40.0
 92
        8
 66
     7
 43
1.0
 76
     1
 77
     6
 78
     2
 67
     7
 79
     3
170
     0
171
     0
290
     0
174
     0
 93
        1
 44
0.0
173
     0
291
     0
 45
0.0
1001
ACAD
1000
AcDbSavedByObjectVersion
1070
     0
  0
VISUALSTYLE
  5
35
102
{ACAD_REACTORS
330
2A
102
}
330
2A
100
AcDbVisualStyle
  2
Dim
 70
    11
 71
     2
 72
     2
 73
     0
 90
        0
 40
-0.6
 41
-30.0
 62
     5
 63
     7
 74
     1
 91
        4
 64
     7
 65
   257
 75
     1
175
     1
 42
1.0
 92
        8
 66
     7
 43
1.0
 76
     1
 77
     6
 78
     2
 67
     7
 79
     5
170
     0
171
     0
290
     0
174
     0
 93
        1
 44
-50.0
173
     0
291
     1
 45
0.0
1001
ACAD
1000
AcDbSavedByObjectVersion
1070
     0
  0
VISUALSTYLE
  5
39
102
{ACAD_REACTORS
330
2A
102
}
330
2A
100
AcDbVisualStyle
  2
Facepattern
 70
    15
 71
     2
 72
     2
 73
     0
 90
        0
 40
-0.6
 41
-30.0
 62
     5
 63
     7
 74
     1
 91
        4
 64
     7
 65
   257
 75
     1
175
     1
 42
1.0
 92
        8
 66
     7
 43
1.0
 76
     1
 77
     6
 78
     2
 67
     7
 79
     5
170
     0
171
     0
290
     0
174
     0
 93
        1
 44
0.0
173
     0
291
     1
 45
0.0
1001
ACAD
1000
AcDbSavedByObjectVersion
1070
     0
  0
VISUALSTYLE
  5
2B
102
{ACAD_REACTORS
330
2A
102
}
330
2A
100
AcDbVisualStyle
  2
Flat
 70
     0
 71
     2
 72
     1
 73
     1
 90
        2
 40
-0.6
 41
30.0
 62
     5
 63
     7
 74
     0
 91
        4
 64
     7
 65
   257
 75
     1
175
     1
 42
1.0
 92
        8
 66
     7
 43
1.0
 76
     1
 77
     6
 78
     2
 67
     7
 79
     5
170
     0
171
     0
290
     0
174
     0
 93
       13
 44
0.0
173
     0
291
     1
 45
0.0
1001
ACAD
1000
AcDbSavedByObjectVersion
1070
     0
  0
VISUALSTYLE
  5
2C
102
{ACAD_REACTORS
330
2A
102
}
330
2A
100
AcDbVisualStyle
  2
FlatWithEdges
 70
     1
 71
     2
 72
     1
 73
     1
 90
        2
 40
-0.6
 41
30.0
 62
     5
 63
     7
 74
     1
 91
        4
 64
     7
 65
   257
 75
     1
175
     1
 42
1.0
 92
        0
 66
   257
 43
1.0
 76
     1
 77
     6
 78
     2
 67
     7
 79
     5
170
     0
171
     0
290
     0
174
     0
 93
       13
 44
0.0
173
     0
291
     1
 45
0.0
1001
ACAD
1000
AcDbSavedByObjectVersion
1070
     0
  0
VISUALSTYLE
  5
2D
102
{ACAD_REACTORS
330
2A
102
}
330
2A
100
AcDbVisualStyle
  2
Gouraud
 70
     2
 71
     2
 72
     2
 73
     1
 90
        2
 40
-0.6
 41
30.0
 62
     5
 63
     7
 74
     0
 91
        4
 64
     7
 65
   257
 75
     1
175
     1
 42
1.0
 92
        0
 66
     7
 43
1.0
 76
     1
 77
     6
 78
     2
 67
     7
 79
     5
170
     0
171
     0
290
     0
174
     0
 93
       13
 44
0.0
173
     0
291
     1
 45
0.0
1001
ACAD
1000
AcDbSavedByObjectVersion
1070
     0
  0
VISUALSTYLE
  5
2E
102
{ACAD_REACTORS
330
2A
102
}
330
2A
100
AcDbVisualStyle
  2
GouraudWithEdges
 70
     3
 71
     2
 72
     2
 73
     1
 90
        2
 40
-0.6
 41
30.0
 62
     5
 63
     7
 74
     1
 91
        4
 64
     7
 65
   257
 75
     1
175
     1
 42
1.0
 92
        0
 66
   257
 43
1.0
 76
     1
 77
     6
 78
     2
 67
     7
 79
     5
170
     0
171
     0
290
     0
174
     0
 93
       13
 44
0.0
173
     0
291
     1
 45
0.0
1001
ACAD
1000
AcDbSavedByObjectVersion
1070
     0
  0
VISUALSTYLE
  5
38
102
{ACAD_REACTORS
330
2A
102
}
330
2A
100
AcDbVisualStyle
  2
Linepattern
 70
    14
 71
     2
 72
     2
 73
     0
 90
        0
 40
-0.6
 41
-30.0
 62
     5
 63
     7
 74
     1
 91
        4
 64
     7
 65
   257
 75
     7
175
     7
 42
1.0
 92
        8
 66
     7
 43
1.0
 76
     1
 77
     6
 78
     2
 67
     7
 79
     5
170
     0
171
     0
290
     0
174
     0
 93
        1
 44
0.0
173
     0
291
     1
 45
0.0
1001
ACAD
1000
AcDbSavedByObjectVersion
1070
     0
  0
VISUALSTYLE
  5
33
102
{ACAD_REACTORS
330
2A
102
}
330
2A
100
AcDbVisualStyle
  2
Realistic
 70
     8
 71
     2
 72
     2
 73
     0
 90
        0
 40
-0.6
 41
-30.0
 62
     5
 63
     7
 74
     1
 91
        0
 64
     7
 65
   257
 75
     1
175
     1
 42
1.0
 92
        8
 66
     8
 43
1.0
 76
     1
 77
     6
 78
     2
 67
     7
 79
     5
170
     0
171
     0
290
     0
174
     0
 93
       13
 44
0.0
173
     0
291
     0
 45
0.0
1001
ACAD
1000
AcDbSavedByObjectVersion
1070
     0
  0
VISUALSTYLE
  5
37
102
{ACAD_REACTORS
330
2A
102
}
330
2A
100
AcDbVisualStyle
  2
Thicken
 70
    13
 71
     2
 72
     2
 73
     0
 90
        0
 40
-0.6
 41
-30.0
 62
     5
 63
     7
 74
     1
 91
        4
 64
     7
 65
   257
 75
     1
175
     1
 42
1.0
 92
       12
 66
     7
 43
1.0
 76
     1
 77
     6
 78
     2
 67
     7
 79
     5
170
     0
171
     0
290
     0
174
     0
 93
        1
 44
0.0
173
     0
291
     1
 45
0.0
1001
ACAD
1000
AcDbSavedByObjectVersion
1070
     0
  0
ENDSEC
  0
EOF
