  0
SECTION
  2
HEADER
  9
$ACADVER
  1
AC1015
  9
$ACADMAINTVER
 70
     6
  9
$DWGCODEPAGE
  3
ANSI_932
  9
$INSBASE
 10
0.0
 20
0.0
 30
0.0
  9
$EXTMIN
 10
9.275575
 20
101.226207
 30
1.000000E+20
  9
$EXTMAX
 10
190.825217
 20
198.006863
 30
-1.000000E+20
  9
$LIMMIN
 10
9.275575
 20
101.226207
  9
$LIMMAX
 10
190.825217
 20
198.006863
  9
$ORTHOMODE
 70
     0
  9
$REGENMODE
 70
     1
  9
$FILLMODE
 70
     1
  9
$QTEXTMODE
 70
     0
  9
$MIRRTEXT
 70
     1
  9
$LTSCALE
 40
1.0
  9
$ATTMODE
 70
     1
  9
$TEXTSIZE
 40
0.2
  9
$TRACEWID
 40
0.05
  9
$TEXTSTYLE
  7
Standard
  9
$CLAYER
  8
0
  9
$CELTYPE
  6
Continuous
  9
$CECOLOR
 62
   256
  9
$CELTSCALE
 40
1.0
  9
$DISPSILH
 70
     0
  9
$DIMSCALE
 40
1.0
  9
$DIMASZ
 40
0.18
  9
$DIMEXO
 40
0.0625
  9
$DIMDLI
 40
0.38
  9
$DIMRND
 40
0.0
  9
$DIMDLE
 40
0.0
  9
$DIMEXE
 40
0.18
  9
$DIMTP
 40
0.0
  9
$DIMTM
 40
0.0
  9
$DIMTXT
 40
0.18
  9
$DIMCEN
 40
0.09
  9
$DIMTSZ
 40
0.0
  9
$DIMTOL
 70
     0
  9
$DIMLIM
 70
     0
  9
$DIMTIH
 70
     1
  9
$DIMTOH
 70
     1
  9
$DIMSE1
 70
     0
  9
$DIMSE2
 70
     0
  9
$DIMTAD
 70
     0
  9
$DIMZIN
 70
     0
  9
$DIMBLK
  1

  9
$DIMASO
 70
     1
  9
$DIMSHO
 70
     1
  9
$DIMPOST
  1

  9
$DIMAPOST
  1

  9
$DIMALT
 70
     0
  9
$DIMALTD
 70
     2
  9
$DIMALTF
 40
25.4
  9
$DIMLFAC
 40
1.0
  9
$DIMTOFL
 70
     0
  9
$DIMTVP
 40
0.0
  9
$DIMTIX
 70
     0
  9
$DIMSOXD
 70
     0
  9
$DIMSAH
 70
     0
  9
$DIMBLK1
  1

  9
$DIMBLK2
  1

  9
$DIMSTYLE
  2
Standard
  9
$DIMCLRD
 70
     0
  9
$DIMCLRE
 70
     0
  9
$DIMCLRT
 70
     0
  9
$DIMTFAC
 40
1.0
  9
$DIMGAP
 40
0.09
  9
$DIMJUST
 70
     0
  9
$DIMSD1
 70
     0
  9
$DIMSD2
 70
     0
  9
$DIMTOLJ
 70
     1
  9
$DIMTZIN
 70
     0
  9
$DIMALTZ
 70
     0
  9
$DIMALTTZ
 70
     0
  9
$DIMUPT
 70
     0
  9
$DIMDEC
 70
     4
  9
$DIMTDEC
 70
     4
  9
$DIMALTU
 70
     2
  9
$DIMALTTD
 70
     2
  9
$DIMTXSTY
  7
Standard
  9
$DIMAUNIT
 70
     0
  9
$DIMADEC
 70
     0
  9
$DIMALTRND
 40
0.0
  9
$DIMAZIN
 70
     0
  9
$DIMDSEP
 70
     0
  9
$DIMATFIT
 70
     3
  9
$DIMFRAC
 70
     0
  9
$DIMLDRBLK
  1

  9
$DIMLUNIT
 70
     2
  9
$DIMLWD
 70
     0
  9
$DIMLWE
 70
     0
  9
$DIMTMOVE
 70
     0
  9
$LUNITS
 70
     2
  9
$LUPREC
 70
     4
  9
$SKETCHINC
 40
0.1
  9
$FILLETRAD
 40
0.0
  9
$AUNITS
 70
     0
  9
$AUPREC
 70
     0
  9
$MENU
  1
acad
  9
$ELEVATION
 40
0.0
  9
$PELEVATION
 40
0.0
  9
$THICKNESS
 40
0.0
  9
$LIMCHECK
 70
     0
  9
$CHAMFERA
 40
0.0
  9
$CHAMFERB
 40
0.0
  9
$CHAMFERC
 40
0.0
  9
$CHAMFERD
 40
0.0
  9
$SKPOLY
 70
     0
  9
$TDCREATE
 40
0.000000000
  9
$TDUCREATE
 40
0.000000000
  9
$TDUPDATE
 40
0.000000000
  9
$TDUUPDATE
 40
0.000000000
  9
$TDINDWG
 40
0.0000000000
  9
$TDUSRTIMER
 40
0.0000000000
  9
$USRTIMER
 70
     1
  9
$ANGBASE
 50
0.0
  9
$ANGDIR
 70
     0
  9
$PDMODE
 70
     0
  9
$PDSIZE
 40
0.0
  9
$PLINEWID
 40
0.0
  9
$SPLFRAME
 70
     0
  9
$SPLINETYPE
 70
     6
  9
$SPLINESEGS
 70
     8
  9
$HANDSEED
  5
CF
  9
$SURFTAB1
 70
     6
  9
$SURFTAB2
 70
     6
  9
$SURFTYPE
 70
     6
  9
$SURFU
 70
     6
  9
$SURFV
 70
     6
  9
$UCSBASE
  2

  9
$UCSNAME
  2

  9
$UCSORG
 10
0.0
 20
0.0
 30
0.0
  9
$UCSXDIR
 10
1.0
 20
0.0
 30
0.0
  9
$UCSYDIR
 10
0.0
 20
1.0
 30
0.0
  9
$UCSORTHOREF
  2

  9
$UCSORTHOVIEW
 70
     0
  9
$UCSORGTOP
 10
0.0
 20
0.0
 30
0.0
  9
$UCSORGBOTTOM
 10
0.0
 20
0.0
 30
0.0
  9
$UCSORGLEFT
 10
0.0
 20
0.0
 30
0.0
  9
$UCSORGRIGHT
 10
0.0
 20
0.0
 30
0.0
  9
$UCSORGFRONT
 10
0.0
 20
0.0
 30
0.0
  9
$UCSORGBACK
 10
0.0
 20
0.0
 30
0.0
  9
$PUCSBASE
  2

  9
$PUCSNAME
  2

  9
$PUCSORG
 10
0.0
 20
0.0
 30
0.0
  9
$PUCSXDIR
 10
1.0
 20
0.0
 30
0.0
  9
$PUCSYDIR
 10
0.0
 20
1.0
 30
0.0
  9
$PUCSORTHOREF
  2

  9
$PUCSORTHOVIEW
 70
     0
  9
$PUCSORGTOP
 10
0.0
 20
0.0
 30
0.0
  9
$PUCSORGBOTTOM
 10
0.0
 20
0.0
 30
0.0
  9
$PUCSORGLEFT
 10
0.0
 20
0.0
 30
0.0
  9
$PUCSORGRIGHT
 10
0.0
 20
0.0
 30
0.0
  9
$PUCSORGFRONT
 10
0.0
 20
0.0
 30
0.0
  9
$PUCSORGBACK
 10
0.0
 20
0.0
 30
0.0
  9
$USERI1
 70
     0
  9
$USERI2
 70
     0
  9
$USERI3
 70
     0
  9
$USERI4
 70
     0
  9
$USERI5
 70
     0
  9
$USERR1
 40
0.0
  9
$USERR2
 40
0.0
  9
$USERR3
 40
0.0
  9
$USERR4
 40
0.0
  9
$USERR5
 40
0.0
  9
$WORLDVIEW
 70
     1
  9
$SHADEDGE
 70
     3
  9
$SHADEDIF
 70
    70
  9
$TILEMODE
 70
     1
  9
$MAXACTVP
 70
    16
  9
$PINSBASE
 10
0.0
 20
0.0
 30
0.0
  9
$PLIMCHECK
 70
     0
  9
$PEXTMIN
 10
1.000000E+20
 20
1.000000E+20
 30
1.000000E+20
  9
$PEXTMAX
 10
-1.000000E+20
 20
-1.000000E+20
 30
-1.000000E+20
  9
$PLIMMIN
 10
0.0
 20
0.0
  9
$PLIMMAX
 10
12.0
 20
9.0
  9
$UNITMODE
 70
     0
  9
$VISRETAIN
 70
     0
  9
$PLINEGEN
 70
     1
  9
$PSLTSCALE
 70
     0
  9
$TREEDEPTH
 70
  3020
  9
$CMLSTYLE
  2
Standard
  9
$CMLJUST
 70
     0
  9
$CMLSCALE
 40
1.0
  9
$PROXYGRAPHICS
 70
     0
  9
$MEASUREMENT
 70
     1
  9
$CELWEIGHT
370
     0
  9
$ENDCAPS
280
     0
  9
$JOINSTYLE
280
     0
  9
$LWDISPLAY
290
     0
  9
$INSUNITS
 70
     0
  9
$HYPERLINKBASE
  1

  9
$STYLESHEET
  1

  9
$XEDIT
290
     1
  9
$CEPSNTYPE
380
     0
  9
$PSTYLEMODE
290
     1
  9
$FINGERPRINTGUID
  2

  9
$VERSIONGUID
  2

  9
$EXTNAMES
290
     1
  9
$PSVPSCALE
 40
0.0
  0
ENDSEC
  0
SECTION
  2
CLASSES
  0
CLASS
  1
LWPOLYLINE
  2
AcDbPolyline
  3
AutoCAD 2000
 90
    32768
280
     0
281
     1
  0
CLASS
  1
IMAGE
  2
AcDbRasterImage
  3
ISM
 90
    32895
280
     0
281
     1
  0
CLASS
  1
OLE2FRAME
  2
AcDbOle2Frame
  3
AutoCAD 2000
 90
    32768
280
     0
281
     1
  0
CLASS
  1
HATCH
  2
AcDbHatch
  3
AutoCAD 2000
 90
    32768
280
     0
281
     1
  0
CLASS
  1
DICTIONARYVAR
  2
AcDbDictionaryVar
  3
AutoCAD 2000
 90
    32768
280
     0
281
     0
  0
CLASS
  1
RASTERVARIABLES
  2
AcDbRasterVariables
  3
ISM
 90
    32768
280
     0
281
     0
  0
CLASS
  1
IMAGEDEF
  2
AcDbRasterImageDef
  3
ISM
 90
    32768
280
     0
281
     0
  0
CLASS
  1
IMAGEDEF_REACTOR
  2
AcDbRasterImageDefReactor
  3
ISM
 90
    32769
280
     0
281
     0
  0
CLASS
  1
IDBUFFER
  2
AcDbIdBuffer
  3
AutoCAD 2000
 90
    32768
280
     0
281
     0
  0
CLASS
  1
SPATIAL_FILTER
  2
AcDbSpatialFilter
  3
AutoCAD 2000
 90
    32768
280
     0
281
     0
  0
CLASS
  1
XRECORD
  2
AcDbXrecord
  3
AutoCAD 2000
 90
    32768
280
     0
281
     0
  0
CLASS
  1
SORTENTSTABLE
  2
AcDbSortentsTable
  3
AutoCAD 2000
 90
    32768
280
     0
281
     0
  0
CLASS
  1
LAYER_INDEX
  2
AcDbLayerIndex
  3
AutoCAD 2000
 90
    32768
280
     0
281
     0
  0
CLASS
  1
SPATIAL_INDEX
  2
AcDbSpatialIndex
  3
AutoCAD 2000
 90
    32768
280
     0
281
     0
  0
CLASS
  1
OBJECT_PTR
  2
CAseDLPNTableRecord
  3
"ASE-LPNTableRecord"
 90
    32769
280
     0
281
     0
  0
CLASS
  1
LAYOUT
  2
AcDbLayout
  3
AutoCAD 2000
 90
        0
280
     0
281
     0
  0
CLASS
  1
PLOTSETTINGS
  2
AcDbPlotSettings
  3
AutoCAD 2000
 90
    32768
280
     0
281
     0
  0
CLASS
  1
ACDBDICTIONARYWDFLT
  2
AcDbDictionaryWithDefault
  3
AutoCAD 2000
 90
        0
280
     0
281
     0
  0
CLASS
  1
ACDBPLACEHOLDER
  2
AcDbPlaceHolder
  3
AutoCAD 2000
 90
        0
280
     0
281
     0
  0
CLASS
  1
VBA_PROJECT
  2
AcDbVbaProject
  3
acadvba
 90
    32768
280
     0
281
     0
  0
CLASS
  1
WIPEOUT
  2
AcDbWipeout
  3
WipeOut|AutoCAD Express Tool|expresstools@autodesk.com
 90
    32895
280
     0
281
     1
  0
CLASS
  1
WIPEOUTVARIABLES
  2
AcDbWipeoutVariables
  3
WipeOut|AutoCAD Express Tool|expresstools@autodesk.com
 90
        0
280
     0
281
     0
  0
CLASS
  1
RTEXT
  2
RText
  3
RText|AutoCAD Express Tool|expresstools@autodesk.com
 90
    32768
280
     0
281
     1
  0
CLASS
  1
ARCALIGNEDTEXT
  2
AcDbArcAlignedText
  3
ATEXT|AutoCAD Express Tool|expresstools@autodesk.com
 90
    32768
280
     0
281
     1
  0
ENDSEC
  0
SECTION
  2
TABLES
  0
TABLE
  2
VPORT
  5
7
100
AcDbSymbolTable
 70
     1
  0
VPORT
  5
15
100
AcDbSymbolTableRecord
100
AcDbViewportTableRecord
  2
*ACTIVE
 70
     0
 10
0.0
 20
0.0
 11
1.0
 21
1.0
 12
6.591288
 22
4.579184
 13
0.0
 23
0.0
 14
1.0
 24
1.0
 15
0.0
 25
0.0
 16
0.0
 26
0.0
 36
1.0
 17
0.0
 27
0.0
 37
0.0
 40
9.158369
 41
0.688564
 42
50.0
 43
0.0
 44
0.0
 50
0.0
 51
0.0
 71
     0
 72
   100
 73
     1
 74
     1
 75
     0
 76
     0
 77
     0
 78
     0
281
     0
 65
     0
110
0.0
120
0.0
130
0.0
111
1.0
121
0.0
131
0.0
112
0.0
122
1.0
132
0.0
345
0
346
0
 79
     0
146
0.0
  0
ENDTAB
  0
TABLE
  2
LTYPE
  5
4
100
AcDbSymbolTable
 70
     3
  0
LTYPE
  5
11
100
AcDbSymbolTableRecord
100
AcDbLinetypeTableRecord
  2
ByBlock
 70
    64
  3

 72
    65
 73
     0
 40
0.0
  0
LTYPE
  5
12
100
AcDbSymbolTableRecord
100
AcDbLinetypeTableRecord
  2
ByLayer
 70
    64
  3

 72
    65
 73
     0
 40
0.0
  0
LTYPE
  5
13
100
AcDbSymbolTableRecord
100
AcDbLinetypeTableRecord
  2
Continuous
 70
    64
  3
Solid line
 72
    65
 73
     0
 40
0.0
  0
ENDTAB
  0
TABLE
  2
LAYER
  5
2
100
AcDbSymbolTable
 70
     2
  0
LAYER
  5
14
100
AcDbSymbolTableRecord
100
AcDbLayerTableRecord
  2
0
 70
     0
 62
     7
  6
Continuous
290
     1
370
    -3
390
1D
  0
LAYER
  5
28
100
AcDbSymbolTableRecord
100
AcDbLayerTableRecord
  2
CALQUE_1
 70
     0
 62
   160
  6
Continuous
290
     1
370
    -3
390
1D
  0
ENDTAB
  0
TABLE
  2
STYLE
  5
3
100
AcDbSymbolTable
 70
     5
  0
STYLE
  5
17
100
AcDbSymbolTableRecord
100
AcDbTextStyleTableRecord
  2
Standard
 70
     0
 40
0.0
 41
1.0
 50
0.0
 71
     0
 42
0.0
  3
txt
  4

  0
STYLE
  5
24
100
AcDbSymbolTableRecord
100
AcDbTextStyleTableRecord
  2
STD
 70
     0
 40
0.0
 41
1.0
 50
0.0
 71
     0
 42
0.0
  3
txt
  4

  0
STYLE
  5
25
100
AcDbSymbolTableRecord
100
AcDbTextStyleTableRecord
  2
TATESTD
 70
     4
 40
0.0
 41
1.0
 50
0.0
 71
     0
 42
0.0
  3
txt
  4

  0
STYLE
  5
26
100
AcDbSymbolTableRecord
100
AcDbTextStyleTableRecord
  2
KANJISTD
 70
     0
 40
0.0
 41
1.0
 50
0.0
 71
     0
 42
0.0
  3
txt
  4
extfont
  0
STYLE
  5
27
100
AcDbSymbolTableRecord
100
AcDbTextStyleTableRecord
  2
KANJITATE
 70
     4
 40
0.0
 41
1.0
 50
0.0
 71
     0
 42
0.0
  3
txt
  4
extfont
  0
ENDTAB
  0
TABLE
  2
VIEW
  5
5
100
AcDbSymbolTable
 70
     0
  0
ENDTAB
  0
TABLE
  2
UCS
  5
6
100
AcDbSymbolTable
 70
     0
  0
ENDTAB
  0
TABLE
  2
APPID
  5
8
100
AcDbSymbolTable
 70
     1
  0
APPID
  5
16
100
AcDbSymbolTableRecord
100
AcDbRegAppTableRecord
  2
ACAD
 70
     0
  0
ENDTAB
  0
TABLE
  2
DIMSTYLE
  5
9
100
AcDbSymbolTable
 70
     1
100
AcDbDimStyleTable
 71
     0
  0
DIMSTYLE
105
18
100
AcDbSymbolTableRecord
100
AcDbDimStyleTableRecord
  2
Standard
 70
     0
  3

  4

 40
1.0
 41
0.18
 42
0.0625
 43
0.38
 44
0.18
 45
0.0
 46
0.0
 47
0.0
 48
0.0
 71
     0
 72
     0
 73
     1
 74
     1
 75
     0
 76
     0
 77
     0
 78
     0
 79
     0
140
0.18
141
0.09
142
0.0
143
25.4
144
1.0
145
0.0
146
1.0
147
0.09
148
0.0
170
     0
171
     2
172
     0
173
     0
174
     0
175
     0
176
     0
177
     0
178
     0
179
     0
271
     4
272
     4
273
     2
274
     2
275
     0
276
     0
277
     2
278
    46
279
     0
280
     0
281
     0
282
     0
283
     1
284
     0
285
     0
286
     0
288
     0
340
17
341
0
342
0
343
0
344
0
371
    -2
372
    -2
  0
ENDTAB
  0
TABLE
  2
BLOCK_RECORD
  5
1
100
AcDbSymbolTable
 70
     0
  0
BLOCK_RECORD
  5
A
100
AcDbSymbolTableRecord
100
AcDbBlockTableRecord
  2
*MODEL_SPACE
340
20
  0
BLOCK_RECORD
  5
B
100
AcDbSymbolTableRecord
100
AcDbBlockTableRecord
  2
*PAPER_SPACE
340
21
  0
ENDTAB
  0
ENDSEC
  0
SECTION
  2
BLOCKS
  0
BLOCK
  5
D
100
AcDbEntity
  8
0
100
AcDbBlockBegin
  2
*MODEL_SPACE
 70
     0
 10
0.0
 20
0.0
 30
0.0
  3
*MODEL_SPACE
  1

  0
ENDBLK
  5
E
100
AcDbEntity
  8
0
100
AcDbBlockEnd
  0
BLOCK
  5
F
100
AcDbEntity
 67
     1
  8
0
100
AcDbBlockBegin
  2
*PAPER_SPACE
 70
     0
 10
0.0
 20
0.0
 30
0.0
  3
*PAPER_SPACE
  1

  0
ENDBLK
  5
10
100
AcDbEntity
 67
     1
  8
0
100
AcDbBlockEnd
  0
ENDSEC
  0
SECTION
  2
ENTITIES
  0
SPLINE
  5
CE
100
AcDbEntity
  8
CALQUE_1
 62
     7
100
AcDbSpline
210
0.0
220
0.0
230
1.0
 70
     8
 71
     3
 72
    29
 73
    25
 74
     0
 42
0.00000001
 43
0.00000001
 40
0.0
 40
0.0
 40
0.0
 40
0.0
 40
1.0
 40
1.0
 40
1.0
 40
2.0
 40
2.0
 40
2.0
 40
3.0
 40
3.0
 40
3.0
 40
4.0
 40
4.0
 40
4.0
 40
5.0
 40
5.0
 40
5.0
 40
6.0
 40
6.0
 40
6.0
 40
7.0
 40
7.0
 40
7.0
 40
8.0
 40
8.0
 40
8.0
 40
8.0
 10
14.999945746527777
 20
194.83048502604166
 30
0.0
 10
14.999945746527777
 20
194.27789171006944
 30
0.0
 10
14.552083333333332
 20
193.83037380642358
 30
0.0
 10
14.000179036458333
 20
193.83037380642358
 30
0.0
 10
14.000179036458333
 20
193.83037380642358
 30
0.0
 10
12.999723307291665
 20
193.83037380642358
 30
0.0
 10
12.999723307291665
 20
193.83037380642358
 30
0.0
 10
12.447819010416666
 20
193.83037380642358
 30
0.0
 10
11.999956597222221
 20
194.27789171006944
 30
0.0
 10
11.999956597222221
 20
194.83048502604166
 30
0.0
 10
11.999956597222221
 20
194.83048502604166
 30
0.0
 10
11.999956597222221
 20
196.83036295572916
 30
0.0
 10
11.999956597222221
 20
196.83036295572916
 30
0.0
 10
11.999956597222221
 20
197.38261176215275
 30
0.0
 10
12.447819010416666
 20
197.83047417534721
 30
0.0
 10
12.999723307291665
 20
197.83047417534721
 30
0.0
 10
12.999723307291665
 20
197.83047417534721
 30
0.0
 10
14.000179036458333
 20
197.83047417534721
 30
0.0
 10
14.000179036458333
 20
197.83047417534721
 30
0.0
 10
14.552083333333332
 20
197.83047417534721
 30
0.0
 10
14.999945746527777
 20
197.38261176215275
 30
0.0
 10
14.999945746527777
 20
196.83036295572916
 30
0.0
 10
14.999945746527777
 20
196.83036295572916
 30
0.0
 10
14.999945746527777
 20
194.83048502604166
 30
0.0
 10
14.999945746527777
 20
194.83048502604166
 30
0.0
  0
SPLINE
  5
CD
100
AcDbEntity
  8
CALQUE_1
 62
     7
100
AcDbSpline
210
0.0
220
0.0
230
1.0
 70
     8
 71
     3
 72
    29
 73
    25
 74
     0
 42
0.00000001
 43
0.00000001
 40
0.0
 40
0.0
 40
0.0
 40
0.0
 40
1.0
 40
1.0
 40
1.0
 40
2.0
 40
2.0
 40
2.0
 40
3.0
 40
3.0
 40
3.0
 40
4.0
 40
4.0
 40
4.0
 40
5.0
 40
5.0
 40
5.0
 40
6.0
 40
6.0
 40
6.0
 40
7.0
 40
7.0
 40
7.0
 40
8.0
 40
8.0
 40
8.0
 40
8.0
 10
26.376340060763887
 20
194.83048502604166
 30
0.0
 10
26.376340060763887
 20
194.27789171006944
 30
0.0
 10
25.928477647569441
 20
193.83037380642358
 30
0.0
 10
25.376573350694443
 20
193.83037380642358
 30
0.0
 10
25.376573350694443
 20
193.83037380642358
 30
0.0
 10
24.376117621527776
 20
193.83037380642358
 30
0.0
 10
24.376117621527776
 20
193.83037380642358
 30
0.0
 10
23.824213324652774
 20
193.83037380642358
 30
0.0
 10
23.376350911458331
 20
194.27789171006944
 30
0.0
 10
23.376350911458331
 20
194.83048502604166
 30
0.0
 10
23.376350911458331
 20
194.83048502604166
 30
0.0
 10
23.376350911458331
 20
196.83036295572916
 30
0.0
 10
23.376350911458331
 20
196.83036295572916
 30
0.0
 10
23.376350911458331
 20
197.38261176215275
 30
0.0
 10
23.824213324652774
 20
197.83047417534721
 30
0.0
 10
24.376117621527776
 20
197.83047417534721
 30
0.0
 10
24.376117621527776
 20
197.83047417534721
 30
0.0
 10
25.376573350694443
 20
197.83047417534721
 30
0.0
 10
25.376573350694443
 20
197.83047417534721
 30
0.0
 10
25.928477647569441
 20
197.83047417534721
 30
0.0
 10
26.376340060763887
 20
197.38261176215275
 30
0.0
 10
26.376340060763887
 20
196.83036295572916
 30
0.0
 10
26.376340060763887
 20
196.83036295572916
 30
0.0
 10
26.376340060763887
 20
194.83048502604166
 30
0.0
 10
26.376340060763887
 20
194.83048502604166
 30
0.0
  0
SPLINE
  5
CC
100
AcDbEntity
  8
CALQUE_1
 62
     7
100
AcDbSpline
210
0.0
220
0.0
230
1.0
 70
     8
 71
     3
 72
    29
 73
    25
 74
     0
 42
0.00000001
 43
0.00000001
 40
0.0
 40
0.0
 40
0.0
 40
0.0
 40
1.0
 40
1.0
 40
1.0
 40
2.0
 40
2.0
 40
2.0
 40
3.0
 40
3.0
 40
3.0
 40
4.0
 40
4.0
 40
4.0
 40
5.0
 40
5.0
 40
5.0
 40
6.0
 40
6.0
 40
6.0
 40
7.0
 40
7.0
 40
7.0
 40
8.0
 40
8.0
 40
8.0
 40
8.0
 10
37.752734374999996
 20
194.83048502604166
 30
0.0
 10
37.752734374999996
 20
194.27789171006944
 30
0.0
 10
37.304871961805553
 20
193.83037380642358
 30
0.0
 10
36.752967664930551
 20
193.83037380642358
 30
0.0
 10
36.752967664930551
 20
193.83037380642358
 30
0.0
 10
35.752511935763884
 20
193.83037380642358
 30
0.0
 10
35.752511935763884
 20
193.83037380642358
 30
0.0
 10
35.200607638888883
 20
193.83037380642358
 30
0.0
 10
34.75274522569444
 20
194.27789171006944
 30
0.0
 10
34.75274522569444
 20
194.83048502604166
 30
0.0
 10
34.75274522569444
 20
194.83048502604166
 30
0.0
 10
34.75274522569444
 20
196.83036295572916
 30
0.0
 10
34.75274522569444
 20
196.83036295572916
 30
0.0
 10
34.75274522569444
 20
197.38261176215275
 30
0.0
 10
35.200607638888883
 20
197.83047417534721
 30
0.0
 10
35.752511935763884
 20
197.83047417534721
 30
0.0
 10
35.752511935763884
 20
197.83047417534721
 30
0.0
 10
36.752967664930551
 20
197.83047417534721
 30
0.0
 10
36.752967664930551
 20
197.83047417534721
 30
0.0
 10
37.304871961805553
 20
197.83047417534721
 30
0.0
 10
37.752734374999996
 20
197.38261176215275
 30
0.0
 10
37.752734374999996
 20
196.83036295572916
 30
0.0
 10
37.752734374999996
 20
196.83036295572916
 30
0.0
 10
37.752734374999996
 20
194.83048502604166
 30
0.0
 10
37.752734374999996
 20
194.83048502604166
 30
0.0
  0
SPLINE
  5
CB
100
AcDbEntity
  8
CALQUE_1
 62
     7
100
AcDbSpline
210
0.0
220
0.0
230
1.0
 70
     8
 71
     3
 72
    29
 73
    25
 74
     0
 42
0.00000001
 43
0.00000001
 40
0.0
 40
0.0
 40
0.0
 40
0.0
 40
1.0
 40
1.0
 40
1.0
 40
2.0
 40
2.0
 40
2.0
 40
3.0
 40
3.0
 40
3.0
 40
4.0
 40
4.0
 40
4.0
 40
5.0
 40
5.0
 40
5.0
 40
6.0
 40
6.0
 40
6.0
 40
7.0
 40
7.0
 40
7.0
 40
8.0
 40
8.0
 40
8.0
 40
8.0
 10
49.129128689236104
 20
194.83048502604166
 30
0.0
 10
49.129128689236104
 20
194.27789171006944
 30
0.0
 10
48.681266276041661
 20
193.83037380642358
 30
0.0
 10
48.12936197916666
 20
193.83037380642358
 30
0.0
 10
48.12936197916666
 20
193.83037380642358
 30
0.0
 10
47.128906249999993
 20
193.83037380642358
 30
0.0
 10
47.128906249999993
 20
193.83037380642358
 30
0.0
 10
46.577001953124999
 20
193.83037380642358
 30
0.0
 10
46.129139539930549
 20
194.27789171006944
 30
0.0
 10
46.129139539930549
 20
194.83048502604166
 30
0.0
 10
46.129139539930549
 20
194.83048502604166
 30
0.0
 10
46.129139539930549
 20
196.83036295572916
 30
0.0
 10
46.129139539930549
 20
196.83036295572916
 30
0.0
 10
46.129139539930549
 20
197.38261176215275
 30
0.0
 10
46.577001953124999
 20
197.83047417534721
 30
0.0
 10
47.128906249999993
 20
197.83047417534721
 30
0.0
 10
47.128906249999993
 20
197.83047417534721
 30
0.0
 10
48.12936197916666
 20
197.83047417534721
 30
0.0
 10
48.12936197916666
 20
197.83047417534721
 30
0.0
 10
48.681266276041661
 20
197.83047417534721
 30
0.0
 10
49.129128689236104
 20
197.38261176215275
 30
0.0
 10
49.129128689236104
 20
196.83036295572916
 30
0.0
 10
49.129128689236104
 20
196.83036295572916
 30
0.0
 10
49.129128689236104
 20
194.83048502604166
 30
0.0
 10
49.129128689236104
 20
194.83048502604166
 30
0.0
  0
SPLINE
  5
CA
100
AcDbEntity
  8
CALQUE_1
 62
     7
100
AcDbSpline
210
0.0
220
0.0
230
1.0
 70
     8
 71
     3
 72
    29
 73
    25
 74
     0
 42
0.00000001
 43
0.00000001
 40
0.0
 40
0.0
 40
0.0
 40
0.0
 40
1.0
 40
1.0
 40
1.0
 40
2.0
 40
2.0
 40
2.0
 40
3.0
 40
3.0
 40
3.0
 40
4.0
 40
4.0
 40
4.0
 40
5.0
 40
5.0
 40
5.0
 40
6.0
 40
6.0
 40
6.0
 40
7.0
 40
7.0
 40
7.0
 40
8.0
 40
8.0
 40
8.0
 40
8.0
 10
60.50552300347222
 20
194.83048502604166
 30
0.0
 10
60.50552300347222
 20
194.27789171006944
 30
0.0
 10
60.05766059027777
 20
193.83037380642358
 30
0.0
 10
59.505756293402776
 20
193.83037380642358
 30
0.0
 10
59.505756293402776
 20
193.83037380642358
 30
0.0
 10
58.505300564236109
 20
193.83037380642358
 30
0.0
 10
58.505300564236109
 20
193.83037380642358
 30
0.0
 10
57.953396267361107
 20
193.83037380642358
 30
0.0
 10
57.505533854166664
 20
194.27789171006944
 30
0.0
 10
57.505533854166664
 20
194.83048502604166
 30
0.0
 10
57.505533854166664
 20
194.83048502604166
 30
0.0
 10
57.505533854166664
 20
196.83036295572916
 30
0.0
 10
57.505533854166664
 20
196.83036295572916
 30
0.0
 10
57.505533854166664
 20
197.38261176215275
 30
0.0
 10
57.953396267361107
 20
197.83047417534721
 30
0.0
 10
58.505300564236109
 20
197.83047417534721
 30
0.0
 10
58.505300564236109
 20
197.83047417534721
 30
0.0
 10
59.505756293402776
 20
197.83047417534721
 30
0.0
 10
59.505756293402776
 20
197.83047417534721
 30
0.0
 10
60.05766059027777
 20
197.83047417534721
 30
0.0
 10
60.50552300347222
 20
197.38261176215275
 30
0.0
 10
60.50552300347222
 20
196.83036295572916
 30
0.0
 10
60.50552300347222
 20
196.83036295572916
 30
0.0
 10
60.50552300347222
 20
194.83048502604166
 30
0.0
 10
60.50552300347222
 20
194.83048502604166
 30
0.0
  0
SPLINE
  5
C9
100
AcDbEntity
  8
CALQUE_1
 62
     7
100
AcDbSpline
210
0.0
220
0.0
230
1.0
 70
     8
 71
     3
 72
    29
 73
    25
 74
     0
 42
0.00000001
 43
0.00000001
 40
0.0
 40
0.0
 40
0.0
 40
0.0
 40
1.0
 40
1.0
 40
1.0
 40
2.0
 40
2.0
 40
2.0
 40
3.0
 40
3.0
 40
3.0
 40
4.0
 40
4.0
 40
4.0
 40
5.0
 40
5.0
 40
5.0
 40
6.0
 40
6.0
 40
6.0
 40
7.0
 40
7.0
 40
7.0
 40
8.0
 40
8.0
 40
8.0
 40
8.0
 10
71.881917317708329
 20
194.83048502604166
 30
0.0
 10
71.881917317708329
 20
194.27789171006944
 30
0.0
 10
71.434054904513886
 20
193.83037380642358
 30
0.0
 10
70.882150607638877
 20
193.83037380642358
 30
0.0
 10
70.882150607638877
 20
193.83037380642358
 30
0.0
 10
69.881694878472217
 20
193.83037380642358
 30
0.0
 10
69.881694878472217
 20
193.83037380642358
 30
0.0
 10
69.329790581597223
 20
193.83037380642358
 30
0.0
 10
68.881928168402766
 20
194.27789171006944
 30
0.0
 10
68.881928168402766
 20
194.83048502604166
 30
0.0
 10
68.881928168402766
 20
194.83048502604166
 30
0.0
 10
68.881928168402766
 20
196.83036295572916
 30
0.0
 10
68.881928168402766
 20
196.83036295572916
 30
0.0
 10
68.881928168402766
 20
197.38261176215275
 30
0.0
 10
69.329790581597223
 20
197.83047417534721
 30
0.0
 10
69.881694878472217
 20
197.83047417534721
 30
0.0
 10
69.881694878472217
 20
197.83047417534721
 30
0.0
 10
70.882150607638877
 20
197.83047417534721
 30
0.0
 10
70.882150607638877
 20
197.83047417534721
 30
0.0
 10
71.434054904513886
 20
197.83047417534721
 30
0.0
 10
71.881917317708329
 20
197.38261176215275
 30
0.0
 10
71.881917317708329
 20
196.83036295572916
 30
0.0
 10
71.881917317708329
 20
196.83036295572916
 30
0.0
 10
71.881917317708329
 20
194.83048502604166
 30
0.0
 10
71.881917317708329
 20
194.83048502604166
 30
0.0
  0
SPLINE
  5
C8
100
AcDbEntity
  8
CALQUE_1
 62
     7
100
AcDbSpline
210
0.0
220
0.0
230
1.0
 70
     8
 71
     3
 72
    29
 73
    25
 74
     0
 42
0.00000001
 43
0.00000001
 40
0.0
 40
0.0
 40
0.0
 40
0.0
 40
1.0
 40
1.0
 40
1.0
 40
2.0
 40
2.0
 40
2.0
 40
3.0
 40
3.0
 40
3.0
 40
4.0
 40
4.0
 40
4.0
 40
5.0
 40
5.0
 40
5.0
 40
6.0
 40
6.0
 40
6.0
 40
7.0
 40
7.0
 40
7.0
 40
8.0
 40
8.0
 40
8.0
 40
8.0
 10
83.258311631944437
 20
194.83048502604166
 30
0.0
 10
83.258311631944437
 20
194.27789171006944
 30
0.0
 10
82.810449218749994
 20
193.83037380642358
 30
0.0
 10
82.258544921874986
 20
193.83037380642358
 30
0.0
 10
82.258544921874986
 20
193.83037380642358
 30
0.0
 10
81.258089192708326
 20
193.83037380642358
 30
0.0
 10
81.258089192708326
 20
193.83037380642358
 30
0.0
 10
80.706184895833331
 20
193.83037380642358
 30
0.0
 10
80.258322482638889
 20
194.27789171006944
 30
0.0
 10
80.258322482638889
 20
194.83048502604166
 30
0.0
 10
80.258322482638889
 20
194.83048502604166
 30
0.0
 10
80.258322482638889
 20
196.83036295572916
 30
0.0
 10
80.258322482638889
 20
196.83036295572916
 30
0.0
 10
80.258322482638889
 20
197.38261176215275
 30
0.0
 10
80.706184895833331
 20
197.83047417534721
 30
0.0
 10
81.258089192708326
 20
197.83047417534721
 30
0.0
 10
81.258089192708326
 20
197.83047417534721
 30
0.0
 10
82.258544921874986
 20
197.83047417534721
 30
0.0
 10
82.258544921874986
 20
197.83047417534721
 30
0.0
 10
82.810449218749994
 20
197.83047417534721
 30
0.0
 10
83.258311631944437
 20
197.38261176215275
 30
0.0
 10
83.258311631944437
 20
196.83036295572916
 30
0.0
 10
83.258311631944437
 20
196.83036295572916
 30
0.0
 10
83.258311631944437
 20
194.83048502604166
 30
0.0
 10
83.258311631944437
 20
194.83048502604166
 30
0.0
  0
SPLINE
  5
C7
100
AcDbEntity
  8
CALQUE_1
 62
     7
100
AcDbSpline
210
0.0
220
0.0
230
1.0
 70
     8
 71
     3
 72
    29
 73
    25
 74
     0
 42
0.00000001
 43
0.00000001
 40
0.0
 40
0.0
 40
0.0
 40
0.0
 40
1.0
 40
1.0
 40
1.0
 40
2.0
 40
2.0
 40
2.0
 40
3.0
 40
3.0
 40
3.0
 40
4.0
 40
4.0
 40
4.0
 40
5.0
 40
5.0
 40
5.0
 40
6.0
 40
6.0
 40
6.0
 40
7.0
 40
7.0
 40
7.0
 40
8.0
 40
8.0
 40
8.0
 40
8.0
 10
94.634705946180546
 20
194.83048502604166
 30
0.0
 10
94.634705946180546
 20
194.27789171006944
 30
0.0
 10
94.186843532986103
 20
193.83037380642358
 30
0.0
 10
93.634939236111109
 20
193.83037380642358
 30
0.0
 10
93.634939236111109
 20
193.83037380642358
 30
0.0
 10
92.634483506944434
 20
193.83037380642358
 30
0.0
 10
92.634483506944434
 20
193.83037380642358
 30
0.0
 10
92.08257921006944
 20
193.83037380642358
 30
0.0
 10
91.634716796874997
 20
194.27789171006944
 30
0.0
 10
91.634716796874997
 20
194.83048502604166
 30
0.0
 10
91.634716796874997
 20
194.83048502604166
 30
0.0
 10
91.634716796874997
 20
196.83036295572916
 30
0.0
 10
91.634716796874997
 20
196.83036295572916
 30
0.0
 10
91.634716796874997
 20
197.38261176215275
 30
0.0
 10
92.08257921006944
 20
197.83047417534721
 30
0.0
 10
92.634483506944434
 20
197.83047417534721
 30
0.0
 10
92.634483506944434
 20
197.83047417534721
 30
0.0
 10
93.634939236111109
 20
197.83047417534721
 30
0.0
 10
93.634939236111109
 20
197.83047417534721
 30
0.0
 10
94.186843532986103
 20
197.83047417534721
 30
0.0
 10
94.634705946180546
 20
197.38261176215275
 30
0.0
 10
94.634705946180546
 20
196.83036295572916
 30
0.0
 10
94.634705946180546
 20
196.83036295572916
 30
0.0
 10
94.634705946180546
 20
194.83048502604166
 30
0.0
 10
94.634705946180546
 20
194.83048502604166
 30
0.0
  0
SPLINE
  5
C6
100
AcDbEntity
  8
CALQUE_1
 62
     7
100
AcDbSpline
210
0.0
220
0.0
230
1.0
 70
     8
 71
     3
 72
    29
 73
    25
 74
     0
 42
0.00000001
 43
0.00000001
 40
0.0
 40
0.0
 40
0.0
 40
0.0
 40
1.0
 40
1.0
 40
1.0
 40
2.0
 40
2.0
 40
2.0
 40
3.0
 40
3.0
 40
3.0
 40
4.0
 40
4.0
 40
4.0
 40
5.0
 40
5.0
 40
5.0
 40
6.0
 40
6.0
 40
6.0
 40
7.0
 40
7.0
 40
7.0
 40
8.0
 40
8.0
 40
8.0
 40
8.0
 10
106.01110026041665
 20
194.83048502604166
 30
0.0
 10
106.01110026041665
 20
194.27789171006944
 30
0.0
 10
105.56323784722221
 20
193.83037380642358
 30
0.0
 10
105.01133355034722
 20
193.83037380642358
 30
0.0
 10
105.01133355034722
 20
193.83037380642358
 30
0.0
 10
104.01087782118054
 20
193.83037380642358
 30
0.0
 10
104.01087782118054
 20
193.83037380642358
 30
0.0
 10
103.45897352430555
 20
193.83037380642358
 30
0.0
 10
103.01111111111111
 20
194.27789171006944
 30
0.0
 10
103.01111111111111
 20
194.83048502604166
 30
0.0
 10
103.01111111111111
 20
194.83048502604166
 30
0.0
 10
103.01111111111111
 20
196.83036295572916
 30
0.0
 10
103.01111111111111
 20
196.83036295572916
 30
0.0
 10
103.01111111111111
 20
197.38261176215275
 30
0.0
 10
103.45897352430555
 20
197.83047417534721
 30
0.0
 10
104.01087782118054
 20
197.83047417534721
 30
0.0
 10
104.01087782118054
 20
197.83047417534721
 30
0.0
 10
105.01133355034722
 20
197.83047417534721
 30
0.0
 10
105.01133355034722
 20
197.83047417534721
 30
0.0
 10
105.56323784722221
 20
197.83047417534721
 30
0.0
 10
106.01110026041665
 20
197.38261176215275
 30
0.0
 10
106.01110026041665
 20
196.83036295572916
 30
0.0
 10
106.01110026041665
 20
196.83036295572916
 30
0.0
 10
106.01110026041665
 20
194.83048502604166
 30
0.0
 10
106.01110026041665
 20
194.83048502604166
 30
0.0
  0
SPLINE
  5
C5
100
AcDbEntity
  8
CALQUE_1
 62
     7
100
AcDbSpline
210
0.0
220
0.0
230
1.0
 70
     8
 71
     3
 72
    29
 73
    25
 74
     0
 42
0.00000001
 43
0.00000001
 40
0.0
 40
0.0
 40
0.0
 40
0.0
 40
1.0
 40
1.0
 40
1.0
 40
2.0
 40
2.0
 40
2.0
 40
3.0
 40
3.0
 40
3.0
 40
4.0
 40
4.0
 40
4.0
 40
5.0
 40
5.0
 40
5.0
 40
6.0
 40
6.0
 40
6.0
 40
7.0
 40
7.0
 40
7.0
 40
8.0
 40
8.0
 40
8.0
 40
8.0
 10
117.38749457465276
 20
194.83048502604166
 30
0.0
 10
117.38749457465276
 20
194.27789171006944
 30
0.0
 10
116.93963216145832
 20
193.83037380642358
 30
0.0
 10
116.38772786458333
 20
193.83037380642358
 30
0.0
 10
116.38772786458333
 20
193.83037380642358
 30
0.0
 10
115.38727213541665
 20
193.83037380642358
 30
0.0
 10
115.38727213541665
 20
193.83037380642358
 30
0.0
 10
114.83536783854166
 20
193.83037380642358
 30
0.0
 10
114.38750542534721
 20
194.27789171006944
 30
0.0
 10
114.38750542534721
 20
194.83048502604166
 30
0.0
 10
114.38750542534721
 20
194.83048502604166
 30
0.0
 10
114.38750542534721
 20
196.83036295572916
 30
0.0
 10
114.38750542534721
 20
196.83036295572916
 30
0.0
 10
114.38750542534721
 20
197.38261176215275
 30
0.0
 10
114.83536783854166
 20
197.83047417534721
 30
0.0
 10
115.38727213541665
 20
197.83047417534721
 30
0.0
 10
115.38727213541665
 20
197.83047417534721
 30
0.0
 10
116.38772786458333
 20
197.83047417534721
 30
0.0
 10
116.38772786458333
 20
197.83047417534721
 30
0.0
 10
116.93963216145832
 20
197.83047417534721
 30
0.0
 10
117.38749457465276
 20
197.38261176215275
 30
0.0
 10
117.38749457465276
 20
196.83036295572916
 30
0.0
 10
117.38749457465276
 20
196.83036295572916
 30
0.0
 10
117.38749457465276
 20
194.83048502604166
 30
0.0
 10
117.38749457465276
 20
194.83048502604166
 30
0.0
  0
SPLINE
  5
C4
100
AcDbEntity
  8
CALQUE_1
 62
     7
100
AcDbSpline
210
0.0
220
0.0
230
1.0
 70
     8
 71
     3
 72
    29
 73
    25
 74
     0
 42
0.00000001
 43
0.00000001
 40
0.0
 40
0.0
 40
0.0
 40
0.0
 40
1.0
 40
1.0
 40
1.0
 40
2.0
 40
2.0
 40
2.0
 40
3.0
 40
3.0
 40
3.0
 40
4.0
 40
4.0
 40
4.0
 40
5.0
 40
5.0
 40
5.0
 40
6.0
 40
6.0
 40
6.0
 40
7.0
 40
7.0
 40
7.0
 40
8.0
 40
8.0
 40
8.0
 40
8.0
 10
128.76388888888889
 20
194.83048502604166
 30
0.0
 10
128.76388888888889
 20
194.27789171006944
 30
0.0
 10
128.31602647569443
 20
193.83037380642358
 30
0.0
 10
127.76412217881943
 20
193.83037380642358
 30
0.0
 10
127.76412217881943
 20
193.83037380642358
 30
0.0
 10
126.76366644965276
 20
193.83037380642358
 30
0.0
 10
126.76366644965276
 20
193.83037380642358
 30
0.0
 10
126.21176215277777
 20
193.83037380642358
 30
0.0
 10
125.76389973958332
 20
194.27789171006944
 30
0.0
 10
125.76389973958332
 20
194.83048502604166
 30
0.0
 10
125.76389973958332
 20
194.83048502604166
 30
0.0
 10
125.76389973958332
 20
196.83036295572916
 30
0.0
 10
125.76389973958332
 20
196.83036295572916
 30
0.0
 10
125.76389973958332
 20
197.38261176215275
 30
0.0
 10
126.21176215277777
 20
197.83047417534721
 30
0.0
 10
126.76366644965276
 20
197.83047417534721
 30
0.0
 10
126.76366644965276
 20
197.83047417534721
 30
0.0
 10
127.76412217881943
 20
197.83047417534721
 30
0.0
 10
127.76412217881943
 20
197.83047417534721
 30
0.0
 10
128.31602647569443
 20
197.83047417534721
 30
0.0
 10
128.76388888888889
 20
197.38261176215275
 30
0.0
 10
128.76388888888889
 20
196.83036295572916
 30
0.0
 10
128.76388888888889
 20
196.83036295572916
 30
0.0
 10
128.76388888888889
 20
194.83048502604166
 30
0.0
 10
128.76388888888889
 20
194.83048502604166
 30
0.0
  0
SPLINE
  5
C3
100
AcDbEntity
  8
CALQUE_1
 62
     7
100
AcDbSpline
210
0.0
220
0.0
230
1.0
 70
     8
 71
     3
 72
    29
 73
    25
 74
     0
 42
0.00000001
 43
0.00000001
 40
0.0
 40
0.0
 40
0.0
 40
0.0
 40
1.0
 40
1.0
 40
1.0
 40
2.0
 40
2.0
 40
2.0
 40
3.0
 40
3.0
 40
3.0
 40
4.0
 40
4.0
 40
4.0
 40
5.0
 40
5.0
 40
5.0
 40
6.0
 40
6.0
 40
6.0
 40
7.0
 40
7.0
 40
7.0
 40
8.0
 40
8.0
 40
8.0
 40
8.0
 10
140.14028320312499
 20
194.83048502604166
 30
0.0
 10
140.14028320312499
 20
194.27789171006944
 30
0.0
 10
139.69242078993054
 20
193.83037380642358
 30
0.0
 10
139.14051649305554
 20
193.83037380642358
 30
0.0
 10
139.14051649305554
 20
193.83037380642358
 30
0.0
 10
138.14006076388887
 20
193.83037380642358
 30
0.0
 10
138.14006076388887
 20
193.83037380642358
 30
0.0
 10
137.58815646701387
 20
193.83037380642358
 30
0.0
 10
137.14029405381945
 20
194.27789171006944
 30
0.0
 10
137.14029405381945
 20
194.83048502604166
 30
0.0
 10
137.14029405381945
 20
194.83048502604166
 30
0.0
 10
137.14029405381945
 20
196.83036295572916
 30
0.0
 10
137.14029405381945
 20
196.83036295572916
 30
0.0
 10
137.14029405381945
 20
197.38261176215275
 30
0.0
 10
137.58815646701387
 20
197.83047417534721
 30
0.0
 10
138.14006076388887
 20
197.83047417534721
 30
0.0
 10
138.14006076388887
 20
197.83047417534721
 30
0.0
 10
139.14051649305554
 20
197.83047417534721
 30
0.0
 10
139.14051649305554
 20
197.83047417534721
 30
0.0
 10
139.69242078993054
 20
197.83047417534721
 30
0.0
 10
140.14028320312499
 20
197.38261176215275
 30
0.0
 10
140.14028320312499
 20
196.83036295572916
 30
0.0
 10
140.14028320312499
 20
196.83036295572916
 30
0.0
 10
140.14028320312499
 20
194.83048502604166
 30
0.0
 10
140.14028320312499
 20
194.83048502604166
 30
0.0
  0
SPLINE
  5
C2
100
AcDbEntity
  8
CALQUE_1
 62
     7
100
AcDbSpline
210
0.0
220
0.0
230
1.0
 70
     8
 71
     3
 72
    29
 73
    25
 74
     0
 42
0.00000001
 43
0.00000001
 40
0.0
 40
0.0
 40
0.0
 40
0.0
 40
1.0
 40
1.0
 40
1.0
 40
2.0
 40
2.0
 40
2.0
 40
3.0
 40
3.0
 40
3.0
 40
4.0
 40
4.0
 40
4.0
 40
5.0
 40
5.0
 40
5.0
 40
6.0
 40
6.0
 40
6.0
 40
7.0
 40
7.0
 40
7.0
 40
8.0
 40
8.0
 40
8.0
 40
8.0
 10
151.5166775173611
 20
194.83048502604166
 30
0.0
 10
151.5166775173611
 20
194.27789171006944
 30
0.0
 10
151.06881510416665
 20
193.83037380642358
 30
0.0
 10
150.51691080729165
 20
193.83037380642358
 30
0.0
 10
150.51691080729165
 20
193.83037380642358
 30
0.0
 10
149.51645507812498
 20
193.83037380642358
 30
0.0
 10
149.51645507812498
 20
193.83037380642358
 30
0.0
 10
148.96455078124998
 20
193.83037380642358
 30
0.0
 10
148.51668836805555
 20
194.27789171006944
 30
0.0
 10
148.51668836805555
 20
194.83048502604166
 30
0.0
 10
148.51668836805555
 20
194.83048502604166
 30
0.0
 10
148.51668836805555
 20
196.83036295572916
 30
0.0
 10
148.51668836805555
 20
196.83036295572916
 30
0.0
 10
148.51668836805555
 20
197.38261176215275
 30
0.0
 10
148.96455078124998
 20
197.83047417534721
 30
0.0
 10
149.51645507812498
 20
197.83047417534721
 30
0.0
 10
149.51645507812498
 20
197.83047417534721
 30
0.0
 10
150.51691080729165
 20
197.83047417534721
 30
0.0
 10
150.51691080729165
 20
197.83047417534721
 30
0.0
 10
151.06881510416665
 20
197.83047417534721
 30
0.0
 10
151.5166775173611
 20
197.38261176215275
 30
0.0
 10
151.5166775173611
 20
196.83036295572916
 30
0.0
 10
151.5166775173611
 20
196.83036295572916
 30
0.0
 10
151.5166775173611
 20
194.83048502604166
 30
0.0
 10
151.5166775173611
 20
194.83048502604166
 30
0.0
  0
SPLINE
  5
C1
100
AcDbEntity
  8
CALQUE_1
 62
     7
100
AcDbSpline
210
0.0
220
0.0
230
1.0
 70
     8
 71
     3
 72
    29
 73
    25
 74
     0
 42
0.00000001
 43
0.00000001
 40
0.0
 40
0.0
 40
0.0
 40
0.0
 40
1.0
 40
1.0
 40
1.0
 40
2.0
 40
2.0
 40
2.0
 40
3.0
 40
3.0
 40
3.0
 40
4.0
 40
4.0
 40
4.0
 40
5.0
 40
5.0
 40
5.0
 40
6.0
 40
6.0
 40
6.0
 40
7.0
 40
7.0
 40
7.0
 40
8.0
 40
8.0
 40
8.0
 40
8.0
 10
162.89307183159721
 20
194.83048502604166
 30
0.0
 10
162.89307183159721
 20
194.27789171006944
 30
0.0
 10
162.44520941840275
 20
193.83037380642358
 30
0.0
 10
161.89330512152776
 20
193.83037380642358
 30
0.0
 10
161.89330512152776
 20
193.83037380642358
 30
0.0
 10
160.89284939236109
 20
193.83037380642358
 30
0.0
 10
160.89284939236109
 20
193.83037380642358
 30
0.0
 10
160.34094509548609
 20
193.83037380642358
 30
0.0
 10
159.89308268229166
 20
194.27789171006944
 30
0.0
 10
159.89308268229166
 20
194.83048502604166
 30
0.0
 10
159.89308268229166
 20
194.83048502604166
 30
0.0
 10
159.89308268229166
 20
196.83036295572916
 30
0.0
 10
159.89308268229166
 20
196.83036295572916
 30
0.0
 10
159.89308268229166
 20
197.38261176215275
 30
0.0
 10
160.34094509548609
 20
197.83047417534721
 30
0.0
 10
160.89284939236109
 20
197.83047417534721
 30
0.0
 10
160.89284939236109
 20
197.83047417534721
 30
0.0
 10
161.89330512152776
 20
197.83047417534721
 30
0.0
 10
161.89330512152776
 20
197.83047417534721
 30
0.0
 10
162.44520941840275
 20
197.83047417534721
 30
0.0
 10
162.89307183159721
 20
197.38261176215275
 30
0.0
 10
162.89307183159721
 20
196.83036295572916
 30
0.0
 10
162.89307183159721
 20
196.83036295572916
 30
0.0
 10
162.89307183159721
 20
194.83048502604166
 30
0.0
 10
162.89307183159721
 20
194.83048502604166
 30
0.0
  0
SPLINE
  5
C0
100
AcDbEntity
  8
CALQUE_1
 62
     7
100
AcDbSpline
210
0.0
220
0.0
230
1.0
 70
     8
 71
     3
 72
    29
 73
    25
 74
     0
 42
0.00000001
 43
0.00000001
 40
0.0
 40
0.0
 40
0.0
 40
0.0
 40
1.0
 40
1.0
 40
1.0
 40
2.0
 40
2.0
 40
2.0
 40
3.0
 40
3.0
 40
3.0
 40
4.0
 40
4.0
 40
4.0
 40
5.0
 40
5.0
 40
5.0
 40
6.0
 40
6.0
 40
6.0
 40
7.0
 40
7.0
 40
7.0
 40
8.0
 40
8.0
 40
8.0
 40
8.0
 10
174.26946614583332
 20
194.83048502604166
 30
0.0
 10
174.26946614583332
 20
194.27789171006944
 30
0.0
 10
173.82160373263886
 20
193.83037380642358
 30
0.0
 10
173.26969943576387
 20
193.83037380642358
 30
0.0
 10
173.26969943576387
 20
193.83037380642358
 30
0.0
 10
172.26924370659719
 20
193.83037380642358
 30
0.0
 10
172.26924370659719
 20
193.83037380642358
 30
0.0
 10
171.7173394097222
 20
193.83037380642358
 30
0.0
 10
171.26947699652777
 20
194.27789171006944
 30
0.0
 10
171.26947699652777
 20
194.83048502604166
 30
0.0
 10
171.26947699652777
 20
194.83048502604166
 30
0.0
 10
171.26947699652777
 20
196.83036295572916
 30
0.0
 10
171.26947699652777
 20
196.83036295572916
 30
0.0
 10
171.26947699652777
 20
197.38261176215275
 30
0.0
 10
171.7173394097222
 20
197.83047417534721
 30
0.0
 10
172.26924370659719
 20
197.83047417534721
 30
0.0
 10
172.26924370659719
 20
197.83047417534721
 30
0.0
 10
173.26969943576387
 20
197.83047417534721
 30
0.0
 10
173.26969943576387
 20
197.83047417534721
 30
0.0
 10
173.82160373263886
 20
197.83047417534721
 30
0.0
 10
174.26946614583332
 20
197.38261176215275
 30
0.0
 10
174.26946614583332
 20
196.83036295572916
 30
0.0
 10
174.26946614583332
 20
196.83036295572916
 30
0.0
 10
174.26946614583332
 20
194.83048502604166
 30
0.0
 10
174.26946614583332
 20
194.83048502604166
 30
0.0
  0
SPLINE
  5
BF
100
AcDbEntity
  8
CALQUE_1
 62
     7
100
AcDbSpline
210
0.0
220
0.0
230
1.0
 70
     8
 71
     3
 72
    29
 73
    25
 74
     0
 42
0.00000001
 43
0.00000001
 40
0.0
 40
0.0
 40
0.0
 40
0.0
 40
1.0
 40
1.0
 40
1.0
 40
2.0
 40
2.0
 40
2.0
 40
3.0
 40
3.0
 40
3.0
 40
4.0
 40
4.0
 40
4.0
 40
5.0
 40
5.0
 40
5.0
 40
6.0
 40
6.0
 40
6.0
 40
7.0
 40
7.0
 40
7.0
 40
8.0
 40
8.0
 40
8.0
 40
8.0
 10
185.64586046006943
 20
194.83048502604166
 30
0.0
 10
185.64586046006943
 20
194.27789171006944
 30
0.0
 10
185.19799804687497
 20
193.83037380642358
 30
0.0
 10
184.64609374999998
 20
193.83037380642358
 30
0.0
 10
184.64609374999998
 20
193.83037380642358
 30
0.0
 10
183.6456380208333
 20
193.83037380642358
 30
0.0
 10
183.6456380208333
 20
193.83037380642358
 30
0.0
 10
183.09373372395831
 20
193.83037380642358
 30
0.0
 10
182.64587131076388
 20
194.27789171006944
 30
0.0
 10
182.64587131076388
 20
194.83048502604166
 30
0.0
 10
182.64587131076388
 20
194.83048502604166
 30
0.0
 10
182.64587131076388
 20
196.83036295572916
 30
0.0
 10
182.64587131076388
 20
196.83036295572916
 30
0.0
 10
182.64587131076388
 20
197.38261176215275
 30
0.0
 10
183.09373372395831
 20
197.83047417534721
 30
0.0
 10
183.6456380208333
 20
197.83047417534721
 30
0.0
 10
183.6456380208333
 20
197.83047417534721
 30
0.0
 10
184.64609374999998
 20
197.83047417534721
 30
0.0
 10
184.64609374999998
 20
197.83047417534721
 30
0.0
 10
185.19799804687497
 20
197.83047417534721
 30
0.0
 10
185.64586046006943
 20
197.38261176215275
 30
0.0
 10
185.64586046006943
 20
196.83036295572916
 30
0.0
 10
185.64586046006943
 20
196.83036295572916
 30
0.0
 10
185.64586046006943
 20
194.83048502604166
 30
0.0
 10
185.64586046006943
 20
194.83048502604166
 30
0.0
  0
SPLINE
  5
BE
100
AcDbEntity
  8
CALQUE_1
 62
     7
100
AcDbSpline
210
0.0
220
0.0
230
1.0
 70
     8
 71
     3
 72
    29
 73
    25
 74
     0
 42
0.00000001
 43
0.00000001
 40
0.0
 40
0.0
 40
0.0
 40
0.0
 40
1.0
 40
1.0
 40
1.0
 40
2.0
 40
2.0
 40
2.0
 40
3.0
 40
3.0
 40
3.0
 40
4.0
 40
4.0
 40
4.0
 40
5.0
 40
5.0
 40
5.0
 40
6.0
 40
6.0
 40
6.0
 40
7.0
 40
7.0
 40
7.0
 40
8.0
 40
8.0
 40
8.0
 40
8.0
 10
14.999945746527777
 20
185.65826280381944
 30
0.0
 10
14.999945746527777
 20
185.10566948784719
 30
0.0
 10
14.552083333333332
 20
184.65815158420136
 30
0.0
 10
14.000179036458333
 20
184.65815158420136
 30
0.0
 10
14.000179036458333
 20
184.65815158420136
 30
0.0
 10
12.999723307291665
 20
184.65815158420136
 30
0.0
 10
12.999723307291665
 20
184.65815158420136
 30
0.0
 10
12.447819010416666
 20
184.65815158420136
 30
0.0
 10
11.999956597222221
 20
185.10566948784719
 30
0.0
 10
11.999956597222221
 20
185.65826280381944
 30
0.0
 10
11.999956597222221
 20
185.65826280381944
 30
0.0
 10
11.999956597222221
 20
187.65814073350694
 30
0.0
 10
11.999956597222221
 20
187.65814073350694
 30
0.0
 10
11.999956597222221
 20
188.21038953993053
 30
0.0
 10
12.447819010416666
 20
188.65825195312499
 30
0.0
 10
12.999723307291665
 20
188.65825195312499
 30
0.0
 10
12.999723307291665
 20
188.65825195312499
 30
0.0
 10
14.000179036458333
 20
188.65825195312499
 30
0.0
 10
14.000179036458333
 20
188.65825195312499
 30
0.0
 10
14.552083333333332
 20
188.65825195312499
 30
0.0
 10
14.999945746527777
 20
188.21038953993053
 30
0.0
 10
14.999945746527777
 20
187.65814073350694
 30
0.0
 10
14.999945746527777
 20
187.65814073350694
 30
0.0
 10
14.999945746527777
 20
185.65826280381944
 30
0.0
 10
14.999945746527777
 20
185.65826280381944
 30
0.0
  0
SPLINE
  5
BD
100
AcDbEntity
  8
CALQUE_1
 62
     7
100
AcDbSpline
210
0.0
220
0.0
230
1.0
 70
     8
 71
     3
 72
    29
 73
    25
 74
     0
 42
0.00000001
 43
0.00000001
 40
0.0
 40
0.0
 40
0.0
 40
0.0
 40
1.0
 40
1.0
 40
1.0
 40
2.0
 40
2.0
 40
2.0
 40
3.0
 40
3.0
 40
3.0
 40
4.0
 40
4.0
 40
4.0
 40
5.0
 40
5.0
 40
5.0
 40
6.0
 40
6.0
 40
6.0
 40
7.0
 40
7.0
 40
7.0
 40
8.0
 40
8.0
 40
8.0
 40
8.0
 10
26.376340060763887
 20
185.65826280381944
 30
0.0
 10
26.376340060763887
 20
185.10566948784719
 30
0.0
 10
25.928477647569441
 20
184.65815158420136
 30
0.0
 10
25.376573350694443
 20
184.65815158420136
 30
0.0
 10
25.376573350694443
 20
184.65815158420136
 30
0.0
 10
24.376117621527776
 20
184.65815158420136
 30
0.0
 10
24.376117621527776
 20
184.65815158420136
 30
0.0
 10
23.824213324652774
 20
184.65815158420136
 30
0.0
 10
23.376350911458331
 20
185.10566948784719
 30
0.0
 10
23.376350911458331
 20
185.65826280381944
 30
0.0
 10
23.376350911458331
 20
185.65826280381944
 30
0.0
 10
23.376350911458331
 20
187.65814073350694
 30
0.0
 10
23.376350911458331
 20
187.65814073350694
 30
0.0
 10
23.376350911458331
 20
188.21038953993053
 30
0.0
 10
23.824213324652774
 20
188.65825195312499
 30
0.0
 10
24.376117621527776
 20
188.65825195312499
 30
0.0
 10
24.376117621527776
 20
188.65825195312499
 30
0.0
 10
25.376573350694443
 20
188.65825195312499
 30
0.0
 10
25.376573350694443
 20
188.65825195312499
 30
0.0
 10
25.928477647569441
 20
188.65825195312499
 30
0.0
 10
26.376340060763887
 20
188.21038953993053
 30
0.0
 10
26.376340060763887
 20
187.65814073350694
 30
0.0
 10
26.376340060763887
 20
187.65814073350694
 30
0.0
 10
26.376340060763887
 20
185.65826280381944
 30
0.0
 10
26.376340060763887
 20
185.65826280381944
 30
0.0
  0
SPLINE
  5
BC
100
AcDbEntity
  8
CALQUE_1
 62
     7
100
AcDbSpline
210
0.0
220
0.0
230
1.0
 70
     8
 71
     3
 72
    29
 73
    25
 74
     0
 42
0.00000001
 43
0.00000001
 40
0.0
 40
0.0
 40
0.0
 40
0.0
 40
1.0
 40
1.0
 40
1.0
 40
2.0
 40
2.0
 40
2.0
 40
3.0
 40
3.0
 40
3.0
 40
4.0
 40
4.0
 40
4.0
 40
5.0
 40
5.0
 40
5.0
 40
6.0
 40
6.0
 40
6.0
 40
7.0
 40
7.0
 40
7.0
 40
8.0
 40
8.0
 40
8.0
 40
8.0
 10
37.752734374999996
 20
185.65826280381944
 30
0.0
 10
37.752734374999996
 20
185.10566948784719
 30
0.0
 10
37.304871961805553
 20
184.65815158420136
 30
0.0
 10
36.752967664930551
 20
184.65815158420136
 30
0.0
 10
36.752967664930551
 20
184.65815158420136
 30
0.0
 10
35.752511935763884
 20
184.65815158420136
 30
0.0
 10
35.752511935763884
 20
184.65815158420136
 30
0.0
 10
35.200607638888883
 20
184.65815158420136
 30
0.0
 10
34.75274522569444
 20
185.10566948784719
 30
0.0
 10
34.75274522569444
 20
185.65826280381944
 30
0.0
 10
34.75274522569444
 20
185.65826280381944
 30
0.0
 10
34.75274522569444
 20
187.65814073350694
 30
0.0
 10
34.75274522569444
 20
187.65814073350694
 30
0.0
 10
34.75274522569444
 20
188.21038953993053
 30
0.0
 10
35.200607638888883
 20
188.65825195312499
 30
0.0
 10
35.752511935763884
 20
188.65825195312499
 30
0.0
 10
35.752511935763884
 20
188.65825195312499
 30
0.0
 10
36.752967664930551
 20
188.65825195312499
 30
0.0
 10
36.752967664930551
 20
188.65825195312499
 30
0.0
 10
37.304871961805553
 20
188.65825195312499
 30
0.0
 10
37.752734374999996
 20
188.21038953993053
 30
0.0
 10
37.752734374999996
 20
187.65814073350694
 30
0.0
 10
37.752734374999996
 20
187.65814073350694
 30
0.0
 10
37.752734374999996
 20
185.65826280381944
 30
0.0
 10
37.752734374999996
 20
185.65826280381944
 30
0.0
  0
SPLINE
  5
BB
100
AcDbEntity
  8
CALQUE_1
 62
     7
100
AcDbSpline
210
0.0
220
0.0
230
1.0
 70
     8
 71
     3
 72
    29
 73
    25
 74
     0
 42
0.00000001
 43
0.00000001
 40
0.0
 40
0.0
 40
0.0
 40
0.0
 40
1.0
 40
1.0
 40
1.0
 40
2.0
 40
2.0
 40
2.0
 40
3.0
 40
3.0
 40
3.0
 40
4.0
 40
4.0
 40
4.0
 40
5.0
 40
5.0
 40
5.0
 40
6.0
 40
6.0
 40
6.0
 40
7.0
 40
7.0
 40
7.0
 40
8.0
 40
8.0
 40
8.0
 40
8.0
 10
49.129128689236104
 20
185.65826280381944
 30
0.0
 10
49.129128689236104
 20
185.10566948784719
 30
0.0
 10
48.681266276041661
 20
184.65815158420136
 30
0.0
 10
48.12936197916666
 20
184.65815158420136
 30
0.0
 10
48.12936197916666
 20
184.65815158420136
 30
0.0
 10
47.128906249999993
 20
184.65815158420136
 30
0.0
 10
47.128906249999993
 20
184.65815158420136
 30
0.0
 10
46.577001953124999
 20
184.65815158420136
 30
0.0
 10
46.129139539930549
 20
185.10566948784719
 30
0.0
 10
46.129139539930549
 20
185.65826280381944
 30
0.0
 10
46.129139539930549
 20
185.65826280381944
 30
0.0
 10
46.129139539930549
 20
187.65814073350694
 30
0.0
 10
46.129139539930549
 20
187.65814073350694
 30
0.0
 10
46.129139539930549
 20
188.21038953993053
 30
0.0
 10
46.577001953124999
 20
188.65825195312499
 30
0.0
 10
47.128906249999993
 20
188.65825195312499
 30
0.0
 10
47.128906249999993
 20
188.65825195312499
 30
0.0
 10
48.12936197916666
 20
188.65825195312499
 30
0.0
 10
48.12936197916666
 20
188.65825195312499
 30
0.0
 10
48.681266276041661
 20
188.65825195312499
 30
0.0
 10
49.129128689236104
 20
188.21038953993053
 30
0.0
 10
49.129128689236104
 20
187.65814073350694
 30
0.0
 10
49.129128689236104
 20
187.65814073350694
 30
0.0
 10
49.129128689236104
 20
185.65826280381944
 30
0.0
 10
49.129128689236104
 20
185.65826280381944
 30
0.0
  0
SPLINE
  5
BA
100
AcDbEntity
  8
CALQUE_1
 62
     7
100
AcDbSpline
210
0.0
220
0.0
230
1.0
 70
     8
 71
     3
 72
    29
 73
    25
 74
     0
 42
0.00000001
 43
0.00000001
 40
0.0
 40
0.0
 40
0.0
 40
0.0
 40
1.0
 40
1.0
 40
1.0
 40
2.0
 40
2.0
 40
2.0
 40
3.0
 40
3.0
 40
3.0
 40
4.0
 40
4.0
 40
4.0
 40
5.0
 40
5.0
 40
5.0
 40
6.0
 40
6.0
 40
6.0
 40
7.0
 40
7.0
 40
7.0
 40
8.0
 40
8.0
 40
8.0
 40
8.0
 10
60.50552300347222
 20
185.65826280381944
 30
0.0
 10
60.50552300347222
 20
185.10566948784719
 30
0.0
 10
60.05766059027777
 20
184.65815158420136
 30
0.0
 10
59.505756293402776
 20
184.65815158420136
 30
0.0
 10
59.505756293402776
 20
184.65815158420136
 30
0.0
 10
58.505300564236109
 20
184.65815158420136
 30
0.0
 10
58.505300564236109
 20
184.65815158420136
 30
0.0
 10
57.953396267361107
 20
184.65815158420136
 30
0.0
 10
57.505533854166664
 20
185.10566948784719
 30
0.0
 10
57.505533854166664
 20
185.65826280381944
 30
0.0
 10
57.505533854166664
 20
185.65826280381944
 30
0.0
 10
57.505533854166664
 20
187.65814073350694
 30
0.0
 10
57.505533854166664
 20
187.65814073350694
 30
0.0
 10
57.505533854166664
 20
188.21038953993053
 30
0.0
 10
57.953396267361107
 20
188.65825195312499
 30
0.0
 10
58.505300564236109
 20
188.65825195312499
 30
0.0
 10
58.505300564236109
 20
188.65825195312499
 30
0.0
 10
59.505756293402776
 20
188.65825195312499
 30
0.0
 10
59.505756293402776
 20
188.65825195312499
 30
0.0
 10
60.05766059027777
 20
188.65825195312499
 30
0.0
 10
60.50552300347222
 20
188.21038953993053
 30
0.0
 10
60.50552300347222
 20
187.65814073350694
 30
0.0
 10
60.50552300347222
 20
187.65814073350694
 30
0.0
 10
60.50552300347222
 20
185.65826280381944
 30
0.0
 10
60.50552300347222
 20
185.65826280381944
 30
0.0
  0
SPLINE
  5
B9
100
AcDbEntity
  8
CALQUE_1
 62
     7
100
AcDbSpline
210
0.0
220
0.0
230
1.0
 70
     8
 71
     3
 72
    29
 73
    25
 74
     0
 42
0.00000001
 43
0.00000001
 40
0.0
 40
0.0
 40
0.0
 40
0.0
 40
1.0
 40
1.0
 40
1.0
 40
2.0
 40
2.0
 40
2.0
 40
3.0
 40
3.0
 40
3.0
 40
4.0
 40
4.0
 40
4.0
 40
5.0
 40
5.0
 40
5.0
 40
6.0
 40
6.0
 40
6.0
 40
7.0
 40
7.0
 40
7.0
 40
8.0
 40
8.0
 40
8.0
 40
8.0
 10
71.881917317708329
 20
185.65826280381944
 30
0.0
 10
71.881917317708329
 20
185.10566948784719
 30
0.0
 10
71.434054904513886
 20
184.65815158420136
 30
0.0
 10
70.882150607638877
 20
184.65815158420136
 30
0.0
 10
70.882150607638877
 20
184.65815158420136
 30
0.0
 10
69.881694878472217
 20
184.65815158420136
 30
0.0
 10
69.881694878472217
 20
184.65815158420136
 30
0.0
 10
69.329790581597223
 20
184.65815158420136
 30
0.0
 10
68.881928168402766
 20
185.10566948784719
 30
0.0
 10
68.881928168402766
 20
185.65826280381944
 30
0.0
 10
68.881928168402766
 20
185.65826280381944
 30
0.0
 10
68.881928168402766
 20
187.65814073350694
 30
0.0
 10
68.881928168402766
 20
187.65814073350694
 30
0.0
 10
68.881928168402766
 20
188.21038953993053
 30
0.0
 10
69.329790581597223
 20
188.65825195312499
 30
0.0
 10
69.881694878472217
 20
188.65825195312499
 30
0.0
 10
69.881694878472217
 20
188.65825195312499
 30
0.0
 10
70.882150607638877
 20
188.65825195312499
 30
0.0
 10
70.882150607638877
 20
188.65825195312499
 30
0.0
 10
71.434054904513886
 20
188.65825195312499
 30
0.0
 10
71.881917317708329
 20
188.21038953993053
 30
0.0
 10
71.881917317708329
 20
187.65814073350694
 30
0.0
 10
71.881917317708329
 20
187.65814073350694
 30
0.0
 10
71.881917317708329
 20
185.65826280381944
 30
0.0
 10
71.881917317708329
 20
185.65826280381944
 30
0.0
  0
SPLINE
  5
B8
100
AcDbEntity
  8
CALQUE_1
 62
     7
100
AcDbSpline
210
0.0
220
0.0
230
1.0
 70
     8
 71
     3
 72
    29
 73
    25
 74
     0
 42
0.00000001
 43
0.00000001
 40
0.0
 40
0.0
 40
0.0
 40
0.0
 40
1.0
 40
1.0
 40
1.0
 40
2.0
 40
2.0
 40
2.0
 40
3.0
 40
3.0
 40
3.0
 40
4.0
 40
4.0
 40
4.0
 40
5.0
 40
5.0
 40
5.0
 40
6.0
 40
6.0
 40
6.0
 40
7.0
 40
7.0
 40
7.0
 40
8.0
 40
8.0
 40
8.0
 40
8.0
 10
83.258311631944437
 20
185.65826280381944
 30
0.0
 10
83.258311631944437
 20
185.10566948784719
 30
0.0
 10
82.810449218749994
 20
184.65815158420136
 30
0.0
 10
82.258544921874986
 20
184.65815158420136
 30
0.0
 10
82.258544921874986
 20
184.65815158420136
 30
0.0
 10
81.258089192708326
 20
184.65815158420136
 30
0.0
 10
81.258089192708326
 20
184.65815158420136
 30
0.0
 10
80.706184895833331
 20
184.65815158420136
 30
0.0
 10
80.258322482638889
 20
185.10566948784719
 30
0.0
 10
80.258322482638889
 20
185.65826280381944
 30
0.0
 10
80.258322482638889
 20
185.65826280381944
 30
0.0
 10
80.258322482638889
 20
187.65814073350694
 30
0.0
 10
80.258322482638889
 20
187.65814073350694
 30
0.0
 10
80.258322482638889
 20
188.21038953993053
 30
0.0
 10
80.706184895833331
 20
188.65825195312499
 30
0.0
 10
81.258089192708326
 20
188.65825195312499
 30
0.0
 10
81.258089192708326
 20
188.65825195312499
 30
0.0
 10
82.258544921874986
 20
188.65825195312499
 30
0.0
 10
82.258544921874986
 20
188.65825195312499
 30
0.0
 10
82.810449218749994
 20
188.65825195312499
 30
0.0
 10
83.258311631944437
 20
188.21038953993053
 30
0.0
 10
83.258311631944437
 20
187.65814073350694
 30
0.0
 10
83.258311631944437
 20
187.65814073350694
 30
0.0
 10
83.258311631944437
 20
185.65826280381944
 30
0.0
 10
83.258311631944437
 20
185.65826280381944
 30
0.0
  0
SPLINE
  5
B7
100
AcDbEntity
  8
CALQUE_1
 62
     7
100
AcDbSpline
210
0.0
220
0.0
230
1.0
 70
     8
 71
     3
 72
    29
 73
    25
 74
     0
 42
0.00000001
 43
0.00000001
 40
0.0
 40
0.0
 40
0.0
 40
0.0
 40
1.0
 40
1.0
 40
1.0
 40
2.0
 40
2.0
 40
2.0
 40
3.0
 40
3.0
 40
3.0
 40
4.0
 40
4.0
 40
4.0
 40
5.0
 40
5.0
 40
5.0
 40
6.0
 40
6.0
 40
6.0
 40
7.0
 40
7.0
 40
7.0
 40
8.0
 40
8.0
 40
8.0
 40
8.0
 10
94.634705946180546
 20
185.65826280381944
 30
0.0
 10
94.634705946180546
 20
185.10566948784719
 30
0.0
 10
94.186843532986103
 20
184.65815158420136
 30
0.0
 10
93.634939236111109
 20
184.65815158420136
 30
0.0
 10
93.634939236111109
 20
184.65815158420136
 30
0.0
 10
92.634483506944434
 20
184.65815158420136
 30
0.0
 10
92.634483506944434
 20
184.65815158420136
 30
0.0
 10
92.08257921006944
 20
184.65815158420136
 30
0.0
 10
91.634716796874997
 20
185.10566948784719
 30
0.0
 10
91.634716796874997
 20
185.65826280381944
 30
0.0
 10
91.634716796874997
 20
185.65826280381944
 30
0.0
 10
91.634716796874997
 20
187.65814073350694
 30
0.0
 10
91.634716796874997
 20
187.65814073350694
 30
0.0
 10
91.634716796874997
 20
188.21038953993053
 30
0.0
 10
92.08257921006944
 20
188.65825195312499
 30
0.0
 10
92.634483506944434
 20
188.65825195312499
 30
0.0
 10
92.634483506944434
 20
188.65825195312499
 30
0.0
 10
93.634939236111109
 20
188.65825195312499
 30
0.0
 10
93.634939236111109
 20
188.65825195312499
 30
0.0
 10
94.186843532986103
 20
188.65825195312499
 30
0.0
 10
94.634705946180546
 20
188.21038953993053
 30
0.0
 10
94.634705946180546
 20
187.65814073350694
 30
0.0
 10
94.634705946180546
 20
187.65814073350694
 30
0.0
 10
94.634705946180546
 20
185.65826280381944
 30
0.0
 10
94.634705946180546
 20
185.65826280381944
 30
0.0
  0
SPLINE
  5
B6
100
AcDbEntity
  8
CALQUE_1
 62
     7
100
AcDbSpline
210
0.0
220
0.0
230
1.0
 70
     8
 71
     3
 72
    29
 73
    25
 74
     0
 42
0.00000001
 43
0.00000001
 40
0.0
 40
0.0
 40
0.0
 40
0.0
 40
1.0
 40
1.0
 40
1.0
 40
2.0
 40
2.0
 40
2.0
 40
3.0
 40
3.0
 40
3.0
 40
4.0
 40
4.0
 40
4.0
 40
5.0
 40
5.0
 40
5.0
 40
6.0
 40
6.0
 40
6.0
 40
7.0
 40
7.0
 40
7.0
 40
8.0
 40
8.0
 40
8.0
 40
8.0
 10
106.01110026041665
 20
185.65826280381944
 30
0.0
 10
106.01110026041665
 20
185.10566948784719
 30
0.0
 10
105.56323784722221
 20
184.65815158420136
 30
0.0
 10
105.01133355034722
 20
184.65815158420136
 30
0.0
 10
105.01133355034722
 20
184.65815158420136
 30
0.0
 10
104.01087782118054
 20
184.65815158420136
 30
0.0
 10
104.01087782118054
 20
184.65815158420136
 30
0.0
 10
103.45897352430555
 20
184.65815158420136
 30
0.0
 10
103.01111111111111
 20
185.10566948784719
 30
0.0
 10
103.01111111111111
 20
185.65826280381944
 30
0.0
 10
103.01111111111111
 20
185.65826280381944
 30
0.0
 10
103.01111111111111
 20
187.65814073350694
 30
0.0
 10
103.01111111111111
 20
187.65814073350694
 30
0.0
 10
103.01111111111111
 20
188.21038953993053
 30
0.0
 10
103.45897352430555
 20
188.65825195312499
 30
0.0
 10
104.01087782118054
 20
188.65825195312499
 30
0.0
 10
104.01087782118054
 20
188.65825195312499
 30
0.0
 10
105.01133355034722
 20
188.65825195312499
 30
0.0
 10
105.01133355034722
 20
188.65825195312499
 30
0.0
 10
105.56323784722221
 20
188.65825195312499
 30
0.0
 10
106.01110026041665
 20
188.21038953993053
 30
0.0
 10
106.01110026041665
 20
187.65814073350694
 30
0.0
 10
106.01110026041665
 20
187.65814073350694
 30
0.0
 10
106.01110026041665
 20
185.65826280381944
 30
0.0
 10
106.01110026041665
 20
185.65826280381944
 30
0.0
  0
SPLINE
  5
B5
100
AcDbEntity
  8
CALQUE_1
 62
     7
100
AcDbSpline
210
0.0
220
0.0
230
1.0
 70
     8
 71
     3
 72
    29
 73
    25
 74
     0
 42
0.00000001
 43
0.00000001
 40
0.0
 40
0.0
 40
0.0
 40
0.0
 40
1.0
 40
1.0
 40
1.0
 40
2.0
 40
2.0
 40
2.0
 40
3.0
 40
3.0
 40
3.0
 40
4.0
 40
4.0
 40
4.0
 40
5.0
 40
5.0
 40
5.0
 40
6.0
 40
6.0
 40
6.0
 40
7.0
 40
7.0
 40
7.0
 40
8.0
 40
8.0
 40
8.0
 40
8.0
 10
117.38749457465276
 20
185.65826280381944
 30
0.0
 10
117.38749457465276
 20
185.10566948784719
 30
0.0
 10
116.93963216145832
 20
184.65815158420136
 30
0.0
 10
116.38772786458333
 20
184.65815158420136
 30
0.0
 10
116.38772786458333
 20
184.65815158420136
 30
0.0
 10
115.38727213541665
 20
184.65815158420136
 30
0.0
 10
115.38727213541665
 20
184.65815158420136
 30
0.0
 10
114.83536783854166
 20
184.65815158420136
 30
0.0
 10
114.38750542534721
 20
185.10566948784719
 30
0.0
 10
114.38750542534721
 20
185.65826280381944
 30
0.0
 10
114.38750542534721
 20
185.65826280381944
 30
0.0
 10
114.38750542534721
 20
187.65814073350694
 30
0.0
 10
114.38750542534721
 20
187.65814073350694
 30
0.0
 10
114.38750542534721
 20
188.21038953993053
 30
0.0
 10
114.83536783854166
 20
188.65825195312499
 30
0.0
 10
115.38727213541665
 20
188.65825195312499
 30
0.0
 10
115.38727213541665
 20
188.65825195312499
 30
0.0
 10
116.38772786458333
 20
188.65825195312499
 30
0.0
 10
116.38772786458333
 20
188.65825195312499
 30
0.0
 10
116.93963216145832
 20
188.65825195312499
 30
0.0
 10
117.38749457465276
 20
188.21038953993053
 30
0.0
 10
117.38749457465276
 20
187.65814073350694
 30
0.0
 10
117.38749457465276
 20
187.65814073350694
 30
0.0
 10
117.38749457465276
 20
185.65826280381944
 30
0.0
 10
117.38749457465276
 20
185.65826280381944
 30
0.0
  0
SPLINE
  5
B4
100
AcDbEntity
  8
CALQUE_1
 62
     7
100
AcDbSpline
210
0.0
220
0.0
230
1.0
 70
     8
 71
     3
 72
    29
 73
    25
 74
     0
 42
0.00000001
 43
0.00000001
 40
0.0
 40
0.0
 40
0.0
 40
0.0
 40
1.0
 40
1.0
 40
1.0
 40
2.0
 40
2.0
 40
2.0
 40
3.0
 40
3.0
 40
3.0
 40
4.0
 40
4.0
 40
4.0
 40
5.0
 40
5.0
 40
5.0
 40
6.0
 40
6.0
 40
6.0
 40
7.0
 40
7.0
 40
7.0
 40
8.0
 40
8.0
 40
8.0
 40
8.0
 10
128.76388888888889
 20
185.65826280381944
 30
0.0
 10
128.76388888888889
 20
185.10566948784719
 30
0.0
 10
128.31602647569443
 20
184.65815158420136
 30
0.0
 10
127.76412217881943
 20
184.65815158420136
 30
0.0
 10
127.76412217881943
 20
184.65815158420136
 30
0.0
 10
126.76366644965276
 20
184.65815158420136
 30
0.0
 10
126.76366644965276
 20
184.65815158420136
 30
0.0
 10
126.21176215277777
 20
184.65815158420136
 30
0.0
 10
125.76389973958332
 20
185.10566948784719
 30
0.0
 10
125.76389973958332
 20
185.65826280381944
 30
0.0
 10
125.76389973958332
 20
185.65826280381944
 30
0.0
 10
125.76389973958332
 20
187.65814073350694
 30
0.0
 10
125.76389973958332
 20
187.65814073350694
 30
0.0
 10
125.76389973958332
 20
188.21038953993053
 30
0.0
 10
126.21176215277777
 20
188.65825195312499
 30
0.0
 10
126.76366644965276
 20
188.65825195312499
 30
0.0
 10
126.76366644965276
 20
188.65825195312499
 30
0.0
 10
127.76412217881943
 20
188.65825195312499
 30
0.0
 10
127.76412217881943
 20
188.65825195312499
 30
0.0
 10
128.31602647569443
 20
188.65825195312499
 30
0.0
 10
128.76388888888889
 20
188.21038953993053
 30
0.0
 10
128.76388888888889
 20
187.65814073350694
 30
0.0
 10
128.76388888888889
 20
187.65814073350694
 30
0.0
 10
128.76388888888889
 20
185.65826280381944
 30
0.0
 10
128.76388888888889
 20
185.65826280381944
 30
0.0
  0
SPLINE
  5
B3
100
AcDbEntity
  8
CALQUE_1
 62
     7
100
AcDbSpline
210
0.0
220
0.0
230
1.0
 70
     8
 71
     3
 72
    29
 73
    25
 74
     0
 42
0.00000001
 43
0.00000001
 40
0.0
 40
0.0
 40
0.0
 40
0.0
 40
1.0
 40
1.0
 40
1.0
 40
2.0
 40
2.0
 40
2.0
 40
3.0
 40
3.0
 40
3.0
 40
4.0
 40
4.0
 40
4.0
 40
5.0
 40
5.0
 40
5.0
 40
6.0
 40
6.0
 40
6.0
 40
7.0
 40
7.0
 40
7.0
 40
8.0
 40
8.0
 40
8.0
 40
8.0
 10
140.14028320312499
 20
185.65826280381944
 30
0.0
 10
140.14028320312499
 20
185.10566948784719
 30
0.0
 10
139.69242078993054
 20
184.65815158420136
 30
0.0
 10
139.14051649305554
 20
184.65815158420136
 30
0.0
 10
139.14051649305554
 20
184.65815158420136
 30
0.0
 10
138.14006076388887
 20
184.65815158420136
 30
0.0
 10
138.14006076388887
 20
184.65815158420136
 30
0.0
 10
137.58815646701387
 20
184.65815158420136
 30
0.0
 10
137.14029405381945
 20
185.10566948784719
 30
0.0
 10
137.14029405381945
 20
185.65826280381944
 30
0.0
 10
137.14029405381945
 20
185.65826280381944
 30
0.0
 10
137.14029405381945
 20
187.65814073350694
 30
0.0
 10
137.14029405381945
 20
187.65814073350694
 30
0.0
 10
137.14029405381945
 20
188.21038953993053
 30
0.0
 10
137.58815646701387
 20
188.65825195312499
 30
0.0
 10
138.14006076388887
 20
188.65825195312499
 30
0.0
 10
138.14006076388887
 20
188.65825195312499
 30
0.0
 10
139.14051649305554
 20
188.65825195312499
 30
0.0
 10
139.14051649305554
 20
188.65825195312499
 30
0.0
 10
139.69242078993054
 20
188.65825195312499
 30
0.0
 10
140.14028320312499
 20
188.21038953993053
 30
0.0
 10
140.14028320312499
 20
187.65814073350694
 30
0.0
 10
140.14028320312499
 20
187.65814073350694
 30
0.0
 10
140.14028320312499
 20
185.65826280381944
 30
0.0
 10
140.14028320312499
 20
185.65826280381944
 30
0.0
  0
SPLINE
  5
B2
100
AcDbEntity
  8
CALQUE_1
 62
     7
100
AcDbSpline
210
0.0
220
0.0
230
1.0
 70
     8
 71
     3
 72
    29
 73
    25
 74
     0
 42
0.00000001
 43
0.00000001
 40
0.0
 40
0.0
 40
0.0
 40
0.0
 40
1.0
 40
1.0
 40
1.0
 40
2.0
 40
2.0
 40
2.0
 40
3.0
 40
3.0
 40
3.0
 40
4.0
 40
4.0
 40
4.0
 40
5.0
 40
5.0
 40
5.0
 40
6.0
 40
6.0
 40
6.0
 40
7.0
 40
7.0
 40
7.0
 40
8.0
 40
8.0
 40
8.0
 40
8.0
 10
151.5166775173611
 20
185.65826280381944
 30
0.0
 10
151.5166775173611
 20
185.10566948784719
 30
0.0
 10
151.06881510416665
 20
184.65815158420136
 30
0.0
 10
150.51691080729165
 20
184.65815158420136
 30
0.0
 10
150.51691080729165
 20
184.65815158420136
 30
0.0
 10
149.51645507812498
 20
184.65815158420136
 30
0.0
 10
149.51645507812498
 20
184.65815158420136
 30
0.0
 10
148.96455078124998
 20
184.65815158420136
 30
0.0
 10
148.51668836805555
 20
185.10566948784719
 30
0.0
 10
148.51668836805555
 20
185.65826280381944
 30
0.0
 10
148.51668836805555
 20
185.65826280381944
 30
0.0
 10
148.51668836805555
 20
187.65814073350694
 30
0.0
 10
148.51668836805555
 20
187.65814073350694
 30
0.0
 10
148.51668836805555
 20
188.21038953993053
 30
0.0
 10
148.96455078124998
 20
188.65825195312499
 30
0.0
 10
149.51645507812498
 20
188.65825195312499
 30
0.0
 10
149.51645507812498
 20
188.65825195312499
 30
0.0
 10
150.51691080729165
 20
188.65825195312499
 30
0.0
 10
150.51691080729165
 20
188.65825195312499
 30
0.0
 10
151.06881510416665
 20
188.65825195312499
 30
0.0
 10
151.5166775173611
 20
188.21038953993053
 30
0.0
 10
151.5166775173611
 20
187.65814073350694
 30
0.0
 10
151.5166775173611
 20
187.65814073350694
 30
0.0
 10
151.5166775173611
 20
185.65826280381944
 30
0.0
 10
151.5166775173611
 20
185.65826280381944
 30
0.0
  0
SPLINE
  5
B1
100
AcDbEntity
  8
CALQUE_1
 62
     7
100
AcDbSpline
210
0.0
220
0.0
230
1.0
 70
     8
 71
     3
 72
    29
 73
    25
 74
     0
 42
0.00000001
 43
0.00000001
 40
0.0
 40
0.0
 40
0.0
 40
0.0
 40
1.0
 40
1.0
 40
1.0
 40
2.0
 40
2.0
 40
2.0
 40
3.0
 40
3.0
 40
3.0
 40
4.0
 40
4.0
 40
4.0
 40
5.0
 40
5.0
 40
5.0
 40
6.0
 40
6.0
 40
6.0
 40
7.0
 40
7.0
 40
7.0
 40
8.0
 40
8.0
 40
8.0
 40
8.0
 10
162.89307183159721
 20
185.65826280381944
 30
0.0
 10
162.89307183159721
 20
185.10566948784719
 30
0.0
 10
162.44520941840275
 20
184.65815158420136
 30
0.0
 10
161.89330512152776
 20
184.65815158420136
 30
0.0
 10
161.89330512152776
 20
184.65815158420136
 30
0.0
 10
160.89284939236109
 20
184.65815158420136
 30
0.0
 10
160.89284939236109
 20
184.65815158420136
 30
0.0
 10
160.34094509548609
 20
184.65815158420136
 30
0.0
 10
159.89308268229166
 20
185.10566948784719
 30
0.0
 10
159.89308268229166
 20
185.65826280381944
 30
0.0
 10
159.89308268229166
 20
185.65826280381944
 30
0.0
 10
159.89308268229166
 20
187.65814073350694
 30
0.0
 10
159.89308268229166
 20
187.65814073350694
 30
0.0
 10
159.89308268229166
 20
188.21038953993053
 30
0.0
 10
160.34094509548609
 20
188.65825195312499
 30
0.0
 10
160.89284939236109
 20
188.65825195312499
 30
0.0
 10
160.89284939236109
 20
188.65825195312499
 30
0.0
 10
161.89330512152776
 20
188.65825195312499
 30
0.0
 10
161.89330512152776
 20
188.65825195312499
 30
0.0
 10
162.44520941840275
 20
188.65825195312499
 30
0.0
 10
162.89307183159721
 20
188.21038953993053
 30
0.0
 10
162.89307183159721
 20
187.65814073350694
 30
0.0
 10
162.89307183159721
 20
187.65814073350694
 30
0.0
 10
162.89307183159721
 20
185.65826280381944
 30
0.0
 10
162.89307183159721
 20
185.65826280381944
 30
0.0
  0
SPLINE
  5
B0
100
AcDbEntity
  8
CALQUE_1
 62
     7
100
AcDbSpline
210
0.0
220
0.0
230
1.0
 70
     8
 71
     3
 72
    29
 73
    25
 74
     0
 42
0.00000001
 43
0.00000001
 40
0.0
 40
0.0
 40
0.0
 40
0.0
 40
1.0
 40
1.0
 40
1.0
 40
2.0
 40
2.0
 40
2.0
 40
3.0
 40
3.0
 40
3.0
 40
4.0
 40
4.0
 40
4.0
 40
5.0
 40
5.0
 40
5.0
 40
6.0
 40
6.0
 40
6.0
 40
7.0
 40
7.0
 40
7.0
 40
8.0
 40
8.0
 40
8.0
 40
8.0
 10
174.26946614583332
 20
185.65826280381944
 30
0.0
 10
174.26946614583332
 20
185.10566948784719
 30
0.0
 10
173.82160373263886
 20
184.65815158420136
 30
0.0
 10
173.26969943576387
 20
184.65815158420136
 30
0.0
 10
173.26969943576387
 20
184.65815158420136
 30
0.0
 10
172.26924370659719
 20
184.65815158420136
 30
0.0
 10
172.26924370659719
 20
184.65815158420136
 30
0.0
 10
171.7173394097222
 20
184.65815158420136
 30
0.0
 10
171.26947699652777
 20
185.10566948784719
 30
0.0
 10
171.26947699652777
 20
185.65826280381944
 30
0.0
 10
171.26947699652777
 20
185.65826280381944
 30
0.0
 10
171.26947699652777
 20
187.65814073350694
 30
0.0
 10
171.26947699652777
 20
187.65814073350694
 30
0.0
 10
171.26947699652777
 20
188.21038953993053
 30
0.0
 10
171.7173394097222
 20
188.65825195312499
 30
0.0
 10
172.26924370659719
 20
188.65825195312499
 30
0.0
 10
172.26924370659719
 20
188.65825195312499
 30
0.0
 10
173.26969943576387
 20
188.65825195312499
 30
0.0
 10
173.26969943576387
 20
188.65825195312499
 30
0.0
 10
173.82160373263886
 20
188.65825195312499
 30
0.0
 10
174.26946614583332
 20
188.21038953993053
 30
0.0
 10
174.26946614583332
 20
187.65814073350694
 30
0.0
 10
174.26946614583332
 20
187.65814073350694
 30
0.0
 10
174.26946614583332
 20
185.65826280381944
 30
0.0
 10
174.26946614583332
 20
185.65826280381944
 30
0.0
  0
SPLINE
  5
AF
100
AcDbEntity
  8
CALQUE_1
 62
     7
100
AcDbSpline
210
0.0
220
0.0
230
1.0
 70
     8
 71
     3
 72
    29
 73
    25
 74
     0
 42
0.00000001
 43
0.00000001
 40
0.0
 40
0.0
 40
0.0
 40
0.0
 40
1.0
 40
1.0
 40
1.0
 40
2.0
 40
2.0
 40
2.0
 40
3.0
 40
3.0
 40
3.0
 40
4.0
 40
4.0
 40
4.0
 40
5.0
 40
5.0
 40
5.0
 40
6.0
 40
6.0
 40
6.0
 40
7.0
 40
7.0
 40
7.0
 40
8.0
 40
8.0
 40
8.0
 40
8.0
 10
185.64586046006943
 20
185.65826280381944
 30
0.0
 10
185.64586046006943
 20
185.10566948784719
 30
0.0
 10
185.19799804687497
 20
184.65815158420136
 30
0.0
 10
184.64609374999998
 20
184.65815158420136
 30
0.0
 10
184.64609374999998
 20
184.65815158420136
 30
0.0
 10
183.6456380208333
 20
184.65815158420136
 30
0.0
 10
183.6456380208333
 20
184.65815158420136
 30
0.0
 10
183.09373372395831
 20
184.65815158420136
 30
0.0
 10
182.64587131076388
 20
185.10566948784719
 30
0.0
 10
182.64587131076388
 20
185.65826280381944
 30
0.0
 10
182.64587131076388
 20
185.65826280381944
 30
0.0
 10
182.64587131076388
 20
187.65814073350694
 30
0.0
 10
182.64587131076388
 20
187.65814073350694
 30
0.0
 10
182.64587131076388
 20
188.21038953993053
 30
0.0
 10
183.09373372395831
 20
188.65825195312499
 30
0.0
 10
183.6456380208333
 20
188.65825195312499
 30
0.0
 10
183.6456380208333
 20
188.65825195312499
 30
0.0
 10
184.64609374999998
 20
188.65825195312499
 30
0.0
 10
184.64609374999998
 20
188.65825195312499
 30
0.0
 10
185.19799804687497
 20
188.65825195312499
 30
0.0
 10
185.64586046006943
 20
188.21038953993053
 30
0.0
 10
185.64586046006943
 20
187.65814073350694
 30
0.0
 10
185.64586046006943
 20
187.65814073350694
 30
0.0
 10
185.64586046006943
 20
185.65826280381944
 30
0.0
 10
185.64586046006943
 20
185.65826280381944
 30
0.0
  0
SPLINE
  5
AE
100
AcDbEntity
  8
CALQUE_1
 62
     7
100
AcDbSpline
210
0.0
220
0.0
230
1.0
 70
     8
 71
     3
 72
    29
 73
    25
 74
     0
 42
0.00000001
 43
0.00000001
 40
0.0
 40
0.0
 40
0.0
 40
0.0
 40
1.0
 40
1.0
 40
1.0
 40
2.0
 40
2.0
 40
2.0
 40
3.0
 40
3.0
 40
3.0
 40
4.0
 40
4.0
 40
4.0
 40
5.0
 40
5.0
 40
5.0
 40
6.0
 40
6.0
 40
6.0
 40
7.0
 40
7.0
 40
7.0
 40
8.0
 40
8.0
 40
8.0
 40
8.0
 10
14.999945746527777
 20
176.48604058159719
 30
0.0
 10
14.999945746527777
 20
175.93344726562498
 30
0.0
 10
14.552083333333332
 20
175.48592936197915
 30
0.0
 10
14.000179036458333
 20
175.48592936197915
 30
0.0
 10
14.000179036458333
 20
175.48592936197915
 30
0.0
 10
12.999723307291665
 20
175.48592936197915
 30
0.0
 10
12.999723307291665
 20
175.48592936197915
 30
0.0
 10
12.447819010416666
 20
175.48592936197915
 30
0.0
 10
11.999956597222221
 20
175.93344726562498
 30
0.0
 10
11.999956597222221
 20
176.48604058159719
 30
0.0
 10
11.999956597222221
 20
176.48604058159719
 30
0.0
 10
11.999956597222221
 20
178.48591851128469
 30
0.0
 10
11.999956597222221
 20
178.48591851128469
 30
0.0
 10
11.999956597222221
 20
179.03816731770831
 30
0.0
 10
12.447819010416666
 20
179.48602973090277
 30
0.0
 10
12.999723307291665
 20
179.48602973090277
 30
0.0
 10
12.999723307291665
 20
179.48602973090277
 30
0.0
 10
14.000179036458333
 20
179.48602973090277
 30
0.0
 10
14.000179036458333
 20
179.48602973090277
 30
0.0
 10
14.552083333333332
 20
179.48602973090277
 30
0.0
 10
14.999945746527777
 20
179.03816731770831
 30
0.0
 10
14.999945746527777
 20
178.48591851128469
 30
0.0
 10
14.999945746527777
 20
178.48591851128469
 30
0.0
 10
14.999945746527777
 20
176.48604058159719
 30
0.0
 10
14.999945746527777
 20
176.48604058159719
 30
0.0
  0
SPLINE
  5
AD
100
AcDbEntity
  8
CALQUE_1
 62
     7
100
AcDbSpline
210
0.0
220
0.0
230
1.0
 70
     8
 71
     3
 72
    29
 73
    25
 74
     0
 42
0.00000001
 43
0.00000001
 40
0.0
 40
0.0
 40
0.0
 40
0.0
 40
1.0
 40
1.0
 40
1.0
 40
2.0
 40
2.0
 40
2.0
 40
3.0
 40
3.0
 40
3.0
 40
4.0
 40
4.0
 40
4.0
 40
5.0
 40
5.0
 40
5.0
 40
6.0
 40
6.0
 40
6.0
 40
7.0
 40
7.0
 40
7.0
 40
8.0
 40
8.0
 40
8.0
 40
8.0
 10
26.376340060763887
 20
176.48604058159719
 30
0.0
 10
26.376340060763887
 20
175.93344726562498
 30
0.0
 10
25.928477647569441
 20
175.48592936197915
 30
0.0
 10
25.376573350694443
 20
175.48592936197915
 30
0.0
 10
25.376573350694443
 20
175.48592936197915
 30
0.0
 10
24.376117621527776
 20
175.48592936197915
 30
0.0
 10
24.376117621527776
 20
175.48592936197915
 30
0.0
 10
23.824213324652774
 20
175.48592936197915
 30
0.0
 10
23.376350911458331
 20
175.93344726562498
 30
0.0
 10
23.376350911458331
 20
176.48604058159719
 30
0.0
 10
23.376350911458331
 20
176.48604058159719
 30
0.0
 10
23.376350911458331
 20
178.48591851128469
 30
0.0
 10
23.376350911458331
 20
178.48591851128469
 30
0.0
 10
23.376350911458331
 20
179.03816731770831
 30
0.0
 10
23.824213324652774
 20
179.48602973090277
 30
0.0
 10
24.376117621527776
 20
179.48602973090277
 30
0.0
 10
24.376117621527776
 20
179.48602973090277
 30
0.0
 10
25.376573350694443
 20
179.48602973090277
 30
0.0
 10
25.376573350694443
 20
179.48602973090277
 30
0.0
 10
25.928477647569441
 20
179.48602973090277
 30
0.0
 10
26.376340060763887
 20
179.03816731770831
 30
0.0
 10
26.376340060763887
 20
178.48591851128469
 30
0.0
 10
26.376340060763887
 20
178.48591851128469
 30
0.0
 10
26.376340060763887
 20
176.48604058159719
 30
0.0
 10
26.376340060763887
 20
176.48604058159719
 30
0.0
  0
SPLINE
  5
AC
100
AcDbEntity
  8
CALQUE_1
 62
     7
100
AcDbSpline
210
0.0
220
0.0
230
1.0
 70
     8
 71
     3
 72
    29
 73
    25
 74
     0
 42
0.00000001
 43
0.00000001
 40
0.0
 40
0.0
 40
0.0
 40
0.0
 40
1.0
 40
1.0
 40
1.0
 40
2.0
 40
2.0
 40
2.0
 40
3.0
 40
3.0
 40
3.0
 40
4.0
 40
4.0
 40
4.0
 40
5.0
 40
5.0
 40
5.0
 40
6.0
 40
6.0
 40
6.0
 40
7.0
 40
7.0
 40
7.0
 40
8.0
 40
8.0
 40
8.0
 40
8.0
 10
37.752734374999996
 20
176.48604058159719
 30
0.0
 10
37.752734374999996
 20
175.93344726562498
 30
0.0
 10
37.304871961805553
 20
175.48592936197915
 30
0.0
 10
36.752967664930551
 20
175.48592936197915
 30
0.0
 10
36.752967664930551
 20
175.48592936197915
 30
0.0
 10
35.752511935763884
 20
175.48592936197915
 30
0.0
 10
35.752511935763884
 20
175.48592936197915
 30
0.0
 10
35.200607638888883
 20
175.48592936197915
 30
0.0
 10
34.75274522569444
 20
175.93344726562498
 30
0.0
 10
34.75274522569444
 20
176.48604058159719
 30
0.0
 10
34.75274522569444
 20
176.48604058159719
 30
0.0
 10
34.75274522569444
 20
178.48591851128469
 30
0.0
 10
34.75274522569444
 20
178.48591851128469
 30
0.0
 10
34.75274522569444
 20
179.03816731770831
 30
0.0
 10
35.200607638888883
 20
179.48602973090277
 30
0.0
 10
35.752511935763884
 20
179.48602973090277
 30
0.0
 10
35.752511935763884
 20
179.48602973090277
 30
0.0
 10
36.752967664930551
 20
179.48602973090277
 30
0.0
 10
36.752967664930551
 20
179.48602973090277
 30
0.0
 10
37.304871961805553
 20
179.48602973090277
 30
0.0
 10
37.752734374999996
 20
179.03816731770831
 30
0.0
 10
37.752734374999996
 20
178.48591851128469
 30
0.0
 10
37.752734374999996
 20
178.48591851128469
 30
0.0
 10
37.752734374999996
 20
176.48604058159719
 30
0.0
 10
37.752734374999996
 20
176.48604058159719
 30
0.0
  0
SPLINE
  5
AB
100
AcDbEntity
  8
CALQUE_1
 62
     7
100
AcDbSpline
210
0.0
220
0.0
230
1.0
 70
     8
 71
     3
 72
    29
 73
    25
 74
     0
 42
0.00000001
 43
0.00000001
 40
0.0
 40
0.0
 40
0.0
 40
0.0
 40
1.0
 40
1.0
 40
1.0
 40
2.0
 40
2.0
 40
2.0
 40
3.0
 40
3.0
 40
3.0
 40
4.0
 40
4.0
 40
4.0
 40
5.0
 40
5.0
 40
5.0
 40
6.0
 40
6.0
 40
6.0
 40
7.0
 40
7.0
 40
7.0
 40
8.0
 40
8.0
 40
8.0
 40
8.0
 10
49.129128689236104
 20
176.48604058159719
 30
0.0
 10
49.129128689236104
 20
175.93344726562498
 30
0.0
 10
48.681266276041661
 20
175.48592936197915
 30
0.0
 10
48.12936197916666
 20
175.48592936197915
 30
0.0
 10
48.12936197916666
 20
175.48592936197915
 30
0.0
 10
47.128906249999993
 20
175.48592936197915
 30
0.0
 10
47.128906249999993
 20
175.48592936197915
 30
0.0
 10
46.577001953124999
 20
175.48592936197915
 30
0.0
 10
46.129139539930549
 20
175.93344726562498
 30
0.0
 10
46.129139539930549
 20
176.48604058159719
 30
0.0
 10
46.129139539930549
 20
176.48604058159719
 30
0.0
 10
46.129139539930549
 20
178.48591851128469
 30
0.0
 10
46.129139539930549
 20
178.48591851128469
 30
0.0
 10
46.129139539930549
 20
179.03816731770831
 30
0.0
 10
46.577001953124999
 20
179.48602973090277
 30
0.0
 10
47.128906249999993
 20
179.48602973090277
 30
0.0
 10
47.128906249999993
 20
179.48602973090277
 30
0.0
 10
48.12936197916666
 20
179.48602973090277
 30
0.0
 10
48.12936197916666
 20
179.48602973090277
 30
0.0
 10
48.681266276041661
 20
179.48602973090277
 30
0.0
 10
49.129128689236104
 20
179.03816731770831
 30
0.0
 10
49.129128689236104
 20
178.48591851128469
 30
0.0
 10
49.129128689236104
 20
178.48591851128469
 30
0.0
 10
49.129128689236104
 20
176.48604058159719
 30
0.0
 10
49.129128689236104
 20
176.48604058159719
 30
0.0
  0
SPLINE
  5
AA
100
AcDbEntity
  8
CALQUE_1
 62
     7
100
AcDbSpline
210
0.0
220
0.0
230
1.0
 70
     8
 71
     3
 72
    29
 73
    25
 74
     0
 42
0.00000001
 43
0.00000001
 40
0.0
 40
0.0
 40
0.0
 40
0.0
 40
1.0
 40
1.0
 40
1.0
 40
2.0
 40
2.0
 40
2.0
 40
3.0
 40
3.0
 40
3.0
 40
4.0
 40
4.0
 40
4.0
 40
5.0
 40
5.0
 40
5.0
 40
6.0
 40
6.0
 40
6.0
 40
7.0
 40
7.0
 40
7.0
 40
8.0
 40
8.0
 40
8.0
 40
8.0
 10
60.50552300347222
 20
176.48604058159719
 30
0.0
 10
60.50552300347222
 20
175.93344726562498
 30
0.0
 10
60.05766059027777
 20
175.48592936197915
 30
0.0
 10
59.505756293402776
 20
175.48592936197915
 30
0.0
 10
59.505756293402776
 20
175.48592936197915
 30
0.0
 10
58.505300564236109
 20
175.48592936197915
 30
0.0
 10
58.505300564236109
 20
175.48592936197915
 30
0.0
 10
57.953396267361107
 20
175.48592936197915
 30
0.0
 10
57.505533854166664
 20
175.93344726562498
 30
0.0
 10
57.505533854166664
 20
176.48604058159719
 30
0.0
 10
57.505533854166664
 20
176.48604058159719
 30
0.0
 10
57.505533854166664
 20
178.48591851128469
 30
0.0
 10
57.505533854166664
 20
178.48591851128469
 30
0.0
 10
57.505533854166664
 20
179.03816731770831
 30
0.0
 10
57.953396267361107
 20
179.48602973090277
 30
0.0
 10
58.505300564236109
 20
179.48602973090277
 30
0.0
 10
58.505300564236109
 20
179.48602973090277
 30
0.0
 10
59.505756293402776
 20
179.48602973090277
 30
0.0
 10
59.505756293402776
 20
179.48602973090277
 30
0.0
 10
60.05766059027777
 20
179.48602973090277
 30
0.0
 10
60.50552300347222
 20
179.03816731770831
 30
0.0
 10
60.50552300347222
 20
178.48591851128469
 30
0.0
 10
60.50552300347222
 20
178.48591851128469
 30
0.0
 10
60.50552300347222
 20
176.48604058159719
 30
0.0
 10
60.50552300347222
 20
176.48604058159719
 30
0.0
  0
SPLINE
  5
A9
100
AcDbEntity
  8
CALQUE_1
 62
     7
100
AcDbSpline
210
0.0
220
0.0
230
1.0
 70
     8
 71
     3
 72
    29
 73
    25
 74
     0
 42
0.00000001
 43
0.00000001
 40
0.0
 40
0.0
 40
0.0
 40
0.0
 40
1.0
 40
1.0
 40
1.0
 40
2.0
 40
2.0
 40
2.0
 40
3.0
 40
3.0
 40
3.0
 40
4.0
 40
4.0
 40
4.0
 40
5.0
 40
5.0
 40
5.0
 40
6.0
 40
6.0
 40
6.0
 40
7.0
 40
7.0
 40
7.0
 40
8.0
 40
8.0
 40
8.0
 40
8.0
 10
71.881917317708329
 20
176.48604058159719
 30
0.0
 10
71.881917317708329
 20
175.93344726562498
 30
0.0
 10
71.434054904513886
 20
175.48592936197915
 30
0.0
 10
70.882150607638877
 20
175.48592936197915
 30
0.0
 10
70.882150607638877
 20
175.48592936197915
 30
0.0
 10
69.881694878472217
 20
175.48592936197915
 30
0.0
 10
69.881694878472217
 20
175.48592936197915
 30
0.0
 10
69.329790581597223
 20
175.48592936197915
 30
0.0
 10
68.881928168402766
 20
175.93344726562498
 30
0.0
 10
68.881928168402766
 20
176.48604058159719
 30
0.0
 10
68.881928168402766
 20
176.48604058159719
 30
0.0
 10
68.881928168402766
 20
178.48591851128469
 30
0.0
 10
68.881928168402766
 20
178.48591851128469
 30
0.0
 10
68.881928168402766
 20
179.03816731770831
 30
0.0
 10
69.329790581597223
 20
179.48602973090277
 30
0.0
 10
69.881694878472217
 20
179.48602973090277
 30
0.0
 10
69.881694878472217
 20
179.48602973090277
 30
0.0
 10
70.882150607638877
 20
179.48602973090277
 30
0.0
 10
70.882150607638877
 20
179.48602973090277
 30
0.0
 10
71.434054904513886
 20
179.48602973090277
 30
0.0
 10
71.881917317708329
 20
179.03816731770831
 30
0.0
 10
71.881917317708329
 20
178.48591851128469
 30
0.0
 10
71.881917317708329
 20
178.48591851128469
 30
0.0
 10
71.881917317708329
 20
176.48604058159719
 30
0.0
 10
71.881917317708329
 20
176.48604058159719
 30
0.0
  0
SPLINE
  5
A8
100
AcDbEntity
  8
CALQUE_1
 62
     7
100
AcDbSpline
210
0.0
220
0.0
230
1.0
 70
     8
 71
     3
 72
    29
 73
    25
 74
     0
 42
0.00000001
 43
0.00000001
 40
0.0
 40
0.0
 40
0.0
 40
0.0
 40
1.0
 40
1.0
 40
1.0
 40
2.0
 40
2.0
 40
2.0
 40
3.0
 40
3.0
 40
3.0
 40
4.0
 40
4.0
 40
4.0
 40
5.0
 40
5.0
 40
5.0
 40
6.0
 40
6.0
 40
6.0
 40
7.0
 40
7.0
 40
7.0
 40
8.0
 40
8.0
 40
8.0
 40
8.0
 10
83.258311631944437
 20
176.48604058159719
 30
0.0
 10
83.258311631944437
 20
175.93344726562498
 30
0.0
 10
82.810449218749994
 20
175.48592936197915
 30
0.0
 10
82.258544921874986
 20
175.48592936197915
 30
0.0
 10
82.258544921874986
 20
175.48592936197915
 30
0.0
 10
81.258089192708326
 20
175.48592936197915
 30
0.0
 10
81.258089192708326
 20
175.48592936197915
 30
0.0
 10
80.706184895833331
 20
175.48592936197915
 30
0.0
 10
80.258322482638889
 20
175.93344726562498
 30
0.0
 10
80.258322482638889
 20
176.48604058159719
 30
0.0
 10
80.258322482638889
 20
176.48604058159719
 30
0.0
 10
80.258322482638889
 20
178.48591851128469
 30
0.0
 10
80.258322482638889
 20
178.48591851128469
 30
0.0
 10
80.258322482638889
 20
179.03816731770831
 30
0.0
 10
80.706184895833331
 20
179.48602973090277
 30
0.0
 10
81.258089192708326
 20
179.48602973090277
 30
0.0
 10
81.258089192708326
 20
179.48602973090277
 30
0.0
 10
82.258544921874986
 20
179.48602973090277
 30
0.0
 10
82.258544921874986
 20
179.48602973090277
 30
0.0
 10
82.810449218749994
 20
179.48602973090277
 30
0.0
 10
83.258311631944437
 20
179.03816731770831
 30
0.0
 10
83.258311631944437
 20
178.48591851128469
 30
0.0
 10
83.258311631944437
 20
178.48591851128469
 30
0.0
 10
83.258311631944437
 20
176.48604058159719
 30
0.0
 10
83.258311631944437
 20
176.48604058159719
 30
0.0
  0
SPLINE
  5
A7
100
AcDbEntity
  8
CALQUE_1
 62
     7
100
AcDbSpline
210
0.0
220
0.0
230
1.0
 70
     8
 71
     3
 72
    29
 73
    25
 74
     0
 42
0.00000001
 43
0.00000001
 40
0.0
 40
0.0
 40
0.0
 40
0.0
 40
1.0
 40
1.0
 40
1.0
 40
2.0
 40
2.0
 40
2.0
 40
3.0
 40
3.0
 40
3.0
 40
4.0
 40
4.0
 40
4.0
 40
5.0
 40
5.0
 40
5.0
 40
6.0
 40
6.0
 40
6.0
 40
7.0
 40
7.0
 40
7.0
 40
8.0
 40
8.0
 40
8.0
 40
8.0
 10
94.634705946180546
 20
176.48604058159719
 30
0.0
 10
94.634705946180546
 20
175.93344726562498
 30
0.0
 10
94.186843532986103
 20
175.48592936197915
 30
0.0
 10
93.634939236111109
 20
175.48592936197915
 30
0.0
 10
93.634939236111109
 20
175.48592936197915
 30
0.0
 10
92.634483506944434
 20
175.48592936197915
 30
0.0
 10
92.634483506944434
 20
175.48592936197915
 30
0.0
 10
92.08257921006944
 20
175.48592936197915
 30
0.0
 10
91.634716796874997
 20
175.93344726562498
 30
0.0
 10
91.634716796874997
 20
176.48604058159719
 30
0.0
 10
91.634716796874997
 20
176.48604058159719
 30
0.0
 10
91.634716796874997
 20
178.48591851128469
 30
0.0
 10
91.634716796874997
 20
178.48591851128469
 30
0.0
 10
91.634716796874997
 20
179.03816731770831
 30
0.0
 10
92.08257921006944
 20
179.48602973090277
 30
0.0
 10
92.634483506944434
 20
179.48602973090277
 30
0.0
 10
92.634483506944434
 20
179.48602973090277
 30
0.0
 10
93.634939236111109
 20
179.48602973090277
 30
0.0
 10
93.634939236111109
 20
179.48602973090277
 30
0.0
 10
94.186843532986103
 20
179.48602973090277
 30
0.0
 10
94.634705946180546
 20
179.03816731770831
 30
0.0
 10
94.634705946180546
 20
178.48591851128469
 30
0.0
 10
94.634705946180546
 20
178.48591851128469
 30
0.0
 10
94.634705946180546
 20
176.48604058159719
 30
0.0
 10
94.634705946180546
 20
176.48604058159719
 30
0.0
  0
SPLINE
  5
A6
100
AcDbEntity
  8
CALQUE_1
 62
     7
100
AcDbSpline
210
0.0
220
0.0
230
1.0
 70
     8
 71
     3
 72
    29
 73
    25
 74
     0
 42
0.00000001
 43
0.00000001
 40
0.0
 40
0.0
 40
0.0
 40
0.0
 40
1.0
 40
1.0
 40
1.0
 40
2.0
 40
2.0
 40
2.0
 40
3.0
 40
3.0
 40
3.0
 40
4.0
 40
4.0
 40
4.0
 40
5.0
 40
5.0
 40
5.0
 40
6.0
 40
6.0
 40
6.0
 40
7.0
 40
7.0
 40
7.0
 40
8.0
 40
8.0
 40
8.0
 40
8.0
 10
106.01110026041665
 20
176.48604058159719
 30
0.0
 10
106.01110026041665
 20
175.93344726562498
 30
0.0
 10
105.56323784722221
 20
175.48592936197915
 30
0.0
 10
105.01133355034722
 20
175.48592936197915
 30
0.0
 10
105.01133355034722
 20
175.48592936197915
 30
0.0
 10
104.01087782118054
 20
175.48592936197915
 30
0.0
 10
104.01087782118054
 20
175.48592936197915
 30
0.0
 10
103.45897352430555
 20
175.48592936197915
 30
0.0
 10
103.01111111111111
 20
175.93344726562498
 30
0.0
 10
103.01111111111111
 20
176.48604058159719
 30
0.0
 10
103.01111111111111
 20
176.48604058159719
 30
0.0
 10
103.01111111111111
 20
178.48591851128469
 30
0.0
 10
103.01111111111111
 20
178.48591851128469
 30
0.0
 10
103.01111111111111
 20
179.03816731770831
 30
0.0
 10
103.45897352430555
 20
179.48602973090277
 30
0.0
 10
104.01087782118054
 20
179.48602973090277
 30
0.0
 10
104.01087782118054
 20
179.48602973090277
 30
0.0
 10
105.01133355034722
 20
179.48602973090277
 30
0.0
 10
105.01133355034722
 20
179.48602973090277
 30
0.0
 10
105.56323784722221
 20
179.48602973090277
 30
0.0
 10
106.01110026041665
 20
179.03816731770831
 30
0.0
 10
106.01110026041665
 20
178.48591851128469
 30
0.0
 10
106.01110026041665
 20
178.48591851128469
 30
0.0
 10
106.01110026041665
 20
176.48604058159719
 30
0.0
 10
106.01110026041665
 20
176.48604058159719
 30
0.0
  0
SPLINE
  5
A5
100
AcDbEntity
  8
CALQUE_1
 62
     7
100
AcDbSpline
210
0.0
220
0.0
230
1.0
 70
     8
 71
     3
 72
    29
 73
    25
 74
     0
 42
0.00000001
 43
0.00000001
 40
0.0
 40
0.0
 40
0.0
 40
0.0
 40
1.0
 40
1.0
 40
1.0
 40
2.0
 40
2.0
 40
2.0
 40
3.0
 40
3.0
 40
3.0
 40
4.0
 40
4.0
 40
4.0
 40
5.0
 40
5.0
 40
5.0
 40
6.0
 40
6.0
 40
6.0
 40
7.0
 40
7.0
 40
7.0
 40
8.0
 40
8.0
 40
8.0
 40
8.0
 10
117.38749457465276
 20
176.48604058159719
 30
0.0
 10
117.38749457465276
 20
175.93344726562498
 30
0.0
 10
116.93963216145832
 20
175.48592936197915
 30
0.0
 10
116.38772786458333
 20
175.48592936197915
 30
0.0
 10
116.38772786458333
 20
175.48592936197915
 30
0.0
 10
115.38727213541665
 20
175.48592936197915
 30
0.0
 10
115.38727213541665
 20
175.48592936197915
 30
0.0
 10
114.83536783854166
 20
175.48592936197915
 30
0.0
 10
114.38750542534721
 20
175.93344726562498
 30
0.0
 10
114.38750542534721
 20
176.48604058159719
 30
0.0
 10
114.38750542534721
 20
176.48604058159719
 30
0.0
 10
114.38750542534721
 20
178.48591851128469
 30
0.0
 10
114.38750542534721
 20
178.48591851128469
 30
0.0
 10
114.38750542534721
 20
179.03816731770831
 30
0.0
 10
114.83536783854166
 20
179.48602973090277
 30
0.0
 10
115.38727213541665
 20
179.48602973090277
 30
0.0
 10
115.38727213541665
 20
179.48602973090277
 30
0.0
 10
116.38772786458333
 20
179.48602973090277
 30
0.0
 10
116.38772786458333
 20
179.48602973090277
 30
0.0
 10
116.93963216145832
 20
179.48602973090277
 30
0.0
 10
117.38749457465276
 20
179.03816731770831
 30
0.0
 10
117.38749457465276
 20
178.48591851128469
 30
0.0
 10
117.38749457465276
 20
178.48591851128469
 30
0.0
 10
117.38749457465276
 20
176.48604058159719
 30
0.0
 10
117.38749457465276
 20
176.48604058159719
 30
0.0
  0
SPLINE
  5
A4
100
AcDbEntity
  8
CALQUE_1
 62
     7
100
AcDbSpline
210
0.0
220
0.0
230
1.0
 70
     8
 71
     3
 72
    29
 73
    25
 74
     0
 42
0.00000001
 43
0.00000001
 40
0.0
 40
0.0
 40
0.0
 40
0.0
 40
1.0
 40
1.0
 40
1.0
 40
2.0
 40
2.0
 40
2.0
 40
3.0
 40
3.0
 40
3.0
 40
4.0
 40
4.0
 40
4.0
 40
5.0
 40
5.0
 40
5.0
 40
6.0
 40
6.0
 40
6.0
 40
7.0
 40
7.0
 40
7.0
 40
8.0
 40
8.0
 40
8.0
 40
8.0
 10
128.76388888888889
 20
176.48604058159719
 30
0.0
 10
128.76388888888889
 20
175.93344726562498
 30
0.0
 10
128.31602647569443
 20
175.48592936197915
 30
0.0
 10
127.76412217881943
 20
175.48592936197915
 30
0.0
 10
127.76412217881943
 20
175.48592936197915
 30
0.0
 10
126.76366644965276
 20
175.48592936197915
 30
0.0
 10
126.76366644965276
 20
175.48592936197915
 30
0.0
 10
126.21176215277777
 20
175.48592936197915
 30
0.0
 10
125.76389973958332
 20
175.93344726562498
 30
0.0
 10
125.76389973958332
 20
176.48604058159719
 30
0.0
 10
125.76389973958332
 20
176.48604058159719
 30
0.0
 10
125.76389973958332
 20
178.48591851128469
 30
0.0
 10
125.76389973958332
 20
178.48591851128469
 30
0.0
 10
125.76389973958332
 20
179.03816731770831
 30
0.0
 10
126.21176215277777
 20
179.48602973090277
 30
0.0
 10
126.76366644965276
 20
179.48602973090277
 30
0.0
 10
126.76366644965276
 20
179.48602973090277
 30
0.0
 10
127.76412217881943
 20
179.48602973090277
 30
0.0
 10
127.76412217881943
 20
179.48602973090277
 30
0.0
 10
128.31602647569443
 20
179.48602973090277
 30
0.0
 10
128.76388888888889
 20
179.03816731770831
 30
0.0
 10
128.76388888888889
 20
178.48591851128469
 30
0.0
 10
128.76388888888889
 20
178.48591851128469
 30
0.0
 10
128.76388888888889
 20
176.48604058159719
 30
0.0
 10
128.76388888888889
 20
176.48604058159719
 30
0.0
  0
SPLINE
  5
A3
100
AcDbEntity
  8
CALQUE_1
 62
     7
100
AcDbSpline
210
0.0
220
0.0
230
1.0
 70
     8
 71
     3
 72
    29
 73
    25
 74
     0
 42
0.00000001
 43
0.00000001
 40
0.0
 40
0.0
 40
0.0
 40
0.0
 40
1.0
 40
1.0
 40
1.0
 40
2.0
 40
2.0
 40
2.0
 40
3.0
 40
3.0
 40
3.0
 40
4.0
 40
4.0
 40
4.0
 40
5.0
 40
5.0
 40
5.0
 40
6.0
 40
6.0
 40
6.0
 40
7.0
 40
7.0
 40
7.0
 40
8.0
 40
8.0
 40
8.0
 40
8.0
 10
140.14028320312499
 20
176.48604058159719
 30
0.0
 10
140.14028320312499
 20
175.93344726562498
 30
0.0
 10
139.69242078993054
 20
175.48592936197915
 30
0.0
 10
139.14051649305554
 20
175.48592936197915
 30
0.0
 10
139.14051649305554
 20
175.48592936197915
 30
0.0
 10
138.14006076388887
 20
175.48592936197915
 30
0.0
 10
138.14006076388887
 20
175.48592936197915
 30
0.0
 10
137.58815646701387
 20
175.48592936197915
 30
0.0
 10
137.14029405381945
 20
175.93344726562498
 30
0.0
 10
137.14029405381945
 20
176.48604058159719
 30
0.0
 10
137.14029405381945
 20
176.48604058159719
 30
0.0
 10
137.14029405381945
 20
178.48591851128469
 30
0.0
 10
137.14029405381945
 20
178.48591851128469
 30
0.0
 10
137.14029405381945
 20
179.03816731770831
 30
0.0
 10
137.58815646701387
 20
179.48602973090277
 30
0.0
 10
138.14006076388887
 20
179.48602973090277
 30
0.0
 10
138.14006076388887
 20
179.48602973090277
 30
0.0
 10
139.14051649305554
 20
179.48602973090277
 30
0.0
 10
139.14051649305554
 20
179.48602973090277
 30
0.0
 10
139.69242078993054
 20
179.48602973090277
 30
0.0
 10
140.14028320312499
 20
179.03816731770831
 30
0.0
 10
140.14028320312499
 20
178.48591851128469
 30
0.0
 10
140.14028320312499
 20
178.48591851128469
 30
0.0
 10
140.14028320312499
 20
176.48604058159719
 30
0.0
 10
140.14028320312499
 20
176.48604058159719
 30
0.0
  0
SPLINE
  5
A2
100
AcDbEntity
  8
CALQUE_1
 62
     7
100
AcDbSpline
210
0.0
220
0.0
230
1.0
 70
     8
 71
     3
 72
    29
 73
    25
 74
     0
 42
0.00000001
 43
0.00000001
 40
0.0
 40
0.0
 40
0.0
 40
0.0
 40
1.0
 40
1.0
 40
1.0
 40
2.0
 40
2.0
 40
2.0
 40
3.0
 40
3.0
 40
3.0
 40
4.0
 40
4.0
 40
4.0
 40
5.0
 40
5.0
 40
5.0
 40
6.0
 40
6.0
 40
6.0
 40
7.0
 40
7.0
 40
7.0
 40
8.0
 40
8.0
 40
8.0
 40
8.0
 10
151.5166775173611
 20
176.48604058159719
 30
0.0
 10
151.5166775173611
 20
175.93344726562498
 30
0.0
 10
151.06881510416665
 20
175.48592936197915
 30
0.0
 10
150.51691080729165
 20
175.48592936197915
 30
0.0
 10
150.51691080729165
 20
175.48592936197915
 30
0.0
 10
149.51645507812498
 20
175.48592936197915
 30
0.0
 10
149.51645507812498
 20
175.48592936197915
 30
0.0
 10
148.96455078124998
 20
175.48592936197915
 30
0.0
 10
148.51668836805555
 20
175.93344726562498
 30
0.0
 10
148.51668836805555
 20
176.48604058159719
 30
0.0
 10
148.51668836805555
 20
176.48604058159719
 30
0.0
 10
148.51668836805555
 20
178.48591851128469
 30
0.0
 10
148.51668836805555
 20
178.48591851128469
 30
0.0
 10
148.51668836805555
 20
179.03816731770831
 30
0.0
 10
148.96455078124998
 20
179.48602973090277
 30
0.0
 10
149.51645507812498
 20
179.48602973090277
 30
0.0
 10
149.51645507812498
 20
179.48602973090277
 30
0.0
 10
150.51691080729165
 20
179.48602973090277
 30
0.0
 10
150.51691080729165
 20
179.48602973090277
 30
0.0
 10
151.06881510416665
 20
179.48602973090277
 30
0.0
 10
151.5166775173611
 20
179.03816731770831
 30
0.0
 10
151.5166775173611
 20
178.48591851128469
 30
0.0
 10
151.5166775173611
 20
178.48591851128469
 30
0.0
 10
151.5166775173611
 20
176.48604058159719
 30
0.0
 10
151.5166775173611
 20
176.48604058159719
 30
0.0
  0
SPLINE
  5
A1
100
AcDbEntity
  8
CALQUE_1
 62
     7
100
AcDbSpline
210
0.0
220
0.0
230
1.0
 70
     8
 71
     3
 72
    29
 73
    25
 74
     0
 42
0.00000001
 43
0.00000001
 40
0.0
 40
0.0
 40
0.0
 40
0.0
 40
1.0
 40
1.0
 40
1.0
 40
2.0
 40
2.0
 40
2.0
 40
3.0
 40
3.0
 40
3.0
 40
4.0
 40
4.0
 40
4.0
 40
5.0
 40
5.0
 40
5.0
 40
6.0
 40
6.0
 40
6.0
 40
7.0
 40
7.0
 40
7.0
 40
8.0
 40
8.0
 40
8.0
 40
8.0
 10
162.89307183159721
 20
176.48604058159719
 30
0.0
 10
162.89307183159721
 20
175.93344726562498
 30
0.0
 10
162.44520941840275
 20
175.48592936197915
 30
0.0
 10
161.89330512152776
 20
175.48592936197915
 30
0.0
 10
161.89330512152776
 20
175.48592936197915
 30
0.0
 10
160.89284939236109
 20
175.48592936197915
 30
0.0
 10
160.89284939236109
 20
175.48592936197915
 30
0.0
 10
160.34094509548609
 20
175.48592936197915
 30
0.0
 10
159.89308268229166
 20
175.93344726562498
 30
0.0
 10
159.89308268229166
 20
176.48604058159719
 30
0.0
 10
159.89308268229166
 20
176.48604058159719
 30
0.0
 10
159.89308268229166
 20
178.48591851128469
 30
0.0
 10
159.89308268229166
 20
178.48591851128469
 30
0.0
 10
159.89308268229166
 20
179.03816731770831
 30
0.0
 10
160.34094509548609
 20
179.48602973090277
 30
0.0
 10
160.89284939236109
 20
179.48602973090277
 30
0.0
 10
160.89284939236109
 20
179.48602973090277
 30
0.0
 10
161.89330512152776
 20
179.48602973090277
 30
0.0
 10
161.89330512152776
 20
179.48602973090277
 30
0.0
 10
162.44520941840275
 20
179.48602973090277
 30
0.0
 10
162.89307183159721
 20
179.03816731770831
 30
0.0
 10
162.89307183159721
 20
178.48591851128469
 30
0.0
 10
162.89307183159721
 20
178.48591851128469
 30
0.0
 10
162.89307183159721
 20
176.48604058159719
 30
0.0
 10
162.89307183159721
 20
176.48604058159719
 30
0.0
  0
SPLINE
  5
A0
100
AcDbEntity
  8
CALQUE_1
 62
     7
100
AcDbSpline
210
0.0
220
0.0
230
1.0
 70
     8
 71
     3
 72
    29
 73
    25
 74
     0
 42
0.00000001
 43
0.00000001
 40
0.0
 40
0.0
 40
0.0
 40
0.0
 40
1.0
 40
1.0
 40
1.0
 40
2.0
 40
2.0
 40
2.0
 40
3.0
 40
3.0
 40
3.0
 40
4.0
 40
4.0
 40
4.0
 40
5.0
 40
5.0
 40
5.0
 40
6.0
 40
6.0
 40
6.0
 40
7.0
 40
7.0
 40
7.0
 40
8.0
 40
8.0
 40
8.0
 40
8.0
 10
174.26946614583332
 20
176.48604058159719
 30
0.0
 10
174.26946614583332
 20
175.93344726562498
 30
0.0
 10
173.82160373263886
 20
175.48592936197915
 30
0.0
 10
173.26969943576387
 20
175.48592936197915
 30
0.0
 10
173.26969943576387
 20
175.48592936197915
 30
0.0
 10
172.26924370659719
 20
175.48592936197915
 30
0.0
 10
172.26924370659719
 20
175.48592936197915
 30
0.0
 10
171.7173394097222
 20
175.48592936197915
 30
0.0
 10
171.26947699652777
 20
175.93344726562498
 30
0.0
 10
171.26947699652777
 20
176.48604058159719
 30
0.0
 10
171.26947699652777
 20
176.48604058159719
 30
0.0
 10
171.26947699652777
 20
178.48591851128469
 30
0.0
 10
171.26947699652777
 20
178.48591851128469
 30
0.0
 10
171.26947699652777
 20
179.03816731770831
 30
0.0
 10
171.7173394097222
 20
179.48602973090277
 30
0.0
 10
172.26924370659719
 20
179.48602973090277
 30
0.0
 10
172.26924370659719
 20
179.48602973090277
 30
0.0
 10
173.26969943576387
 20
179.48602973090277
 30
0.0
 10
173.26969943576387
 20
179.48602973090277
 30
0.0
 10
173.82160373263886
 20
179.48602973090277
 30
0.0
 10
174.26946614583332
 20
179.03816731770831
 30
0.0
 10
174.26946614583332
 20
178.48591851128469
 30
0.0
 10
174.26946614583332
 20
178.48591851128469
 30
0.0
 10
174.26946614583332
 20
176.48604058159719
 30
0.0
 10
174.26946614583332
 20
176.48604058159719
 30
0.0
  0
SPLINE
  5
9F
100
AcDbEntity
  8
CALQUE_1
 62
     7
100
AcDbSpline
210
0.0
220
0.0
230
1.0
 70
     8
 71
     3
 72
    29
 73
    25
 74
     0
 42
0.00000001
 43
0.00000001
 40
0.0
 40
0.0
 40
0.0
 40
0.0
 40
1.0
 40
1.0
 40
1.0
 40
2.0
 40
2.0
 40
2.0
 40
3.0
 40
3.0
 40
3.0
 40
4.0
 40
4.0
 40
4.0
 40
5.0
 40
5.0
 40
5.0
 40
6.0
 40
6.0
 40
6.0
 40
7.0
 40
7.0
 40
7.0
 40
8.0
 40
8.0
 40
8.0
 40
8.0
 10
185.64586046006943
 20
176.48604058159719
 30
0.0
 10
185.64586046006943
 20
175.93344726562498
 30
0.0
 10
185.19799804687497
 20
175.48592936197915
 30
0.0
 10
184.64609374999998
 20
175.48592936197915
 30
0.0
 10
184.64609374999998
 20
175.48592936197915
 30
0.0
 10
183.6456380208333
 20
175.48592936197915
 30
0.0
 10
183.6456380208333
 20
175.48592936197915
 30
0.0
 10
183.09373372395831
 20
175.48592936197915
 30
0.0
 10
182.64587131076388
 20
175.93344726562498
 30
0.0
 10
182.64587131076388
 20
176.48604058159719
 30
0.0
 10
182.64587131076388
 20
176.48604058159719
 30
0.0
 10
182.64587131076388
 20
178.48591851128469
 30
0.0
 10
182.64587131076388
 20
178.48591851128469
 30
0.0
 10
182.64587131076388
 20
179.03816731770831
 30
0.0
 10
183.09373372395831
 20
179.48602973090277
 30
0.0
 10
183.6456380208333
 20
179.48602973090277
 30
0.0
 10
183.6456380208333
 20
179.48602973090277
 30
0.0
 10
184.64609374999998
 20
179.48602973090277
 30
0.0
 10
184.64609374999998
 20
179.48602973090277
 30
0.0
 10
185.19799804687497
 20
179.48602973090277
 30
0.0
 10
185.64586046006943
 20
179.03816731770831
 30
0.0
 10
185.64586046006943
 20
178.48591851128469
 30
0.0
 10
185.64586046006943
 20
178.48591851128469
 30
0.0
 10
185.64586046006943
 20
176.48604058159719
 30
0.0
 10
185.64586046006943
 20
176.48604058159719
 30
0.0
  0
SPLINE
  5
9E
100
AcDbEntity
  8
CALQUE_1
 62
     7
100
AcDbSpline
210
0.0
220
0.0
230
1.0
 70
     8
 71
     3
 72
    29
 73
    25
 74
     0
 42
0.00000001
 43
0.00000001
 40
0.0
 40
0.0
 40
0.0
 40
0.0
 40
1.0
 40
1.0
 40
1.0
 40
2.0
 40
2.0
 40
2.0
 40
3.0
 40
3.0
 40
3.0
 40
4.0
 40
4.0
 40
4.0
 40
5.0
 40
5.0
 40
5.0
 40
6.0
 40
6.0
 40
6.0
 40
7.0
 40
7.0
 40
7.0
 40
8.0
 40
8.0
 40
8.0
 40
8.0
 10
14.999945746527777
 20
167.31381835937498
 30
0.0
 10
14.999945746527777
 20
166.76122504340276
 30
0.0
 10
14.552083333333332
 20
166.31370713975693
 30
0.0
 10
14.000179036458333
 20
166.31370713975693
 30
0.0
 10
14.000179036458333
 20
166.31370713975693
 30
0.0
 10
12.999723307291665
 20
166.31370713975693
 30
0.0
 10
12.999723307291665
 20
166.31370713975693
 30
0.0
 10
12.447819010416666
 20
166.31370713975693
 30
0.0
 10
11.999956597222221
 20
166.76122504340276
 30
0.0
 10
11.999956597222221
 20
167.31381835937498
 30
0.0
 10
11.999956597222221
 20
167.31381835937498
 30
0.0
 10
11.999956597222221
 20
169.31369628906248
 30
0.0
 10
11.999956597222221
 20
169.31369628906248
 30
0.0
 10
11.999956597222221
 20
169.8659450954861
 30
0.0
 10
12.447819010416666
 20
170.31380750868053
 30
0.0
 10
12.999723307291665
 20
170.31380750868053
 30
0.0
 10
12.999723307291665
 20
170.31380750868053
 30
0.0
 10
14.000179036458333
 20
170.31380750868053
 30
0.0
 10
14.000179036458333
 20
170.31380750868053
 30
0.0
 10
14.552083333333332
 20
170.31380750868053
 30
0.0
 10
14.999945746527777
 20
169.8659450954861
 30
0.0
 10
14.999945746527777
 20
169.31369628906248
 30
0.0
 10
14.999945746527777
 20
169.31369628906248
 30
0.0
 10
14.999945746527777
 20
167.31381835937498
 30
0.0
 10
14.999945746527777
 20
167.31381835937498
 30
0.0
  0
SPLINE
  5
9D
100
AcDbEntity
  8
CALQUE_1
 62
     7
100
AcDbSpline
210
0.0
220
0.0
230
1.0
 70
     8
 71
     3
 72
    29
 73
    25
 74
     0
 42
0.00000001
 43
0.00000001
 40
0.0
 40
0.0
 40
0.0
 40
0.0
 40
1.0
 40
1.0
 40
1.0
 40
2.0
 40
2.0
 40
2.0
 40
3.0
 40
3.0
 40
3.0
 40
4.0
 40
4.0
 40
4.0
 40
5.0
 40
5.0
 40
5.0
 40
6.0
 40
6.0
 40
6.0
 40
7.0
 40
7.0
 40
7.0
 40
8.0
 40
8.0
 40
8.0
 40
8.0
 10
26.376340060763887
 20
167.31381835937498
 30
0.0
 10
26.376340060763887
 20
166.76122504340276
 30
0.0
 10
25.928477647569441
 20
166.31370713975693
 30
0.0
 10
25.376573350694443
 20
166.31370713975693
 30
0.0
 10
25.376573350694443
 20
166.31370713975693
 30
0.0
 10
24.376117621527776
 20
166.31370713975693
 30
0.0
 10
24.376117621527776
 20
166.31370713975693
 30
0.0
 10
23.824213324652774
 20
166.31370713975693
 30
0.0
 10
23.376350911458331
 20
166.76122504340276
 30
0.0
 10
23.376350911458331
 20
167.31381835937498
 30
0.0
 10
23.376350911458331
 20
167.31381835937498
 30
0.0
 10
23.376350911458331
 20
169.31369628906248
 30
0.0
 10
23.376350911458331
 20
169.31369628906248
 30
0.0
 10
23.376350911458331
 20
169.8659450954861
 30
0.0
 10
23.824213324652774
 20
170.31380750868053
 30
0.0
 10
24.376117621527776
 20
170.31380750868053
 30
0.0
 10
24.376117621527776
 20
170.31380750868053
 30
0.0
 10
25.376573350694443
 20
170.31380750868053
 30
0.0
 10
25.376573350694443
 20
170.31380750868053
 30
0.0
 10
25.928477647569441
 20
170.31380750868053
 30
0.0
 10
26.376340060763887
 20
169.8659450954861
 30
0.0
 10
26.376340060763887
 20
169.31369628906248
 30
0.0
 10
26.376340060763887
 20
169.31369628906248
 30
0.0
 10
26.376340060763887
 20
167.31381835937498
 30
0.0
 10
26.376340060763887
 20
167.31381835937498
 30
0.0
  0
SPLINE
  5
9C
100
AcDbEntity
  8
CALQUE_1
 62
     7
100
AcDbSpline
210
0.0
220
0.0
230
1.0
 70
     8
 71
     3
 72
    29
 73
    25
 74
     0
 42
0.00000001
 43
0.00000001
 40
0.0
 40
0.0
 40
0.0
 40
0.0
 40
1.0
 40
1.0
 40
1.0
 40
2.0
 40
2.0
 40
2.0
 40
3.0
 40
3.0
 40
3.0
 40
4.0
 40
4.0
 40
4.0
 40
5.0
 40
5.0
 40
5.0
 40
6.0
 40
6.0
 40
6.0
 40
7.0
 40
7.0
 40
7.0
 40
8.0
 40
8.0
 40
8.0
 40
8.0
 10
37.752734374999996
 20
167.31381835937498
 30
0.0
 10
37.752734374999996
 20
166.76122504340276
 30
0.0
 10
37.304871961805553
 20
166.31370713975693
 30
0.0
 10
36.752967664930551
 20
166.31370713975693
 30
0.0
 10
36.752967664930551
 20
166.31370713975693
 30
0.0
 10
35.752511935763884
 20
166.31370713975693
 30
0.0
 10
35.752511935763884
 20
166.31370713975693
 30
0.0
 10
35.200607638888883
 20
166.31370713975693
 30
0.0
 10
34.75274522569444
 20
166.76122504340276
 30
0.0
 10
34.75274522569444
 20
167.31381835937498
 30
0.0
 10
34.75274522569444
 20
167.31381835937498
 30
0.0
 10
34.75274522569444
 20
169.31369628906248
 30
0.0
 10
34.75274522569444
 20
169.31369628906248
 30
0.0
 10
34.75274522569444
 20
169.8659450954861
 30
0.0
 10
35.200607638888883
 20
170.31380750868053
 30
0.0
 10
35.752511935763884
 20
170.31380750868053
 30
0.0
 10
35.752511935763884
 20
170.31380750868053
 30
0.0
 10
36.752967664930551
 20
170.31380750868053
 30
0.0
 10
36.752967664930551
 20
170.31380750868053
 30
0.0
 10
37.304871961805553
 20
170.31380750868053
 30
0.0
 10
37.752734374999996
 20
169.8659450954861
 30
0.0
 10
37.752734374999996
 20
169.31369628906248
 30
0.0
 10
37.752734374999996
 20
169.31369628906248
 30
0.0
 10
37.752734374999996
 20
167.31381835937498
 30
0.0
 10
37.752734374999996
 20
167.31381835937498
 30
0.0
  0
SPLINE
  5
9B
100
AcDbEntity
  8
CALQUE_1
 62
     7
100
AcDbSpline
210
0.0
220
0.0
230
1.0
 70
     8
 71
     3
 72
    29
 73
    25
 74
     0
 42
0.00000001
 43
0.00000001
 40
0.0
 40
0.0
 40
0.0
 40
0.0
 40
1.0
 40
1.0
 40
1.0
 40
2.0
 40
2.0
 40
2.0
 40
3.0
 40
3.0
 40
3.0
 40
4.0
 40
4.0
 40
4.0
 40
5.0
 40
5.0
 40
5.0
 40
6.0
 40
6.0
 40
6.0
 40
7.0
 40
7.0
 40
7.0
 40
8.0
 40
8.0
 40
8.0
 40
8.0
 10
49.129128689236104
 20
167.31381835937498
 30
0.0
 10
49.129128689236104
 20
166.76122504340276
 30
0.0
 10
48.681266276041661
 20
166.31370713975693
 30
0.0
 10
48.12936197916666
 20
166.31370713975693
 30
0.0
 10
48.12936197916666
 20
166.31370713975693
 30
0.0
 10
47.128906249999993
 20
166.31370713975693
 30
0.0
 10
47.128906249999993
 20
166.31370713975693
 30
0.0
 10
46.577001953124999
 20
166.31370713975693
 30
0.0
 10
46.129139539930549
 20
166.76122504340276
 30
0.0
 10
46.129139539930549
 20
167.31381835937498
 30
0.0
 10
46.129139539930549
 20
167.31381835937498
 30
0.0
 10
46.129139539930549
 20
169.31369628906248
 30
0.0
 10
46.129139539930549
 20
169.31369628906248
 30
0.0
 10
46.129139539930549
 20
169.8659450954861
 30
0.0
 10
46.577001953124999
 20
170.31380750868053
 30
0.0
 10
47.128906249999993
 20
170.31380750868053
 30
0.0
 10
47.128906249999993
 20
170.31380750868053
 30
0.0
 10
48.12936197916666
 20
170.31380750868053
 30
0.0
 10
48.12936197916666
 20
170.31380750868053
 30
0.0
 10
48.681266276041661
 20
170.31380750868053
 30
0.0
 10
49.129128689236104
 20
169.8659450954861
 30
0.0
 10
49.129128689236104
 20
169.31369628906248
 30
0.0
 10
49.129128689236104
 20
169.31369628906248
 30
0.0
 10
49.129128689236104
 20
167.31381835937498
 30
0.0
 10
49.129128689236104
 20
167.31381835937498
 30
0.0
  0
SPLINE
  5
9A
100
AcDbEntity
  8
CALQUE_1
 62
     7
100
AcDbSpline
210
0.0
220
0.0
230
1.0
 70
     8
 71
     3
 72
    29
 73
    25
 74
     0
 42
0.00000001
 43
0.00000001
 40
0.0
 40
0.0
 40
0.0
 40
0.0
 40
1.0
 40
1.0
 40
1.0
 40
2.0
 40
2.0
 40
2.0
 40
3.0
 40
3.0
 40
3.0
 40
4.0
 40
4.0
 40
4.0
 40
5.0
 40
5.0
 40
5.0
 40
6.0
 40
6.0
 40
6.0
 40
7.0
 40
7.0
 40
7.0
 40
8.0
 40
8.0
 40
8.0
 40
8.0
 10
60.50552300347222
 20
167.31381835937498
 30
0.0
 10
60.50552300347222
 20
166.76122504340276
 30
0.0
 10
60.05766059027777
 20
166.31370713975693
 30
0.0
 10
59.505756293402776
 20
166.31370713975693
 30
0.0
 10
59.505756293402776
 20
166.31370713975693
 30
0.0
 10
58.505300564236109
 20
166.31370713975693
 30
0.0
 10
58.505300564236109
 20
166.31370713975693
 30
0.0
 10
57.953396267361107
 20
166.31370713975693
 30
0.0
 10
57.505533854166664
 20
166.76122504340276
 30
0.0
 10
57.505533854166664
 20
167.31381835937498
 30
0.0
 10
57.505533854166664
 20
167.31381835937498
 30
0.0
 10
57.505533854166664
 20
169.31369628906248
 30
0.0
 10
57.505533854166664
 20
169.31369628906248
 30
0.0
 10
57.505533854166664
 20
169.8659450954861
 30
0.0
 10
57.953396267361107
 20
170.31380750868053
 30
0.0
 10
58.505300564236109
 20
170.31380750868053
 30
0.0
 10
58.505300564236109
 20
170.31380750868053
 30
0.0
 10
59.505756293402776
 20
170.31380750868053
 30
0.0
 10
59.505756293402776
 20
170.31380750868053
 30
0.0
 10
60.05766059027777
 20
170.31380750868053
 30
0.0
 10
60.50552300347222
 20
169.8659450954861
 30
0.0
 10
60.50552300347222
 20
169.31369628906248
 30
0.0
 10
60.50552300347222
 20
169.31369628906248
 30
0.0
 10
60.50552300347222
 20
167.31381835937498
 30
0.0
 10
60.50552300347222
 20
167.31381835937498
 30
0.0
  0
SPLINE
  5
99
100
AcDbEntity
  8
CALQUE_1
 62
     7
100
AcDbSpline
210
0.0
220
0.0
230
1.0
 70
     8
 71
     3
 72
    29
 73
    25
 74
     0
 42
0.00000001
 43
0.00000001
 40
0.0
 40
0.0
 40
0.0
 40
0.0
 40
1.0
 40
1.0
 40
1.0
 40
2.0
 40
2.0
 40
2.0
 40
3.0
 40
3.0
 40
3.0
 40
4.0
 40
4.0
 40
4.0
 40
5.0
 40
5.0
 40
5.0
 40
6.0
 40
6.0
 40
6.0
 40
7.0
 40
7.0
 40
7.0
 40
8.0
 40
8.0
 40
8.0
 40
8.0
 10
71.881917317708329
 20
167.31381835937498
 30
0.0
 10
71.881917317708329
 20
166.76122504340276
 30
0.0
 10
71.434054904513886
 20
166.31370713975693
 30
0.0
 10
70.882150607638877
 20
166.31370713975693
 30
0.0
 10
70.882150607638877
 20
166.31370713975693
 30
0.0
 10
69.881694878472217
 20
166.31370713975693
 30
0.0
 10
69.881694878472217
 20
166.31370713975693
 30
0.0
 10
69.329790581597223
 20
166.31370713975693
 30
0.0
 10
68.881928168402766
 20
166.76122504340276
 30
0.0
 10
68.881928168402766
 20
167.31381835937498
 30
0.0
 10
68.881928168402766
 20
167.31381835937498
 30
0.0
 10
68.881928168402766
 20
169.31369628906248
 30
0.0
 10
68.881928168402766
 20
169.31369628906248
 30
0.0
 10
68.881928168402766
 20
169.8659450954861
 30
0.0
 10
69.329790581597223
 20
170.31380750868053
 30
0.0
 10
69.881694878472217
 20
170.31380750868053
 30
0.0
 10
69.881694878472217
 20
170.31380750868053
 30
0.0
 10
70.882150607638877
 20
170.31380750868053
 30
0.0
 10
70.882150607638877
 20
170.31380750868053
 30
0.0
 10
71.434054904513886
 20
170.31380750868053
 30
0.0
 10
71.881917317708329
 20
169.8659450954861
 30
0.0
 10
71.881917317708329
 20
169.31369628906248
 30
0.0
 10
71.881917317708329
 20
169.31369628906248
 30
0.0
 10
71.881917317708329
 20
167.31381835937498
 30
0.0
 10
71.881917317708329
 20
167.31381835937498
 30
0.0
  0
SPLINE
  5
98
100
AcDbEntity
  8
CALQUE_1
 62
     7
100
AcDbSpline
210
0.0
220
0.0
230
1.0
 70
     8
 71
     3
 72
    29
 73
    25
 74
     0
 42
0.00000001
 43
0.00000001
 40
0.0
 40
0.0
 40
0.0
 40
0.0
 40
1.0
 40
1.0
 40
1.0
 40
2.0
 40
2.0
 40
2.0
 40
3.0
 40
3.0
 40
3.0
 40
4.0
 40
4.0
 40
4.0
 40
5.0
 40
5.0
 40
5.0
 40
6.0
 40
6.0
 40
6.0
 40
7.0
 40
7.0
 40
7.0
 40
8.0
 40
8.0
 40
8.0
 40
8.0
 10
83.258311631944437
 20
167.31381835937498
 30
0.0
 10
83.258311631944437
 20
166.76122504340276
 30
0.0
 10
82.810449218749994
 20
166.31370713975693
 30
0.0
 10
82.258544921874986
 20
166.31370713975693
 30
0.0
 10
82.258544921874986
 20
166.31370713975693
 30
0.0
 10
81.258089192708326
 20
166.31370713975693
 30
0.0
 10
81.258089192708326
 20
166.31370713975693
 30
0.0
 10
80.706184895833331
 20
166.31370713975693
 30
0.0
 10
80.258322482638889
 20
166.76122504340276
 30
0.0
 10
80.258322482638889
 20
167.31381835937498
 30
0.0
 10
80.258322482638889
 20
167.31381835937498
 30
0.0
 10
80.258322482638889
 20
169.31369628906248
 30
0.0
 10
80.258322482638889
 20
169.31369628906248
 30
0.0
 10
80.258322482638889
 20
169.8659450954861
 30
0.0
 10
80.706184895833331
 20
170.31380750868053
 30
0.0
 10
81.258089192708326
 20
170.31380750868053
 30
0.0
 10
81.258089192708326
 20
170.31380750868053
 30
0.0
 10
82.258544921874986
 20
170.31380750868053
 30
0.0
 10
82.258544921874986
 20
170.31380750868053
 30
0.0
 10
82.810449218749994
 20
170.31380750868053
 30
0.0
 10
83.258311631944437
 20
169.8659450954861
 30
0.0
 10
83.258311631944437
 20
169.31369628906248
 30
0.0
 10
83.258311631944437
 20
169.31369628906248
 30
0.0
 10
83.258311631944437
 20
167.31381835937498
 30
0.0
 10
83.258311631944437
 20
167.31381835937498
 30
0.0
  0
SPLINE
  5
97
100
AcDbEntity
  8
CALQUE_1
 62
     7
100
AcDbSpline
210
0.0
220
0.0
230
1.0
 70
     8
 71
     3
 72
    29
 73
    25
 74
     0
 42
0.00000001
 43
0.00000001
 40
0.0
 40
0.0
 40
0.0
 40
0.0
 40
1.0
 40
1.0
 40
1.0
 40
2.0
 40
2.0
 40
2.0
 40
3.0
 40
3.0
 40
3.0
 40
4.0
 40
4.0
 40
4.0
 40
5.0
 40
5.0
 40
5.0
 40
6.0
 40
6.0
 40
6.0
 40
7.0
 40
7.0
 40
7.0
 40
8.0
 40
8.0
 40
8.0
 40
8.0
 10
94.634705946180546
 20
167.31381835937498
 30
0.0
 10
94.634705946180546
 20
166.76122504340276
 30
0.0
 10
94.186843532986103
 20
166.31370713975693
 30
0.0
 10
93.634939236111109
 20
166.31370713975693
 30
0.0
 10
93.634939236111109
 20
166.31370713975693
 30
0.0
 10
92.634483506944434
 20
166.31370713975693
 30
0.0
 10
92.634483506944434
 20
166.31370713975693
 30
0.0
 10
92.08257921006944
 20
166.31370713975693
 30
0.0
 10
91.634716796874997
 20
166.76122504340276
 30
0.0
 10
91.634716796874997
 20
167.31381835937498
 30
0.0
 10
91.634716796874997
 20
167.31381835937498
 30
0.0
 10
91.634716796874997
 20
169.31369628906248
 30
0.0
 10
91.634716796874997
 20
169.31369628906248
 30
0.0
 10
91.634716796874997
 20
169.8659450954861
 30
0.0
 10
92.08257921006944
 20
170.31380750868053
 30
0.0
 10
92.634483506944434
 20
170.31380750868053
 30
0.0
 10
92.634483506944434
 20
170.31380750868053
 30
0.0
 10
93.634939236111109
 20
170.31380750868053
 30
0.0
 10
93.634939236111109
 20
170.31380750868053
 30
0.0
 10
94.186843532986103
 20
170.31380750868053
 30
0.0
 10
94.634705946180546
 20
169.8659450954861
 30
0.0
 10
94.634705946180546
 20
169.31369628906248
 30
0.0
 10
94.634705946180546
 20
169.31369628906248
 30
0.0
 10
94.634705946180546
 20
167.31381835937498
 30
0.0
 10
94.634705946180546
 20
167.31381835937498
 30
0.0
  0
SPLINE
  5
96
100
AcDbEntity
  8
CALQUE_1
 62
     7
100
AcDbSpline
210
0.0
220
0.0
230
1.0
 70
     8
 71
     3
 72
    29
 73
    25
 74
     0
 42
0.00000001
 43
0.00000001
 40
0.0
 40
0.0
 40
0.0
 40
0.0
 40
1.0
 40
1.0
 40
1.0
 40
2.0
 40
2.0
 40
2.0
 40
3.0
 40
3.0
 40
3.0
 40
4.0
 40
4.0
 40
4.0
 40
5.0
 40
5.0
 40
5.0
 40
6.0
 40
6.0
 40
6.0
 40
7.0
 40
7.0
 40
7.0
 40
8.0
 40
8.0
 40
8.0
 40
8.0
 10
106.01110026041665
 20
167.31381835937498
 30
0.0
 10
106.01110026041665
 20
166.76122504340276
 30
0.0
 10
105.56323784722221
 20
166.31370713975693
 30
0.0
 10
105.01133355034722
 20
166.31370713975693
 30
0.0
 10
105.01133355034722
 20
166.31370713975693
 30
0.0
 10
104.01087782118054
 20
166.31370713975693
 30
0.0
 10
104.01087782118054
 20
166.31370713975693
 30
0.0
 10
103.45897352430555
 20
166.31370713975693
 30
0.0
 10
103.01111111111111
 20
166.76122504340276
 30
0.0
 10
103.01111111111111
 20
167.31381835937498
 30
0.0
 10
103.01111111111111
 20
167.31381835937498
 30
0.0
 10
103.01111111111111
 20
169.31369628906248
 30
0.0
 10
103.01111111111111
 20
169.31369628906248
 30
0.0
 10
103.01111111111111
 20
169.8659450954861
 30
0.0
 10
103.45897352430555
 20
170.31380750868053
 30
0.0
 10
104.01087782118054
 20
170.31380750868053
 30
0.0
 10
104.01087782118054
 20
170.31380750868053
 30
0.0
 10
105.01133355034722
 20
170.31380750868053
 30
0.0
 10
105.01133355034722
 20
170.31380750868053
 30
0.0
 10
105.56323784722221
 20
170.31380750868053
 30
0.0
 10
106.01110026041665
 20
169.8659450954861
 30
0.0
 10
106.01110026041665
 20
169.31369628906248
 30
0.0
 10
106.01110026041665
 20
169.31369628906248
 30
0.0
 10
106.01110026041665
 20
167.31381835937498
 30
0.0
 10
106.01110026041665
 20
167.31381835937498
 30
0.0
  0
SPLINE
  5
95
100
AcDbEntity
  8
CALQUE_1
 62
     7
100
AcDbSpline
210
0.0
220
0.0
230
1.0
 70
     8
 71
     3
 72
    29
 73
    25
 74
     0
 42
0.00000001
 43
0.00000001
 40
0.0
 40
0.0
 40
0.0
 40
0.0
 40
1.0
 40
1.0
 40
1.0
 40
2.0
 40
2.0
 40
2.0
 40
3.0
 40
3.0
 40
3.0
 40
4.0
 40
4.0
 40
4.0
 40
5.0
 40
5.0
 40
5.0
 40
6.0
 40
6.0
 40
6.0
 40
7.0
 40
7.0
 40
7.0
 40
8.0
 40
8.0
 40
8.0
 40
8.0
 10
117.38749457465276
 20
167.31381835937498
 30
0.0
 10
117.38749457465276
 20
166.76122504340276
 30
0.0
 10
116.93963216145832
 20
166.31370713975693
 30
0.0
 10
116.38772786458333
 20
166.31370713975693
 30
0.0
 10
116.38772786458333
 20
166.31370713975693
 30
0.0
 10
115.38727213541665
 20
166.31370713975693
 30
0.0
 10
115.38727213541665
 20
166.31370713975693
 30
0.0
 10
114.83536783854166
 20
166.31370713975693
 30
0.0
 10
114.38750542534721
 20
166.76122504340276
 30
0.0
 10
114.38750542534721
 20
167.31381835937498
 30
0.0
 10
114.38750542534721
 20
167.31381835937498
 30
0.0
 10
114.38750542534721
 20
169.31369628906248
 30
0.0
 10
114.38750542534721
 20
169.31369628906248
 30
0.0
 10
114.38750542534721
 20
169.8659450954861
 30
0.0
 10
114.83536783854166
 20
170.31380750868053
 30
0.0
 10
115.38727213541665
 20
170.31380750868053
 30
0.0
 10
115.38727213541665
 20
170.31380750868053
 30
0.0
 10
116.38772786458333
 20
170.31380750868053
 30
0.0
 10
116.38772786458333
 20
170.31380750868053
 30
0.0
 10
116.93963216145832
 20
170.31380750868053
 30
0.0
 10
117.38749457465276
 20
169.8659450954861
 30
0.0
 10
117.38749457465276
 20
169.31369628906248
 30
0.0
 10
117.38749457465276
 20
169.31369628906248
 30
0.0
 10
117.38749457465276
 20
167.31381835937498
 30
0.0
 10
117.38749457465276
 20
167.31381835937498
 30
0.0
  0
SPLINE
  5
94
100
AcDbEntity
  8
CALQUE_1
 62
     7
100
AcDbSpline
210
0.0
220
0.0
230
1.0
 70
     8
 71
     3
 72
    29
 73
    25
 74
     0
 42
0.00000001
 43
0.00000001
 40
0.0
 40
0.0
 40
0.0
 40
0.0
 40
1.0
 40
1.0
 40
1.0
 40
2.0
 40
2.0
 40
2.0
 40
3.0
 40
3.0
 40
3.0
 40
4.0
 40
4.0
 40
4.0
 40
5.0
 40
5.0
 40
5.0
 40
6.0
 40
6.0
 40
6.0
 40
7.0
 40
7.0
 40
7.0
 40
8.0
 40
8.0
 40
8.0
 40
8.0
 10
128.76388888888889
 20
167.31381835937498
 30
0.0
 10
128.76388888888889
 20
166.76122504340276
 30
0.0
 10
128.31602647569443
 20
166.31370713975693
 30
0.0
 10
127.76412217881943
 20
166.31370713975693
 30
0.0
 10
127.76412217881943
 20
166.31370713975693
 30
0.0
 10
126.76366644965276
 20
166.31370713975693
 30
0.0
 10
126.76366644965276
 20
166.31370713975693
 30
0.0
 10
126.21176215277777
 20
166.31370713975693
 30
0.0
 10
125.76389973958332
 20
166.76122504340276
 30
0.0
 10
125.76389973958332
 20
167.31381835937498
 30
0.0
 10
125.76389973958332
 20
167.31381835937498
 30
0.0
 10
125.76389973958332
 20
169.31369628906248
 30
0.0
 10
125.76389973958332
 20
169.31369628906248
 30
0.0
 10
125.76389973958332
 20
169.8659450954861
 30
0.0
 10
126.21176215277777
 20
170.31380750868053
 30
0.0
 10
126.76366644965276
 20
170.31380750868053
 30
0.0
 10
126.76366644965276
 20
170.31380750868053
 30
0.0
 10
127.76412217881943
 20
170.31380750868053
 30
0.0
 10
127.76412217881943
 20
170.31380750868053
 30
0.0
 10
128.31602647569443
 20
170.31380750868053
 30
0.0
 10
128.76388888888889
 20
169.8659450954861
 30
0.0
 10
128.76388888888889
 20
169.31369628906248
 30
0.0
 10
128.76388888888889
 20
169.31369628906248
 30
0.0
 10
128.76388888888889
 20
167.31381835937498
 30
0.0
 10
128.76388888888889
 20
167.31381835937498
 30
0.0
  0
SPLINE
  5
93
100
AcDbEntity
  8
CALQUE_1
 62
     7
100
AcDbSpline
210
0.0
220
0.0
230
1.0
 70
     8
 71
     3
 72
    29
 73
    25
 74
     0
 42
0.00000001
 43
0.00000001
 40
0.0
 40
0.0
 40
0.0
 40
0.0
 40
1.0
 40
1.0
 40
1.0
 40
2.0
 40
2.0
 40
2.0
 40
3.0
 40
3.0
 40
3.0
 40
4.0
 40
4.0
 40
4.0
 40
5.0
 40
5.0
 40
5.0
 40
6.0
 40
6.0
 40
6.0
 40
7.0
 40
7.0
 40
7.0
 40
8.0
 40
8.0
 40
8.0
 40
8.0
 10
140.14028320312499
 20
167.31381835937498
 30
0.0
 10
140.14028320312499
 20
166.76122504340276
 30
0.0
 10
139.69242078993054
 20
166.31370713975693
 30
0.0
 10
139.14051649305554
 20
166.31370713975693
 30
0.0
 10
139.14051649305554
 20
166.31370713975693
 30
0.0
 10
138.14006076388887
 20
166.31370713975693
 30
0.0
 10
138.14006076388887
 20
166.31370713975693
 30
0.0
 10
137.58815646701387
 20
166.31370713975693
 30
0.0
 10
137.14029405381945
 20
166.76122504340276
 30
0.0
 10
137.14029405381945
 20
167.31381835937498
 30
0.0
 10
137.14029405381945
 20
167.31381835937498
 30
0.0
 10
137.14029405381945
 20
169.31369628906248
 30
0.0
 10
137.14029405381945
 20
169.31369628906248
 30
0.0
 10
137.14029405381945
 20
169.8659450954861
 30
0.0
 10
137.58815646701387
 20
170.31380750868053
 30
0.0
 10
138.14006076388887
 20
170.31380750868053
 30
0.0
 10
138.14006076388887
 20
170.31380750868053
 30
0.0
 10
139.14051649305554
 20
170.31380750868053
 30
0.0
 10
139.14051649305554
 20
170.31380750868053
 30
0.0
 10
139.69242078993054
 20
170.31380750868053
 30
0.0
 10
140.14028320312499
 20
169.8659450954861
 30
0.0
 10
140.14028320312499
 20
169.31369628906248
 30
0.0
 10
140.14028320312499
 20
169.31369628906248
 30
0.0
 10
140.14028320312499
 20
167.31381835937498
 30
0.0
 10
140.14028320312499
 20
167.31381835937498
 30
0.0
  0
SPLINE
  5
92
100
AcDbEntity
  8
CALQUE_1
 62
     7
100
AcDbSpline
210
0.0
220
0.0
230
1.0
 70
     8
 71
     3
 72
    29
 73
    25
 74
     0
 42
0.00000001
 43
0.00000001
 40
0.0
 40
0.0
 40
0.0
 40
0.0
 40
1.0
 40
1.0
 40
1.0
 40
2.0
 40
2.0
 40
2.0
 40
3.0
 40
3.0
 40
3.0
 40
4.0
 40
4.0
 40
4.0
 40
5.0
 40
5.0
 40
5.0
 40
6.0
 40
6.0
 40
6.0
 40
7.0
 40
7.0
 40
7.0
 40
8.0
 40
8.0
 40
8.0
 40
8.0
 10
151.5166775173611
 20
167.31381835937498
 30
0.0
 10
151.5166775173611
 20
166.76122504340276
 30
0.0
 10
151.06881510416665
 20
166.31370713975693
 30
0.0
 10
150.51691080729165
 20
166.31370713975693
 30
0.0
 10
150.51691080729165
 20
166.31370713975693
 30
0.0
 10
149.51645507812498
 20
166.31370713975693
 30
0.0
 10
149.51645507812498
 20
166.31370713975693
 30
0.0
 10
148.96455078124998
 20
166.31370713975693
 30
0.0
 10
148.51668836805555
 20
166.76122504340276
 30
0.0
 10
148.51668836805555
 20
167.31381835937498
 30
0.0
 10
148.51668836805555
 20
167.31381835937498
 30
0.0
 10
148.51668836805555
 20
169.31369628906248
 30
0.0
 10
148.51668836805555
 20
169.31369628906248
 30
0.0
 10
148.51668836805555
 20
169.8659450954861
 30
0.0
 10
148.96455078124998
 20
170.31380750868053
 30
0.0
 10
149.51645507812498
 20
170.31380750868053
 30
0.0
 10
149.51645507812498
 20
170.31380750868053
 30
0.0
 10
150.51691080729165
 20
170.31380750868053
 30
0.0
 10
150.51691080729165
 20
170.31380750868053
 30
0.0
 10
151.06881510416665
 20
170.31380750868053
 30
0.0
 10
151.5166775173611
 20
169.8659450954861
 30
0.0
 10
151.5166775173611
 20
169.31369628906248
 30
0.0
 10
151.5166775173611
 20
169.31369628906248
 30
0.0
 10
151.5166775173611
 20
167.31381835937498
 30
0.0
 10
151.5166775173611
 20
167.31381835937498
 30
0.0
  0
SPLINE
  5
91
100
AcDbEntity
  8
CALQUE_1
 62
     7
100
AcDbSpline
210
0.0
220
0.0
230
1.0
 70
     8
 71
     3
 72
    29
 73
    25
 74
     0
 42
0.00000001
 43
0.00000001
 40
0.0
 40
0.0
 40
0.0
 40
0.0
 40
1.0
 40
1.0
 40
1.0
 40
2.0
 40
2.0
 40
2.0
 40
3.0
 40
3.0
 40
3.0
 40
4.0
 40
4.0
 40
4.0
 40
5.0
 40
5.0
 40
5.0
 40
6.0
 40
6.0
 40
6.0
 40
7.0
 40
7.0
 40
7.0
 40
8.0
 40
8.0
 40
8.0
 40
8.0
 10
162.89307183159721
 20
167.31381835937498
 30
0.0
 10
162.89307183159721
 20
166.76122504340276
 30
0.0
 10
162.44520941840275
 20
166.31370713975693
 30
0.0
 10
161.89330512152776
 20
166.31370713975693
 30
0.0
 10
161.89330512152776
 20
166.31370713975693
 30
0.0
 10
160.89284939236109
 20
166.31370713975693
 30
0.0
 10
160.89284939236109
 20
166.31370713975693
 30
0.0
 10
160.34094509548609
 20
166.31370713975693
 30
0.0
 10
159.89308268229166
 20
166.76122504340276
 30
0.0
 10
159.89308268229166
 20
167.31381835937498
 30
0.0
 10
159.89308268229166
 20
167.31381835937498
 30
0.0
 10
159.89308268229166
 20
169.31369628906248
 30
0.0
 10
159.89308268229166
 20
169.31369628906248
 30
0.0
 10
159.89308268229166
 20
169.8659450954861
 30
0.0
 10
160.34094509548609
 20
170.31380750868053
 30
0.0
 10
160.89284939236109
 20
170.31380750868053
 30
0.0
 10
160.89284939236109
 20
170.31380750868053
 30
0.0
 10
161.89330512152776
 20
170.31380750868053
 30
0.0
 10
161.89330512152776
 20
170.31380750868053
 30
0.0
 10
162.44520941840275
 20
170.31380750868053
 30
0.0
 10
162.89307183159721
 20
169.8659450954861
 30
0.0
 10
162.89307183159721
 20
169.31369628906248
 30
0.0
 10
162.89307183159721
 20
169.31369628906248
 30
0.0
 10
162.89307183159721
 20
167.31381835937498
 30
0.0
 10
162.89307183159721
 20
167.31381835937498
 30
0.0
  0
SPLINE
  5
90
100
AcDbEntity
  8
CALQUE_1
 62
     7
100
AcDbSpline
210
0.0
220
0.0
230
1.0
 70
     8
 71
     3
 72
    29
 73
    25
 74
     0
 42
0.00000001
 43
0.00000001
 40
0.0
 40
0.0
 40
0.0
 40
0.0
 40
1.0
 40
1.0
 40
1.0
 40
2.0
 40
2.0
 40
2.0
 40
3.0
 40
3.0
 40
3.0
 40
4.0
 40
4.0
 40
4.0
 40
5.0
 40
5.0
 40
5.0
 40
6.0
 40
6.0
 40
6.0
 40
7.0
 40
7.0
 40
7.0
 40
8.0
 40
8.0
 40
8.0
 40
8.0
 10
174.26946614583332
 20
167.31381835937498
 30
0.0
 10
174.26946614583332
 20
166.76122504340276
 30
0.0
 10
173.82160373263886
 20
166.31370713975693
 30
0.0
 10
173.26969943576387
 20
166.31370713975693
 30
0.0
 10
173.26969943576387
 20
166.31370713975693
 30
0.0
 10
172.26924370659719
 20
166.31370713975693
 30
0.0
 10
172.26924370659719
 20
166.31370713975693
 30
0.0
 10
171.7173394097222
 20
166.31370713975693
 30
0.0
 10
171.26947699652777
 20
166.76122504340276
 30
0.0
 10
171.26947699652777
 20
167.31381835937498
 30
0.0
 10
171.26947699652777
 20
167.31381835937498
 30
0.0
 10
171.26947699652777
 20
169.31369628906248
 30
0.0
 10
171.26947699652777
 20
169.31369628906248
 30
0.0
 10
171.26947699652777
 20
169.8659450954861
 30
0.0
 10
171.7173394097222
 20
170.31380750868053
 30
0.0
 10
172.26924370659719
 20
170.31380750868053
 30
0.0
 10
172.26924370659719
 20
170.31380750868053
 30
0.0
 10
173.26969943576387
 20
170.31380750868053
 30
0.0
 10
173.26969943576387
 20
170.31380750868053
 30
0.0
 10
173.82160373263886
 20
170.31380750868053
 30
0.0
 10
174.26946614583332
 20
169.8659450954861
 30
0.0
 10
174.26946614583332
 20
169.31369628906248
 30
0.0
 10
174.26946614583332
 20
169.31369628906248
 30
0.0
 10
174.26946614583332
 20
167.31381835937498
 30
0.0
 10
174.26946614583332
 20
167.31381835937498
 30
0.0
  0
SPLINE
  5
8F
100
AcDbEntity
  8
CALQUE_1
 62
     7
100
AcDbSpline
210
0.0
220
0.0
230
1.0
 70
     8
 71
     3
 72
    29
 73
    25
 74
     0
 42
0.00000001
 43
0.00000001
 40
0.0
 40
0.0
 40
0.0
 40
0.0
 40
1.0
 40
1.0
 40
1.0
 40
2.0
 40
2.0
 40
2.0
 40
3.0
 40
3.0
 40
3.0
 40
4.0
 40
4.0
 40
4.0
 40
5.0
 40
5.0
 40
5.0
 40
6.0
 40
6.0
 40
6.0
 40
7.0
 40
7.0
 40
7.0
 40
8.0
 40
8.0
 40
8.0
 40
8.0
 10
185.64586046006943
 20
167.31381835937498
 30
0.0
 10
185.64586046006943
 20
166.76122504340276
 30
0.0
 10
185.19799804687497
 20
166.31370713975693
 30
0.0
 10
184.64609374999998
 20
166.31370713975693
 30
0.0
 10
184.64609374999998
 20
166.31370713975693
 30
0.0
 10
183.6456380208333
 20
166.31370713975693
 30
0.0
 10
183.6456380208333
 20
166.31370713975693
 30
0.0
 10
183.09373372395831
 20
166.31370713975693
 30
0.0
 10
182.64587131076388
 20
166.76122504340276
 30
0.0
 10
182.64587131076388
 20
167.31381835937498
 30
0.0
 10
182.64587131076388
 20
167.31381835937498
 30
0.0
 10
182.64587131076388
 20
169.31369628906248
 30
0.0
 10
182.64587131076388
 20
169.31369628906248
 30
0.0
 10
182.64587131076388
 20
169.8659450954861
 30
0.0
 10
183.09373372395831
 20
170.31380750868053
 30
0.0
 10
183.6456380208333
 20
170.31380750868053
 30
0.0
 10
183.6456380208333
 20
170.31380750868053
 30
0.0
 10
184.64609374999998
 20
170.31380750868053
 30
0.0
 10
184.64609374999998
 20
170.31380750868053
 30
0.0
 10
185.19799804687497
 20
170.31380750868053
 30
0.0
 10
185.64586046006943
 20
169.8659450954861
 30
0.0
 10
185.64586046006943
 20
169.31369628906248
 30
0.0
 10
185.64586046006943
 20
169.31369628906248
 30
0.0
 10
185.64586046006943
 20
167.31381835937498
 30
0.0
 10
185.64586046006943
 20
167.31381835937498
 30
0.0
  0
SPLINE
  5
8E
100
AcDbEntity
  8
CALQUE_1
 62
     7
100
AcDbSpline
210
0.0
220
0.0
230
1.0
 70
     8
 71
     3
 72
    29
 73
    25
 74
     0
 42
0.00000001
 43
0.00000001
 40
0.0
 40
0.0
 40
0.0
 40
0.0
 40
1.0
 40
1.0
 40
1.0
 40
2.0
 40
2.0
 40
2.0
 40
3.0
 40
3.0
 40
3.0
 40
4.0
 40
4.0
 40
4.0
 40
5.0
 40
5.0
 40
5.0
 40
6.0
 40
6.0
 40
6.0
 40
7.0
 40
7.0
 40
7.0
 40
8.0
 40
8.0
 40
8.0
 40
8.0
 10
12.451953124999999
 20
151.79159613715277
 30
0.0
 10
12.451953124999999
 20
151.23900282118055
 30
0.0
 10
12.004090711805555
 20
150.79148491753472
 30
0.0
 10
11.452186414930555
 20
150.79148491753472
 30
0.0
 10
11.452186414930555
 20
150.79148491753472
 30
0.0
 10
10.451730685763888
 20
150.79148491753472
 30
0.0
 10
10.451730685763888
 20
150.79148491753472
 30
0.0
 10
9.8998263888888882
 20
150.79148491753472
 30
0.0
 10
9.4519639756944436
 20
151.23900282118055
 30
0.0
 10
9.4519639756944436
 20
151.79159613715277
 30
0.0
 10
9.4519639756944436
 20
151.79159613715277
 30
0.0
 10
9.4519639756944436
 20
153.79147406684027
 30
0.0
 10
9.4519639756944436
 20
153.79147406684027
 30
0.0
 10
9.4519639756944436
 20
154.34372287326389
 30
0.0
 10
9.8998263888888882
 20
154.79158528645831
 30
0.0
 10
10.451730685763888
 20
154.79158528645831
 30
0.0
 10
10.451730685763888
 20
154.79158528645831
 30
0.0
 10
11.452186414930555
 20
154.79158528645831
 30
0.0
 10
11.452186414930555
 20
154.79158528645831
 30
0.0
 10
12.004090711805555
 20
154.79158528645831
 30
0.0
 10
12.451953124999999
 20
154.34372287326389
 30
0.0
 10
12.451953124999999
 20
153.79147406684027
 30
0.0
 10
12.451953124999999
 20
153.79147406684027
 30
0.0
 10
12.451953124999999
 20
151.79159613715277
 30
0.0
 10
12.451953124999999
 20
151.79159613715277
 30
0.0
  0
SPLINE
  5
8D
100
AcDbEntity
  8
CALQUE_1
 62
     7
100
AcDbSpline
210
0.0
220
0.0
230
1.0
 70
     8
 71
     3
 72
    29
 73
    25
 74
     0
 42
0.00000001
 43
0.00000001
 40
0.0
 40
0.0
 40
0.0
 40
0.0
 40
1.0
 40
1.0
 40
1.0
 40
2.0
 40
2.0
 40
2.0
 40
3.0
 40
3.0
 40
3.0
 40
4.0
 40
4.0
 40
4.0
 40
5.0
 40
5.0
 40
5.0
 40
6.0
 40
6.0
 40
6.0
 40
7.0
 40
7.0
 40
7.0
 40
8.0
 40
8.0
 40
8.0
 40
8.0
 10
23.589257812499998
 20
151.79159613715277
 30
0.0
 10
23.589257812499998
 20
151.23900282118055
 30
0.0
 10
23.141395399305555
 20
150.79148491753472
 30
0.0
 10
22.589491102430554
 20
150.79148491753472
 30
0.0
 10
22.589491102430554
 20
150.79148491753472
 30
0.0
 10
21.589035373263886
 20
150.79148491753472
 30
0.0
 10
21.589035373263886
 20
150.79148491753472
 30
0.0
 10
21.037131076388889
 20
150.79148491753472
 30
0.0
 10
20.589268663194442
 20
151.23900282118055
 30
0.0
 10
20.589268663194442
 20
151.79159613715277
 30
0.0
 10
20.589268663194442
 20
151.79159613715277
 30
0.0
 10
20.589268663194442
 20
153.79147406684027
 30
0.0
 10
20.589268663194442
 20
153.79147406684027
 30
0.0
 10
20.589268663194442
 20
154.34372287326389
 30
0.0
 10
21.037131076388889
 20
154.79158528645831
 30
0.0
 10
21.589035373263886
 20
154.79158528645831
 30
0.0
 10
21.589035373263886
 20
154.79158528645831
 30
0.0
 10
22.589491102430554
 20
154.79158528645831
 30
0.0
 10
22.589491102430554
 20
154.79158528645831
 30
0.0
 10
23.141395399305555
 20
154.79158528645831
 30
0.0
 10
23.589257812499998
 20
154.34372287326389
 30
0.0
 10
23.589257812499998
 20
153.79147406684027
 30
0.0
 10
23.589257812499998
 20
153.79147406684027
 30
0.0
 10
23.589257812499998
 20
151.79159613715277
 30
0.0
 10
23.589257812499998
 20
151.79159613715277
 30
0.0
  0
SPLINE
  5
8C
100
AcDbEntity
  8
CALQUE_1
 62
     7
100
AcDbSpline
210
0.0
220
0.0
230
1.0
 70
     8
 71
     3
 72
    29
 73
    25
 74
     0
 42
0.00000001
 43
0.00000001
 40
0.0
 40
0.0
 40
0.0
 40
0.0
 40
1.0
 40
1.0
 40
1.0
 40
2.0
 40
2.0
 40
2.0
 40
3.0
 40
3.0
 40
3.0
 40
4.0
 40
4.0
 40
4.0
 40
5.0
 40
5.0
 40
5.0
 40
6.0
 40
6.0
 40
6.0
 40
7.0
 40
7.0
 40
7.0
 40
8.0
 40
8.0
 40
8.0
 40
8.0
 10
34.7265625
 20
151.79159613715277
 30
0.0
 10
34.7265625
 20
151.23900282118055
 30
0.0
 10
34.27870008680555
 20
150.79148491753472
 30
0.0
 10
33.726795789930556
 20
150.79148491753472
 30
0.0
 10
33.726795789930556
 20
150.79148491753472
 30
0.0
 10
32.726340060763889
 20
150.79148491753472
 30
0.0
 10
32.726340060763889
 20
150.79148491753472
 30
0.0
 10
32.174435763888887
 20
150.79148491753472
 30
0.0
 10
31.726573350694441
 20
151.23900282118055
 30
0.0
 10
31.726573350694441
 20
151.79159613715277
 30
0.0
 10
31.726573350694441
 20
151.79159613715277
 30
0.0
 10
31.726573350694441
 20
153.79147406684027
 30
0.0
 10
31.726573350694441
 20
153.79147406684027
 30
0.0
 10
31.726573350694441
 20
154.34372287326389
 30
0.0
 10
32.174435763888887
 20
154.79158528645831
 30
0.0
 10
32.726340060763889
 20
154.79158528645831
 30
0.0
 10
32.726340060763889
 20
154.79158528645831
 30
0.0
 10
33.726795789930556
 20
154.79158528645831
 30
0.0
 10
33.726795789930556
 20
154.79158528645831
 30
0.0
 10
34.27870008680555
 20
154.79158528645831
 30
0.0
 10
34.7265625
 20
154.34372287326389
 30
0.0
 10
34.7265625
 20
153.79147406684027
 30
0.0
 10
34.7265625
 20
153.79147406684027
 30
0.0
 10
34.7265625
 20
151.79159613715277
 30
0.0
 10
34.7265625
 20
151.79159613715277
 30
0.0
  0
SPLINE
  5
8B
100
AcDbEntity
  8
CALQUE_1
 62
     7
100
AcDbSpline
210
0.0
220
0.0
230
1.0
 70
     8
 71
     3
 72
    29
 73
    25
 74
     0
 42
0.00000001
 43
0.00000001
 40
0.0
 40
0.0
 40
0.0
 40
0.0
 40
1.0
 40
1.0
 40
1.0
 40
2.0
 40
2.0
 40
2.0
 40
3.0
 40
3.0
 40
3.0
 40
4.0
 40
4.0
 40
4.0
 40
5.0
 40
5.0
 40
5.0
 40
6.0
 40
6.0
 40
6.0
 40
7.0
 40
7.0
 40
7.0
 40
8.0
 40
8.0
 40
8.0
 40
8.0
 10
45.863867187499999
 20
151.79159613715277
 30
0.0
 10
45.863867187499999
 20
151.23900282118055
 30
0.0
 10
45.416004774305549
 20
150.79148491753472
 30
0.0
 10
44.864100477430554
 20
150.79148491753472
 30
0.0
 10
44.864100477430554
 20
150.79148491753472
 30
0.0
 10
43.863644748263887
 20
150.79148491753472
 30
0.0
 10
43.863644748263887
 20
150.79148491753472
 30
0.0
 10
43.311740451388886
 20
150.79148491753472
 30
0.0
 10
42.863878038194443
 20
151.23900282118055
 30
0.0
 10
42.863878038194443
 20
151.79159613715277
 30
0.0
 10
42.863878038194443
 20
151.79159613715277
 30
0.0
 10
42.863878038194443
 20
153.79147406684027
 30
0.0
 10
42.863878038194443
 20
153.79147406684027
 30
0.0
 10
42.863878038194443
 20
154.34372287326389
 30
0.0
 10
43.311740451388886
 20
154.79158528645831
 30
0.0
 10
43.863644748263887
 20
154.79158528645831
 30
0.0
 10
43.863644748263887
 20
154.79158528645831
 30
0.0
 10
44.864100477430554
 20
154.79158528645831
 30
0.0
 10
44.864100477430554
 20
154.79158528645831
 30
0.0
 10
45.416004774305549
 20
154.79158528645831
 30
0.0
 10
45.863867187499999
 20
154.34372287326389
 30
0.0
 10
45.863867187499999
 20
153.79147406684027
 30
0.0
 10
45.863867187499999
 20
153.79147406684027
 30
0.0
 10
45.863867187499999
 20
151.79159613715277
 30
0.0
 10
45.863867187499999
 20
151.79159613715277
 30
0.0
  0
SPLINE
  5
8A
100
AcDbEntity
  8
CALQUE_1
 62
     7
100
AcDbSpline
210
0.0
220
0.0
230
1.0
 70
     8
 71
     3
 72
    29
 73
    25
 74
     0
 42
0.00000001
 43
0.00000001
 40
0.0
 40
0.0
 40
0.0
 40
0.0
 40
1.0
 40
1.0
 40
1.0
 40
2.0
 40
2.0
 40
2.0
 40
3.0
 40
3.0
 40
3.0
 40
4.0
 40
4.0
 40
4.0
 40
5.0
 40
5.0
 40
5.0
 40
6.0
 40
6.0
 40
6.0
 40
7.0
 40
7.0
 40
7.0
 40
8.0
 40
8.0
 40
8.0
 40
8.0
 10
57.001171874999997
 20
151.79159613715277
 30
0.0
 10
57.001171874999997
 20
151.23900282118055
 30
0.0
 10
56.553309461805547
 20
150.79148491753472
 30
0.0
 10
56.001405164930553
 20
150.79148491753472
 30
0.0
 10
56.001405164930553
 20
150.79148491753472
 30
0.0
 10
55.000949435763886
 20
150.79148491753472
 30
0.0
 10
55.000949435763886
 20
150.79148491753472
 30
0.0
 10
54.449045138888884
 20
150.79148491753472
 30
0.0
 10
54.001182725694441
 20
151.23900282118055
 30
0.0
 10
54.001182725694441
 20
151.79159613715277
 30
0.0
 10
54.001182725694441
 20
151.79159613715277
 30
0.0
 10
54.001182725694441
 20
153.79147406684027
 30
0.0
 10
54.001182725694441
 20
153.79147406684027
 30
0.0
 10
54.001182725694441
 20
154.34372287326389
 30
0.0
 10
54.449045138888884
 20
154.79158528645831
 30
0.0
 10
55.000949435763886
 20
154.79158528645831
 30
0.0
 10
55.000949435763886
 20
154.79158528645831
 30
0.0
 10
56.001405164930553
 20
154.79158528645831
 30
0.0
 10
56.001405164930553
 20
154.79158528645831
 30
0.0
 10
56.553309461805547
 20
154.79158528645831
 30
0.0
 10
57.001171874999997
 20
154.34372287326389
 30
0.0
 10
57.001171874999997
 20
153.79147406684027
 30
0.0
 10
57.001171874999997
 20
153.79147406684027
 30
0.0
 10
57.001171874999997
 20
151.79159613715277
 30
0.0
 10
57.001171874999997
 20
151.79159613715277
 30
0.0
  0
SPLINE
  5
89
100
AcDbEntity
  8
CALQUE_1
 62
     7
100
AcDbSpline
210
0.0
220
0.0
230
1.0
 70
     8
 71
     3
 72
    29
 73
    25
 74
     0
 42
0.00000001
 43
0.00000001
 40
0.0
 40
0.0
 40
0.0
 40
0.0
 40
1.0
 40
1.0
 40
1.0
 40
2.0
 40
2.0
 40
2.0
 40
3.0
 40
3.0
 40
3.0
 40
4.0
 40
4.0
 40
4.0
 40
5.0
 40
5.0
 40
5.0
 40
6.0
 40
6.0
 40
6.0
 40
7.0
 40
7.0
 40
7.0
 40
8.0
 40
8.0
 40
8.0
 40
8.0
 10
68.138476562499989
 20
151.79159613715277
 30
0.0
 10
68.138476562499989
 20
151.23900282118055
 30
0.0
 10
67.690614149305546
 20
150.79148491753472
 30
0.0
 10
67.138709852430551
 20
150.79148491753472
 30
0.0
 10
67.138709852430551
 20
150.79148491753472
 30
0.0
 10
66.138254123263877
 20
150.79148491753472
 30
0.0
 10
66.138254123263877
 20
150.79148491753472
 30
0.0
 10
65.586349826388883
 20
150.79148491753472
 30
0.0
 10
65.13848741319444
 20
151.23900282118055
 30
0.0
 10
65.13848741319444
 20
151.79159613715277
 30
0.0
 10
65.13848741319444
 20
151.79159613715277
 30
0.0
 10
65.13848741319444
 20
153.79147406684027
 30
0.0
 10
65.13848741319444
 20
153.79147406684027
 30
0.0
 10
65.13848741319444
 20
154.34372287326389
 30
0.0
 10
65.586349826388883
 20
154.79158528645831
 30
0.0
 10
66.138254123263877
 20
154.79158528645831
 30
0.0
 10
66.138254123263877
 20
154.79158528645831
 30
0.0
 10
67.138709852430551
 20
154.79158528645831
 30
0.0
 10
67.138709852430551
 20
154.79158528645831
 30
0.0
 10
67.690614149305546
 20
154.79158528645831
 30
0.0
 10
68.138476562499989
 20
154.34372287326389
 30
0.0
 10
68.138476562499989
 20
153.79147406684027
 30
0.0
 10
68.138476562499989
 20
153.79147406684027
 30
0.0
 10
68.138476562499989
 20
151.79159613715277
 30
0.0
 10
68.138476562499989
 20
151.79159613715277
 30
0.0
  0
SPLINE
  5
88
100
AcDbEntity
  8
CALQUE_1
 62
     7
100
AcDbSpline
210
0.0
220
0.0
230
1.0
 70
     8
 71
     3
 72
    29
 73
    25
 74
     0
 42
0.00000001
 43
0.00000001
 40
0.0
 40
0.0
 40
0.0
 40
0.0
 40
1.0
 40
1.0
 40
1.0
 40
2.0
 40
2.0
 40
2.0
 40
3.0
 40
3.0
 40
3.0
 40
4.0
 40
4.0
 40
4.0
 40
5.0
 40
5.0
 40
5.0
 40
6.0
 40
6.0
 40
6.0
 40
7.0
 40
7.0
 40
7.0
 40
8.0
 40
8.0
 40
8.0
 40
8.0
 10
79.275781249999994
 20
151.79159613715277
 30
0.0
 10
79.275781249999994
 20
151.23900282118055
 30
0.0
 10
78.827918836805551
 20
150.79148491753472
 30
0.0
 10
78.276014539930543
 20
150.79148491753472
 30
0.0
 10
78.276014539930543
 20
150.79148491753472
 30
0.0
 10
77.275558810763883
 20
150.79148491753472
 30
0.0
 10
77.275558810763883
 20
150.79148491753472
 30
0.0
 10
76.723654513888889
 20
150.79148491753472
 30
0.0
 10
76.275792100694431
 20
151.23900282118055
 30
0.0
 10
76.275792100694431
 20
151.79159613715277
 30
0.0
 10
76.275792100694431
 20
151.79159613715277
 30
0.0
 10
76.275792100694431
 20
153.79147406684027
 30
0.0
 10
76.275792100694431
 20
153.79147406684027
 30
0.0
 10
76.275792100694431
 20
154.34372287326389
 30
0.0
 10
76.723654513888889
 20
154.79158528645831
 30
0.0
 10
77.275558810763883
 20
154.79158528645831
 30
0.0
 10
77.275558810763883
 20
154.79158528645831
 30
0.0
 10
78.276014539930543
 20
154.79158528645831
 30
0.0
 10
78.276014539930543
 20
154.79158528645831
 30
0.0
 10
78.827918836805551
 20
154.79158528645831
 30
0.0
 10
79.275781249999994
 20
154.34372287326389
 30
0.0
 10
79.275781249999994
 20
153.79147406684027
 30
0.0
 10
79.275781249999994
 20
153.79147406684027
 30
0.0
 10
79.275781249999994
 20
151.79159613715277
 30
0.0
 10
79.275781249999994
 20
151.79159613715277
 30
0.0
  0
SPLINE
  5
87
100
AcDbEntity
  8
CALQUE_1
 62
     7
100
AcDbSpline
210
0.0
220
0.0
230
1.0
 70
     8
 71
     3
 72
    29
 73
    25
 74
     0
 42
0.00000001
 43
0.00000001
 40
0.0
 40
0.0
 40
0.0
 40
0.0
 40
1.0
 40
1.0
 40
1.0
 40
2.0
 40
2.0
 40
2.0
 40
3.0
 40
3.0
 40
3.0
 40
4.0
 40
4.0
 40
4.0
 40
5.0
 40
5.0
 40
5.0
 40
6.0
 40
6.0
 40
6.0
 40
7.0
 40
7.0
 40
7.0
 40
8.0
 40
8.0
 40
8.0
 40
8.0
 10
90.413085937499986
 20
151.79159613715277
 30
0.0
 10
90.413085937499986
 20
151.23900282118055
 30
0.0
 10
89.965223524305543
 20
150.79148491753472
 30
0.0
 10
89.413319227430549
 20
150.79148491753472
 30
0.0
 10
89.413319227430549
 20
150.79148491753472
 30
0.0
 10
88.412863498263874
 20
150.79148491753472
 30
0.0
 10
88.412863498263874
 20
150.79148491753472
 30
0.0
 10
87.86095920138888
 20
150.79148491753472
 30
0.0
 10
87.413096788194437
 20
151.23900282118055
 30
0.0
 10
87.413096788194437
 20
151.79159613715277
 30
0.0
 10
87.413096788194437
 20
151.79159613715277
 30
0.0
 10
87.413096788194437
 20
153.79147406684027
 30
0.0
 10
87.413096788194437
 20
153.79147406684027
 30
0.0
 10
87.413096788194437
 20
154.34372287326389
 30
0.0
 10
87.86095920138888
 20
154.79158528645831
 30
0.0
 10
88.412863498263874
 20
154.79158528645831
 30
0.0
 10
88.412863498263874
 20
154.79158528645831
 30
0.0
 10
89.413319227430549
 20
154.79158528645831
 30
0.0
 10
89.413319227430549
 20
154.79158528645831
 30
0.0
 10
89.965223524305543
 20
154.79158528645831
 30
0.0
 10
90.413085937499986
 20
154.34372287326389
 30
0.0
 10
90.413085937499986
 20
153.79147406684027
 30
0.0
 10
90.413085937499986
 20
153.79147406684027
 30
0.0
 10
90.413085937499986
 20
151.79159613715277
 30
0.0
 10
90.413085937499986
 20
151.79159613715277
 30
0.0
  0
SPLINE
  5
86
100
AcDbEntity
  8
CALQUE_1
 62
     7
100
AcDbSpline
210
0.0
220
0.0
230
1.0
 70
     8
 71
     3
 72
    29
 73
    25
 74
     0
 42
0.00000001
 43
0.00000001
 40
0.0
 40
0.0
 40
0.0
 40
0.0
 40
1.0
 40
1.0
 40
1.0
 40
2.0
 40
2.0
 40
2.0
 40
3.0
 40
3.0
 40
3.0
 40
4.0
 40
4.0
 40
4.0
 40
5.0
 40
5.0
 40
5.0
 40
6.0
 40
6.0
 40
6.0
 40
7.0
 40
7.0
 40
7.0
 40
8.0
 40
8.0
 40
8.0
 40
8.0
 10
101.55039062499999
 20
151.79159613715277
 30
0.0
 10
101.55039062499999
 20
151.23900282118055
 30
0.0
 10
101.10252821180555
 20
150.79148491753472
 30
0.0
 10
100.55062391493054
 20
150.79148491753472
 30
0.0
 10
100.55062391493054
 20
150.79148491753472
 30
0.0
 10
99.55016818576388
 20
150.79148491753472
 30
0.0
 10
99.55016818576388
 20
150.79148491753472
 30
0.0
 10
98.998263888888886
 20
150.79148491753472
 30
0.0
 10
98.550401475694429
 20
151.23900282118055
 30
0.0
 10
98.550401475694429
 20
151.79159613715277
 30
0.0
 10
98.550401475694429
 20
151.79159613715277
 30
0.0
 10
98.550401475694429
 20
153.79147406684027
 30
0.0
 10
98.550401475694429
 20
153.79147406684027
 30
0.0
 10
98.550401475694429
 20
154.34372287326389
 30
0.0
 10
98.998263888888886
 20
154.79158528645831
 30
0.0
 10
99.55016818576388
 20
154.79158528645831
 30
0.0
 10
99.55016818576388
 20
154.79158528645831
 30
0.0
 10
100.55062391493054
 20
154.79158528645831
 30
0.0
 10
100.55062391493054
 20
154.79158528645831
 30
0.0
 10
101.10252821180555
 20
154.79158528645831
 30
0.0
 10
101.55039062499999
 20
154.34372287326389
 30
0.0
 10
101.55039062499999
 20
153.79147406684027
 30
0.0
 10
101.55039062499999
 20
153.79147406684027
 30
0.0
 10
101.55039062499999
 20
151.79159613715277
 30
0.0
 10
101.55039062499999
 20
151.79159613715277
 30
0.0
  0
SPLINE
  5
85
100
AcDbEntity
  8
CALQUE_1
 62
     7
100
AcDbSpline
210
0.0
220
0.0
230
1.0
 70
     8
 71
     3
 72
    29
 73
    25
 74
     0
 42
0.00000001
 43
0.00000001
 40
0.0
 40
0.0
 40
0.0
 40
0.0
 40
1.0
 40
1.0
 40
1.0
 40
2.0
 40
2.0
 40
2.0
 40
3.0
 40
3.0
 40
3.0
 40
4.0
 40
4.0
 40
4.0
 40
5.0
 40
5.0
 40
5.0
 40
6.0
 40
6.0
 40
6.0
 40
7.0
 40
7.0
 40
7.0
 40
8.0
 40
8.0
 40
8.0
 40
8.0
 10
112.68769531249998
 20
151.79159613715277
 30
0.0
 10
112.68769531249998
 20
151.23900282118055
 30
0.0
 10
112.23983289930554
 20
150.79148491753472
 30
0.0
 10
111.68792860243055
 20
150.79148491753472
 30
0.0
 10
111.68792860243055
 20
150.79148491753472
 30
0.0
 10
110.68747287326389
 20
150.79148491753472
 30
0.0
 10
110.68747287326389
 20
150.79148491753472
 30
0.0
 10
110.13556857638888
 20
150.79148491753472
 30
0.0
 10
109.68770616319443
 20
151.23900282118055
 30
0.0
 10
109.68770616319443
 20
151.79159613715277
 30
0.0
 10
109.68770616319443
 20
151.79159613715277
 30
0.0
 10
109.68770616319443
 20
153.79147406684027
 30
0.0
 10
109.68770616319443
 20
153.79147406684027
 30
0.0
 10
109.68770616319443
 20
154.34372287326389
 30
0.0
 10
110.13556857638888
 20
154.79158528645831
 30
0.0
 10
110.68747287326389
 20
154.79158528645831
 30
0.0
 10
110.68747287326389
 20
154.79158528645831
 30
0.0
 10
111.68792860243055
 20
154.79158528645831
 30
0.0
 10
111.68792860243055
 20
154.79158528645831
 30
0.0
 10
112.23983289930554
 20
154.79158528645831
 30
0.0
 10
112.68769531249998
 20
154.34372287326389
 30
0.0
 10
112.68769531249998
 20
153.79147406684027
 30
0.0
 10
112.68769531249998
 20
153.79147406684027
 30
0.0
 10
112.68769531249998
 20
151.79159613715277
 30
0.0
 10
112.68769531249998
 20
151.79159613715277
 30
0.0
  0
SPLINE
  5
84
100
AcDbEntity
  8
CALQUE_1
 62
     7
100
AcDbSpline
210
0.0
220
0.0
230
1.0
 70
     8
 71
     3
 72
    29
 73
    25
 74
     0
 42
0.00000001
 43
0.00000001
 40
0.0
 40
0.0
 40
0.0
 40
0.0
 40
1.0
 40
1.0
 40
1.0
 40
2.0
 40
2.0
 40
2.0
 40
3.0
 40
3.0
 40
3.0
 40
4.0
 40
4.0
 40
4.0
 40
5.0
 40
5.0
 40
5.0
 40
6.0
 40
6.0
 40
6.0
 40
7.0
 40
7.0
 40
7.0
 40
8.0
 40
8.0
 40
8.0
 40
8.0
 10
123.82499999999999
 20
151.79159613715277
 30
0.0
 10
123.82499999999999
 20
151.23900282118055
 30
0.0
 10
123.37713758680555
 20
150.79148491753472
 30
0.0
 10
122.82523328993055
 20
150.79148491753472
 30
0.0
 10
122.82523328993055
 20
150.79148491753472
 30
0.0
 10
121.82477756076388
 20
150.79148491753472
 30
0.0
 10
121.82477756076388
 20
150.79148491753472
 30
0.0
 10
121.27287326388888
 20
150.79148491753472
 30
0.0
 10
120.82501085069444
 20
151.23900282118055
 30
0.0
 10
120.82501085069444
 20
151.79159613715277
 30
0.0
 10
120.82501085069444
 20
151.79159613715277
 30
0.0
 10
120.82501085069444
 20
153.79147406684027
 30
0.0
 10
120.82501085069444
 20
153.79147406684027
 30
0.0
 10
120.82501085069444
 20
154.34372287326389
 30
0.0
 10
121.27287326388888
 20
154.79158528645831
 30
0.0
 10
121.82477756076388
 20
154.79158528645831
 30
0.0
 10
121.82477756076388
 20
154.79158528645831
 30
0.0
 10
122.82523328993055
 20
154.79158528645831
 30
0.0
 10
122.82523328993055
 20
154.79158528645831
 30
0.0
 10
123.37713758680555
 20
154.79158528645831
 30
0.0
 10
123.82499999999999
 20
154.34372287326389
 30
0.0
 10
123.82499999999999
 20
153.79147406684027
 30
0.0
 10
123.82499999999999
 20
153.79147406684027
 30
0.0
 10
123.82499999999999
 20
151.79159613715277
 30
0.0
 10
123.82499999999999
 20
151.79159613715277
 30
0.0
  0
SPLINE
  5
83
100
AcDbEntity
  8
CALQUE_1
 62
     7
100
AcDbSpline
210
0.0
220
0.0
230
1.0
 70
     8
 71
     3
 72
    29
 73
    25
 74
     0
 42
0.00000001
 43
0.00000001
 40
0.0
 40
0.0
 40
0.0
 40
0.0
 40
1.0
 40
1.0
 40
1.0
 40
2.0
 40
2.0
 40
2.0
 40
3.0
 40
3.0
 40
3.0
 40
4.0
 40
4.0
 40
4.0
 40
5.0
 40
5.0
 40
5.0
 40
6.0
 40
6.0
 40
6.0
 40
7.0
 40
7.0
 40
7.0
 40
8.0
 40
8.0
 40
8.0
 40
8.0
 10
134.96230468749999
 20
151.79159613715277
 30
0.0
 10
134.96230468749999
 20
151.23900282118055
 30
0.0
 10
134.51444227430554
 20
150.79148491753472
 30
0.0
 10
133.96253797743054
 20
150.79148491753472
 30
0.0
 10
133.96253797743054
 20
150.79148491753472
 30
0.0
 10
132.96208224826387
 20
150.79148491753472
 30
0.0
 10
132.96208224826387
 20
150.79148491753472
 30
0.0
 10
132.41017795138887
 20
150.79148491753472
 30
0.0
 10
131.96231553819445
 20
151.23900282118055
 30
0.0
 10
131.96231553819445
 20
151.79159613715277
 30
0.0
 10
131.96231553819445
 20
151.79159613715277
 30
0.0
 10
131.96231553819445
 20
153.79147406684027
 30
0.0
 10
131.96231553819445
 20
153.79147406684027
 30
0.0
 10
131.96231553819445
 20
154.34372287326389
 30
0.0
 10
132.41017795138887
 20
154.79158528645831
 30
0.0
 10
132.96208224826387
 20
154.79158528645831
 30
0.0
 10
132.96208224826387
 20
154.79158528645831
 30
0.0
 10
133.96253797743054
 20
154.79158528645831
 30
0.0
 10
133.96253797743054
 20
154.79158528645831
 30
0.0
 10
134.51444227430554
 20
154.79158528645831
 30
0.0
 10
134.96230468749999
 20
154.34372287326389
 30
0.0
 10
134.96230468749999
 20
153.79147406684027
 30
0.0
 10
134.96230468749999
 20
153.79147406684027
 30
0.0
 10
134.96230468749999
 20
151.79159613715277
 30
0.0
 10
134.96230468749999
 20
151.79159613715277
 30
0.0
  0
SPLINE
  5
82
100
AcDbEntity
  8
CALQUE_1
 62
     7
100
AcDbSpline
210
0.0
220
0.0
230
1.0
 70
     8
 71
     3
 72
    29
 73
    25
 74
     0
 42
0.00000001
 43
0.00000001
 40
0.0
 40
0.0
 40
0.0
 40
0.0
 40
1.0
 40
1.0
 40
1.0
 40
2.0
 40
2.0
 40
2.0
 40
3.0
 40
3.0
 40
3.0
 40
4.0
 40
4.0
 40
4.0
 40
5.0
 40
5.0
 40
5.0
 40
6.0
 40
6.0
 40
6.0
 40
7.0
 40
7.0
 40
7.0
 40
8.0
 40
8.0
 40
8.0
 40
8.0
 10
146.099609375
 20
151.79159613715277
 30
0.0
 10
146.099609375
 20
151.23900282118055
 30
0.0
 10
145.65174696180554
 20
150.79148491753472
 30
0.0
 10
145.09984266493055
 20
150.79148491753472
 30
0.0
 10
145.09984266493055
 20
150.79148491753472
 30
0.0
 10
144.09938693576387
 20
150.79148491753472
 30
0.0
 10
144.09938693576387
 20
150.79148491753472
 30
0.0
 10
143.54748263888888
 20
150.79148491753472
 30
0.0
 10
143.09962022569442
 20
151.23900282118055
 30
0.0
 10
143.09962022569442
 20
151.79159613715277
 30
0.0
 10
143.09962022569442
 20
151.79159613715277
 30
0.0
 10
143.09962022569442
 20
153.79147406684027
 30
0.0
 10
143.09962022569442
 20
153.79147406684027
 30
0.0
 10
143.09962022569442
 20
154.34372287326389
 30
0.0
 10
143.54748263888888
 20
154.79158528645831
 30
0.0
 10
144.09938693576387
 20
154.79158528645831
 30
0.0
 10
144.09938693576387
 20
154.79158528645831
 30
0.0
 10
145.09984266493055
 20
154.79158528645831
 30
0.0
 10
145.09984266493055
 20
154.79158528645831
 30
0.0
 10
145.65174696180554
 20
154.79158528645831
 30
0.0
 10
146.099609375
 20
154.34372287326389
 30
0.0
 10
146.099609375
 20
153.79147406684027
 30
0.0
 10
146.099609375
 20
153.79147406684027
 30
0.0
 10
146.099609375
 20
151.79159613715277
 30
0.0
 10
146.099609375
 20
151.79159613715277
 30
0.0
  0
SPLINE
  5
81
100
AcDbEntity
  8
CALQUE_1
 62
     7
100
AcDbSpline
210
0.0
220
0.0
230
1.0
 70
     8
 71
     3
 72
    29
 73
    25
 74
     0
 42
0.00000001
 43
0.00000001
 40
0.0
 40
0.0
 40
0.0
 40
0.0
 40
1.0
 40
1.0
 40
1.0
 40
2.0
 40
2.0
 40
2.0
 40
3.0
 40
3.0
 40
3.0
 40
4.0
 40
4.0
 40
4.0
 40
5.0
 40
5.0
 40
5.0
 40
6.0
 40
6.0
 40
6.0
 40
7.0
 40
7.0
 40
7.0
 40
8.0
 40
8.0
 40
8.0
 40
8.0
 10
157.23691406249998
 20
151.79159613715277
 30
0.0
 10
157.23691406249998
 20
151.23900282118055
 30
0.0
 10
156.78905164930555
 20
150.79148491753472
 30
0.0
 10
156.23714735243055
 20
150.79148491753472
 30
0.0
 10
156.23714735243055
 20
150.79148491753472
 30
0.0
 10
155.23669162326388
 20
150.79148491753472
 30
0.0
 10
155.23669162326388
 20
150.79148491753472
 30
0.0
 10
154.68478732638889
 20
150.79148491753472
 30
0.0
 10
154.23692491319443
 20
151.23900282118055
 30
0.0
 10
154.23692491319443
 20
151.79159613715277
 30
0.0
 10
154.23692491319443
 20
151.79159613715277
 30
0.0
 10
154.23692491319443
 20
153.79147406684027
 30
0.0
 10
154.23692491319443
 20
153.79147406684027
 30
0.0
 10
154.23692491319443
 20
154.34372287326389
 30
0.0
 10
154.68478732638889
 20
154.79158528645831
 30
0.0
 10
155.23669162326388
 20
154.79158528645831
 30
0.0
 10
155.23669162326388
 20
154.79158528645831
 30
0.0
 10
156.23714735243055
 20
154.79158528645831
 30
0.0
 10
156.23714735243055
 20
154.79158528645831
 30
0.0
 10
156.78905164930555
 20
154.79158528645831
 30
0.0
 10
157.23691406249998
 20
154.34372287326389
 30
0.0
 10
157.23691406249998
 20
153.79147406684027
 30
0.0
 10
157.23691406249998
 20
153.79147406684027
 30
0.0
 10
157.23691406249998
 20
151.79159613715277
 30
0.0
 10
157.23691406249998
 20
151.79159613715277
 30
0.0
  0
SPLINE
  5
80
100
AcDbEntity
  8
CALQUE_1
 62
     7
100
AcDbSpline
210
0.0
220
0.0
230
1.0
 70
     8
 71
     3
 72
    29
 73
    25
 74
     0
 42
0.00000001
 43
0.00000001
 40
0.0
 40
0.0
 40
0.0
 40
0.0
 40
1.0
 40
1.0
 40
1.0
 40
2.0
 40
2.0
 40
2.0
 40
3.0
 40
3.0
 40
3.0
 40
4.0
 40
4.0
 40
4.0
 40
5.0
 40
5.0
 40
5.0
 40
6.0
 40
6.0
 40
6.0
 40
7.0
 40
7.0
 40
7.0
 40
8.0
 40
8.0
 40
8.0
 40
8.0
 10
168.37421874999998
 20
151.79159613715277
 30
0.0
 10
168.37421874999998
 20
151.23900282118055
 30
0.0
 10
167.92635633680555
 20
150.79148491753472
 30
0.0
 10
167.37445203993053
 20
150.79148491753472
 30
0.0
 10
167.37445203993053
 20
150.79148491753472
 30
0.0
 10
166.37399631076389
 20
150.79148491753472
 30
0.0
 10
166.37399631076389
 20
150.79148491753472
 30
0.0
 10
165.82209201388886
 20
150.79148491753472
 30
0.0
 10
165.37422960069443
 20
151.23900282118055
 30
0.0
 10
165.37422960069443
 20
151.79159613715277
 30
0.0
 10
165.37422960069443
 20
151.79159613715277
 30
0.0
 10
165.37422960069443
 20
153.79147406684027
 30
0.0
 10
165.37422960069443
 20
153.79147406684027
 30
0.0
 10
165.37422960069443
 20
154.34372287326389
 30
0.0
 10
165.82209201388886
 20
154.79158528645831
 30
0.0
 10
166.37399631076389
 20
154.79158528645831
 30
0.0
 10
166.37399631076389
 20
154.79158528645831
 30
0.0
 10
167.37445203993053
 20
154.79158528645831
 30
0.0
 10
167.37445203993053
 20
154.79158528645831
 30
0.0
 10
167.92635633680555
 20
154.79158528645831
 30
0.0
 10
168.37421874999998
 20
154.34372287326389
 30
0.0
 10
168.37421874999998
 20
153.79147406684027
 30
0.0
 10
168.37421874999998
 20
153.79147406684027
 30
0.0
 10
168.37421874999998
 20
151.79159613715277
 30
0.0
 10
168.37421874999998
 20
151.79159613715277
 30
0.0
  0
SPLINE
  5
7F
100
AcDbEntity
  8
CALQUE_1
 62
     7
100
AcDbSpline
210
0.0
220
0.0
230
1.0
 70
     8
 71
     3
 72
    29
 73
    25
 74
     0
 42
0.00000001
 43
0.00000001
 40
0.0
 40
0.0
 40
0.0
 40
0.0
 40
1.0
 40
1.0
 40
1.0
 40
2.0
 40
2.0
 40
2.0
 40
3.0
 40
3.0
 40
3.0
 40
4.0
 40
4.0
 40
4.0
 40
5.0
 40
5.0
 40
5.0
 40
6.0
 40
6.0
 40
6.0
 40
7.0
 40
7.0
 40
7.0
 40
8.0
 40
8.0
 40
8.0
 40
8.0
 10
179.51152343749999
 20
151.79159613715277
 30
0.0
 10
179.51152343749999
 20
151.23900282118055
 30
0.0
 10
179.06366102430553
 20
150.79148491753472
 30
0.0
 10
178.51175672743054
 20
150.79148491753472
 30
0.0
 10
178.51175672743054
 20
150.79148491753472
 30
0.0
 10
177.51130099826386
 20
150.79148491753472
 30
0.0
 10
177.51130099826386
 20
150.79148491753472
 30
0.0
 10
176.95939670138887
 20
150.79148491753472
 30
0.0
 10
176.51153428819444
 20
151.23900282118055
 30
0.0
 10
176.51153428819444
 20
151.79159613715277
 30
0.0
 10
176.51153428819444
 20
151.79159613715277
 30
0.0
 10
176.51153428819444
 20
153.79147406684027
 30
0.0
 10
176.51153428819444
 20
153.79147406684027
 30
0.0
 10
176.51153428819444
 20
154.34372287326389
 30
0.0
 10
176.95939670138887
 20
154.79158528645831
 30
0.0
 10
177.51130099826386
 20
154.79158528645831
 30
0.0
 10
177.51130099826386
 20
154.79158528645831
 30
0.0
 10
178.51175672743054
 20
154.79158528645831
 30
0.0
 10
178.51175672743054
 20
154.79158528645831
 30
0.0
 10
179.06366102430553
 20
154.79158528645831
 30
0.0
 10
179.51152343749999
 20
154.34372287326389
 30
0.0
 10
179.51152343749999
 20
153.79147406684027
 30
0.0
 10
179.51152343749999
 20
153.79147406684027
 30
0.0
 10
179.51152343749999
 20
151.79159613715277
 30
0.0
 10
179.51152343749999
 20
151.79159613715277
 30
0.0
  0
SPLINE
  5
7E
100
AcDbEntity
  8
CALQUE_1
 62
     7
100
AcDbSpline
210
0.0
220
0.0
230
1.0
 70
     8
 71
     3
 72
    29
 73
    25
 74
     0
 42
0.00000001
 43
0.00000001
 40
0.0
 40
0.0
 40
0.0
 40
0.0
 40
1.0
 40
1.0
 40
1.0
 40
2.0
 40
2.0
 40
2.0
 40
3.0
 40
3.0
 40
3.0
 40
4.0
 40
4.0
 40
4.0
 40
5.0
 40
5.0
 40
5.0
 40
6.0
 40
6.0
 40
6.0
 40
7.0
 40
7.0
 40
7.0
 40
8.0
 40
8.0
 40
8.0
 40
8.0
 10
190.64882812499999
 20
151.79159613715277
 30
0.0
 10
190.64882812499999
 20
151.23900282118055
 30
0.0
 10
190.20096571180554
 20
150.79148491753472
 30
0.0
 10
189.64906141493054
 20
150.79148491753472
 30
0.0
 10
189.64906141493054
 20
150.79148491753472
 30
0.0
 10
188.64860568576387
 20
150.79148491753472
 30
0.0
 10
188.64860568576387
 20
150.79148491753472
 30
0.0
 10
188.09670138888887
 20
150.79148491753472
 30
0.0
 10
187.64883897569442
 20
151.23900282118055
 30
0.0
 10
187.64883897569442
 20
151.79159613715277
 30
0.0
 10
187.64883897569442
 20
151.79159613715277
 30
0.0
 10
187.64883897569442
 20
153.79147406684027
 30
0.0
 10
187.64883897569442
 20
153.79147406684027
 30
0.0
 10
187.64883897569442
 20
154.34372287326389
 30
0.0
 10
188.09670138888887
 20
154.79158528645831
 30
0.0
 10
188.64860568576387
 20
154.79158528645831
 30
0.0
 10
188.64860568576387
 20
154.79158528645831
 30
0.0
 10
189.64906141493054
 20
154.79158528645831
 30
0.0
 10
189.64906141493054
 20
154.79158528645831
 30
0.0
 10
190.20096571180554
 20
154.79158528645831
 30
0.0
 10
190.64882812499999
 20
154.34372287326389
 30
0.0
 10
190.64882812499999
 20
153.79147406684027
 30
0.0
 10
190.64882812499999
 20
153.79147406684027
 30
0.0
 10
190.64882812499999
 20
151.79159613715277
 30
0.0
 10
190.64882812499999
 20
151.79159613715277
 30
0.0
  0
SPLINE
  5
7D
100
AcDbEntity
  8
CALQUE_1
 62
     7
100
AcDbSpline
210
0.0
220
0.0
230
1.0
 70
     8
 71
     3
 72
    29
 73
    25
 74
     0
 42
0.00000001
 43
0.00000001
 40
0.0
 40
0.0
 40
0.0
 40
0.0
 40
1.0
 40
1.0
 40
1.0
 40
2.0
 40
2.0
 40
2.0
 40
3.0
 40
3.0
 40
3.0
 40
4.0
 40
4.0
 40
4.0
 40
5.0
 40
5.0
 40
5.0
 40
6.0
 40
6.0
 40
6.0
 40
7.0
 40
7.0
 40
7.0
 40
8.0
 40
8.0
 40
8.0
 40
8.0
 10
12.451953124999999
 20
141.913818359375
 30
0.0
 10
12.451953124999999
 20
141.36122504340275
 30
0.0
 10
12.004090711805555
 20
140.91370713975692
 30
0.0
 10
11.452186414930555
 20
140.91370713975692
 30
0.0
 10
11.452186414930555
 20
140.91370713975692
 30
0.0
 10
10.451730685763888
 20
140.91370713975692
 30
0.0
 10
10.451730685763888
 20
140.91370713975692
 30
0.0
 10
9.8998263888888882
 20
140.91370713975692
 30
0.0
 10
9.4519639756944436
 20
141.36122504340275
 30
0.0
 10
9.4519639756944436
 20
141.913818359375
 30
0.0
 10
9.4519639756944436
 20
141.913818359375
 30
0.0
 10
9.4519639756944436
 20
143.9136962890625
 30
0.0
 10
9.4519639756944436
 20
143.9136962890625
 30
0.0
 10
9.4519639756944436
 20
144.46594509548609
 30
0.0
 10
9.8998263888888882
 20
144.91380750868055
 30
0.0
 10
10.451730685763888
 20
144.91380750868055
 30
0.0
 10
10.451730685763888
 20
144.91380750868055
 30
0.0
 10
11.452186414930555
 20
144.91380750868055
 30
0.0
 10
11.452186414930555
 20
144.91380750868055
 30
0.0
 10
12.004090711805555
 20
144.91380750868055
 30
0.0
 10
12.451953124999999
 20
144.46594509548609
 30
0.0
 10
12.451953124999999
 20
143.9136962890625
 30
0.0
 10
12.451953124999999
 20
143.9136962890625
 30
0.0
 10
12.451953124999999
 20
141.913818359375
 30
0.0
 10
12.451953124999999
 20
141.913818359375
 30
0.0
  0
SPLINE
  5
7C
100
AcDbEntity
  8
CALQUE_1
 62
     7
100
AcDbSpline
210
0.0
220
0.0
230
1.0
 70
     8
 71
     3
 72
    29
 73
    25
 74
     0
 42
0.00000001
 43
0.00000001
 40
0.0
 40
0.0
 40
0.0
 40
0.0
 40
1.0
 40
1.0
 40
1.0
 40
2.0
 40
2.0
 40
2.0
 40
3.0
 40
3.0
 40
3.0
 40
4.0
 40
4.0
 40
4.0
 40
5.0
 40
5.0
 40
5.0
 40
6.0
 40
6.0
 40
6.0
 40
7.0
 40
7.0
 40
7.0
 40
8.0
 40
8.0
 40
8.0
 40
8.0
 10
23.589257812499998
 20
141.913818359375
 30
0.0
 10
23.589257812499998
 20
141.36122504340275
 30
0.0
 10
23.141395399305555
 20
140.91370713975692
 30
0.0
 10
22.589491102430554
 20
140.91370713975692
 30
0.0
 10
22.589491102430554
 20
140.91370713975692
 30
0.0
 10
21.589035373263886
 20
140.91370713975692
 30
0.0
 10
21.589035373263886
 20
140.91370713975692
 30
0.0
 10
21.037131076388889
 20
140.91370713975692
 30
0.0
 10
20.589268663194442
 20
141.36122504340275
 30
0.0
 10
20.589268663194442
 20
141.913818359375
 30
0.0
 10
20.589268663194442
 20
141.913818359375
 30
0.0
 10
20.589268663194442
 20
143.9136962890625
 30
0.0
 10
20.589268663194442
 20
143.9136962890625
 30
0.0
 10
20.589268663194442
 20
144.46594509548609
 30
0.0
 10
21.037131076388889
 20
144.91380750868055
 30
0.0
 10
21.589035373263886
 20
144.91380750868055
 30
0.0
 10
21.589035373263886
 20
144.91380750868055
 30
0.0
 10
22.589491102430554
 20
144.91380750868055
 30
0.0
 10
22.589491102430554
 20
144.91380750868055
 30
0.0
 10
23.141395399305555
 20
144.91380750868055
 30
0.0
 10
23.589257812499998
 20
144.46594509548609
 30
0.0
 10
23.589257812499998
 20
143.9136962890625
 30
0.0
 10
23.589257812499998
 20
143.9136962890625
 30
0.0
 10
23.589257812499998
 20
141.913818359375
 30
0.0
 10
23.589257812499998
 20
141.913818359375
 30
0.0
  0
SPLINE
  5
7B
100
AcDbEntity
  8
CALQUE_1
 62
     7
100
AcDbSpline
210
0.0
220
0.0
230
1.0
 70
     8
 71
     3
 72
    29
 73
    25
 74
     0
 42
0.00000001
 43
0.00000001
 40
0.0
 40
0.0
 40
0.0
 40
0.0
 40
1.0
 40
1.0
 40
1.0
 40
2.0
 40
2.0
 40
2.0
 40
3.0
 40
3.0
 40
3.0
 40
4.0
 40
4.0
 40
4.0
 40
5.0
 40
5.0
 40
5.0
 40
6.0
 40
6.0
 40
6.0
 40
7.0
 40
7.0
 40
7.0
 40
8.0
 40
8.0
 40
8.0
 40
8.0
 10
34.7265625
 20
141.913818359375
 30
0.0
 10
34.7265625
 20
141.36122504340275
 30
0.0
 10
34.27870008680555
 20
140.91370713975692
 30
0.0
 10
33.726795789930556
 20
140.91370713975692
 30
0.0
 10
33.726795789930556
 20
140.91370713975692
 30
0.0
 10
32.726340060763889
 20
140.91370713975692
 30
0.0
 10
32.726340060763889
 20
140.91370713975692
 30
0.0
 10
32.174435763888887
 20
140.91370713975692
 30
0.0
 10
31.726573350694441
 20
141.36122504340275
 30
0.0
 10
31.726573350694441
 20
141.913818359375
 30
0.0
 10
31.726573350694441
 20
141.913818359375
 30
0.0
 10
31.726573350694441
 20
143.9136962890625
 30
0.0
 10
31.726573350694441
 20
143.9136962890625
 30
0.0
 10
31.726573350694441
 20
144.46594509548609
 30
0.0
 10
32.174435763888887
 20
144.91380750868055
 30
0.0
 10
32.726340060763889
 20
144.91380750868055
 30
0.0
 10
32.726340060763889
 20
144.91380750868055
 30
0.0
 10
33.726795789930556
 20
144.91380750868055
 30
0.0
 10
33.726795789930556
 20
144.91380750868055
 30
0.0
 10
34.27870008680555
 20
144.91380750868055
 30
0.0
 10
34.7265625
 20
144.46594509548609
 30
0.0
 10
34.7265625
 20
143.9136962890625
 30
0.0
 10
34.7265625
 20
143.9136962890625
 30
0.0
 10
34.7265625
 20
141.913818359375
 30
0.0
 10
34.7265625
 20
141.913818359375
 30
0.0
  0
SPLINE
  5
7A
100
AcDbEntity
  8
CALQUE_1
 62
     7
100
AcDbSpline
210
0.0
220
0.0
230
1.0
 70
     8
 71
     3
 72
    29
 73
    25
 74
     0
 42
0.00000001
 43
0.00000001
 40
0.0
 40
0.0
 40
0.0
 40
0.0
 40
1.0
 40
1.0
 40
1.0
 40
2.0
 40
2.0
 40
2.0
 40
3.0
 40
3.0
 40
3.0
 40
4.0
 40
4.0
 40
4.0
 40
5.0
 40
5.0
 40
5.0
 40
6.0
 40
6.0
 40
6.0
 40
7.0
 40
7.0
 40
7.0
 40
8.0
 40
8.0
 40
8.0
 40
8.0
 10
45.863867187499999
 20
141.913818359375
 30
0.0
 10
45.863867187499999
 20
141.36122504340275
 30
0.0
 10
45.416004774305549
 20
140.91370713975692
 30
0.0
 10
44.864100477430554
 20
140.91370713975692
 30
0.0
 10
44.864100477430554
 20
140.91370713975692
 30
0.0
 10
43.863644748263887
 20
140.91370713975692
 30
0.0
 10
43.863644748263887
 20
140.91370713975692
 30
0.0
 10
43.311740451388886
 20
140.91370713975692
 30
0.0
 10
42.863878038194443
 20
141.36122504340275
 30
0.0
 10
42.863878038194443
 20
141.913818359375
 30
0.0
 10
42.863878038194443
 20
141.913818359375
 30
0.0
 10
42.863878038194443
 20
143.9136962890625
 30
0.0
 10
42.863878038194443
 20
143.9136962890625
 30
0.0
 10
42.863878038194443
 20
144.46594509548609
 30
0.0
 10
43.311740451388886
 20
144.91380750868055
 30
0.0
 10
43.863644748263887
 20
144.91380750868055
 30
0.0
 10
43.863644748263887
 20
144.91380750868055
 30
0.0
 10
44.864100477430554
 20
144.91380750868055
 30
0.0
 10
44.864100477430554
 20
144.91380750868055
 30
0.0
 10
45.416004774305549
 20
144.91380750868055
 30
0.0
 10
45.863867187499999
 20
144.46594509548609
 30
0.0
 10
45.863867187499999
 20
143.9136962890625
 30
0.0
 10
45.863867187499999
 20
143.9136962890625
 30
0.0
 10
45.863867187499999
 20
141.913818359375
 30
0.0
 10
45.863867187499999
 20
141.913818359375
 30
0.0
  0
SPLINE
  5
79
100
AcDbEntity
  8
CALQUE_1
 62
     7
100
AcDbSpline
210
0.0
220
0.0
230
1.0
 70
     8
 71
     3
 72
    29
 73
    25
 74
     0
 42
0.00000001
 43
0.00000001
 40
0.0
 40
0.0
 40
0.0
 40
0.0
 40
1.0
 40
1.0
 40
1.0
 40
2.0
 40
2.0
 40
2.0
 40
3.0
 40
3.0
 40
3.0
 40
4.0
 40
4.0
 40
4.0
 40
5.0
 40
5.0
 40
5.0
 40
6.0
 40
6.0
 40
6.0
 40
7.0
 40
7.0
 40
7.0
 40
8.0
 40
8.0
 40
8.0
 40
8.0
 10
57.001171874999997
 20
141.913818359375
 30
0.0
 10
57.001171874999997
 20
141.36122504340275
 30
0.0
 10
56.553309461805547
 20
140.91370713975692
 30
0.0
 10
56.001405164930553
 20
140.91370713975692
 30
0.0
 10
56.001405164930553
 20
140.91370713975692
 30
0.0
 10
55.000949435763886
 20
140.91370713975692
 30
0.0
 10
55.000949435763886
 20
140.91370713975692
 30
0.0
 10
54.449045138888884
 20
140.91370713975692
 30
0.0
 10
54.001182725694441
 20
141.36122504340275
 30
0.0
 10
54.001182725694441
 20
141.913818359375
 30
0.0
 10
54.001182725694441
 20
141.913818359375
 30
0.0
 10
54.001182725694441
 20
143.9136962890625
 30
0.0
 10
54.001182725694441
 20
143.9136962890625
 30
0.0
 10
54.001182725694441
 20
144.46594509548609
 30
0.0
 10
54.449045138888884
 20
144.91380750868055
 30
0.0
 10
55.000949435763886
 20
144.91380750868055
 30
0.0
 10
55.000949435763886
 20
144.91380750868055
 30
0.0
 10
56.001405164930553
 20
144.91380750868055
 30
0.0
 10
56.001405164930553
 20
144.91380750868055
 30
0.0
 10
56.553309461805547
 20
144.91380750868055
 30
0.0
 10
57.001171874999997
 20
144.46594509548609
 30
0.0
 10
57.001171874999997
 20
143.9136962890625
 30
0.0
 10
57.001171874999997
 20
143.9136962890625
 30
0.0
 10
57.001171874999997
 20
141.913818359375
 30
0.0
 10
57.001171874999997
 20
141.913818359375
 30
0.0
  0
SPLINE
  5
78
100
AcDbEntity
  8
CALQUE_1
 62
     7
100
AcDbSpline
210
0.0
220
0.0
230
1.0
 70
     8
 71
     3
 72
    29
 73
    25
 74
     0
 42
0.00000001
 43
0.00000001
 40
0.0
 40
0.0
 40
0.0
 40
0.0
 40
1.0
 40
1.0
 40
1.0
 40
2.0
 40
2.0
 40
2.0
 40
3.0
 40
3.0
 40
3.0
 40
4.0
 40
4.0
 40
4.0
 40
5.0
 40
5.0
 40
5.0
 40
6.0
 40
6.0
 40
6.0
 40
7.0
 40
7.0
 40
7.0
 40
8.0
 40
8.0
 40
8.0
 40
8.0
 10
68.138476562499989
 20
141.913818359375
 30
0.0
 10
68.138476562499989
 20
141.36122504340275
 30
0.0
 10
67.690614149305546
 20
140.91370713975692
 30
0.0
 10
67.138709852430551
 20
140.91370713975692
 30
0.0
 10
67.138709852430551
 20
140.91370713975692
 30
0.0
 10
66.138254123263877
 20
140.91370713975692
 30
0.0
 10
66.138254123263877
 20
140.91370713975692
 30
0.0
 10
65.586349826388883
 20
140.91370713975692
 30
0.0
 10
65.13848741319444
 20
141.36122504340275
 30
0.0
 10
65.13848741319444
 20
141.913818359375
 30
0.0
 10
65.13848741319444
 20
141.913818359375
 30
0.0
 10
65.13848741319444
 20
143.9136962890625
 30
0.0
 10
65.13848741319444
 20
143.9136962890625
 30
0.0
 10
65.13848741319444
 20
144.46594509548609
 30
0.0
 10
65.586349826388883
 20
144.91380750868055
 30
0.0
 10
66.138254123263877
 20
144.91380750868055
 30
0.0
 10
66.138254123263877
 20
144.91380750868055
 30
0.0
 10
67.138709852430551
 20
144.91380750868055
 30
0.0
 10
67.138709852430551
 20
144.91380750868055
 30
0.0
 10
67.690614149305546
 20
144.91380750868055
 30
0.0
 10
68.138476562499989
 20
144.46594509548609
 30
0.0
 10
68.138476562499989
 20
143.9136962890625
 30
0.0
 10
68.138476562499989
 20
143.9136962890625
 30
0.0
 10
68.138476562499989
 20
141.913818359375
 30
0.0
 10
68.138476562499989
 20
141.913818359375
 30
0.0
  0
SPLINE
  5
77
100
AcDbEntity
  8
CALQUE_1
 62
     7
100
AcDbSpline
210
0.0
220
0.0
230
1.0
 70
     8
 71
     3
 72
    29
 73
    25
 74
     0
 42
0.00000001
 43
0.00000001
 40
0.0
 40
0.0
 40
0.0
 40
0.0
 40
1.0
 40
1.0
 40
1.0
 40
2.0
 40
2.0
 40
2.0
 40
3.0
 40
3.0
 40
3.0
 40
4.0
 40
4.0
 40
4.0
 40
5.0
 40
5.0
 40
5.0
 40
6.0
 40
6.0
 40
6.0
 40
7.0
 40
7.0
 40
7.0
 40
8.0
 40
8.0
 40
8.0
 40
8.0
 10
79.275781249999994
 20
141.913818359375
 30
0.0
 10
79.275781249999994
 20
141.36122504340275
 30
0.0
 10
78.827918836805551
 20
140.91370713975692
 30
0.0
 10
78.276014539930543
 20
140.91370713975692
 30
0.0
 10
78.276014539930543
 20
140.91370713975692
 30
0.0
 10
77.275558810763883
 20
140.91370713975692
 30
0.0
 10
77.275558810763883
 20
140.91370713975692
 30
0.0
 10
76.723654513888889
 20
140.91370713975692
 30
0.0
 10
76.275792100694431
 20
141.36122504340275
 30
0.0
 10
76.275792100694431
 20
141.913818359375
 30
0.0
 10
76.275792100694431
 20
141.913818359375
 30
0.0
 10
76.275792100694431
 20
143.9136962890625
 30
0.0
 10
76.275792100694431
 20
143.9136962890625
 30
0.0
 10
76.275792100694431
 20
144.46594509548609
 30
0.0
 10
76.723654513888889
 20
144.91380750868055
 30
0.0
 10
77.275558810763883
 20
144.91380750868055
 30
0.0
 10
77.275558810763883
 20
144.91380750868055
 30
0.0
 10
78.276014539930543
 20
144.91380750868055
 30
0.0
 10
78.276014539930543
 20
144.91380750868055
 30
0.0
 10
78.827918836805551
 20
144.91380750868055
 30
0.0
 10
79.275781249999994
 20
144.46594509548609
 30
0.0
 10
79.275781249999994
 20
143.9136962890625
 30
0.0
 10
79.275781249999994
 20
143.9136962890625
 30
0.0
 10
79.275781249999994
 20
141.913818359375
 30
0.0
 10
79.275781249999994
 20
141.913818359375
 30
0.0
  0
SPLINE
  5
76
100
AcDbEntity
  8
CALQUE_1
 62
     7
100
AcDbSpline
210
0.0
220
0.0
230
1.0
 70
     8
 71
     3
 72
    29
 73
    25
 74
     0
 42
0.00000001
 43
0.00000001
 40
0.0
 40
0.0
 40
0.0
 40
0.0
 40
1.0
 40
1.0
 40
1.0
 40
2.0
 40
2.0
 40
2.0
 40
3.0
 40
3.0
 40
3.0
 40
4.0
 40
4.0
 40
4.0
 40
5.0
 40
5.0
 40
5.0
 40
6.0
 40
6.0
 40
6.0
 40
7.0
 40
7.0
 40
7.0
 40
8.0
 40
8.0
 40
8.0
 40
8.0
 10
90.413085937499986
 20
141.913818359375
 30
0.0
 10
90.413085937499986
 20
141.36122504340275
 30
0.0
 10
89.965223524305543
 20
140.91370713975692
 30
0.0
 10
89.413319227430549
 20
140.91370713975692
 30
0.0
 10
89.413319227430549
 20
140.91370713975692
 30
0.0
 10
88.412863498263874
 20
140.91370713975692
 30
0.0
 10
88.412863498263874
 20
140.91370713975692
 30
0.0
 10
87.86095920138888
 20
140.91370713975692
 30
0.0
 10
87.413096788194437
 20
141.36122504340275
 30
0.0
 10
87.413096788194437
 20
141.913818359375
 30
0.0
 10
87.413096788194437
 20
141.913818359375
 30
0.0
 10
87.413096788194437
 20
143.9136962890625
 30
0.0
 10
87.413096788194437
 20
143.9136962890625
 30
0.0
 10
87.413096788194437
 20
144.46594509548609
 30
0.0
 10
87.86095920138888
 20
144.91380750868055
 30
0.0
 10
88.412863498263874
 20
144.91380750868055
 30
0.0
 10
88.412863498263874
 20
144.91380750868055
 30
0.0
 10
89.413319227430549
 20
144.91380750868055
 30
0.0
 10
89.413319227430549
 20
144.91380750868055
 30
0.0
 10
89.965223524305543
 20
144.91380750868055
 30
0.0
 10
90.413085937499986
 20
144.46594509548609
 30
0.0
 10
90.413085937499986
 20
143.9136962890625
 30
0.0
 10
90.413085937499986
 20
143.9136962890625
 30
0.0
 10
90.413085937499986
 20
141.913818359375
 30
0.0
 10
90.413085937499986
 20
141.913818359375
 30
0.0
  0
SPLINE
  5
75
100
AcDbEntity
  8
CALQUE_1
 62
     7
100
AcDbSpline
210
0.0
220
0.0
230
1.0
 70
     8
 71
     3
 72
    29
 73
    25
 74
     0
 42
0.00000001
 43
0.00000001
 40
0.0
 40
0.0
 40
0.0
 40
0.0
 40
1.0
 40
1.0
 40
1.0
 40
2.0
 40
2.0
 40
2.0
 40
3.0
 40
3.0
 40
3.0
 40
4.0
 40
4.0
 40
4.0
 40
5.0
 40
5.0
 40
5.0
 40
6.0
 40
6.0
 40
6.0
 40
7.0
 40
7.0
 40
7.0
 40
8.0
 40
8.0
 40
8.0
 40
8.0
 10
101.55039062499999
 20
141.913818359375
 30
0.0
 10
101.55039062499999
 20
141.36122504340275
 30
0.0
 10
101.10252821180555
 20
140.91370713975692
 30
0.0
 10
100.55062391493054
 20
140.91370713975692
 30
0.0
 10
100.55062391493054
 20
140.91370713975692
 30
0.0
 10
99.55016818576388
 20
140.91370713975692
 30
0.0
 10
99.55016818576388
 20
140.91370713975692
 30
0.0
 10
98.998263888888886
 20
140.91370713975692
 30
0.0
 10
98.550401475694429
 20
141.36122504340275
 30
0.0
 10
98.550401475694429
 20
141.913818359375
 30
0.0
 10
98.550401475694429
 20
141.913818359375
 30
0.0
 10
98.550401475694429
 20
143.9136962890625
 30
0.0
 10
98.550401475694429
 20
143.9136962890625
 30
0.0
 10
98.550401475694429
 20
144.46594509548609
 30
0.0
 10
98.998263888888886
 20
144.91380750868055
 30
0.0
 10
99.55016818576388
 20
144.91380750868055
 30
0.0
 10
99.55016818576388
 20
144.91380750868055
 30
0.0
 10
100.55062391493054
 20
144.91380750868055
 30
0.0
 10
100.55062391493054
 20
144.91380750868055
 30
0.0
 10
101.10252821180555
 20
144.91380750868055
 30
0.0
 10
101.55039062499999
 20
144.46594509548609
 30
0.0
 10
101.55039062499999
 20
143.9136962890625
 30
0.0
 10
101.55039062499999
 20
143.9136962890625
 30
0.0
 10
101.55039062499999
 20
141.913818359375
 30
0.0
 10
101.55039062499999
 20
141.913818359375
 30
0.0
  0
SPLINE
  5
74
100
AcDbEntity
  8
CALQUE_1
 62
     7
100
AcDbSpline
210
0.0
220
0.0
230
1.0
 70
     8
 71
     3
 72
    29
 73
    25
 74
     0
 42
0.00000001
 43
0.00000001
 40
0.0
 40
0.0
 40
0.0
 40
0.0
 40
1.0
 40
1.0
 40
1.0
 40
2.0
 40
2.0
 40
2.0
 40
3.0
 40
3.0
 40
3.0
 40
4.0
 40
4.0
 40
4.0
 40
5.0
 40
5.0
 40
5.0
 40
6.0
 40
6.0
 40
6.0
 40
7.0
 40
7.0
 40
7.0
 40
8.0
 40
8.0
 40
8.0
 40
8.0
 10
112.68769531249998
 20
141.913818359375
 30
0.0
 10
112.68769531249998
 20
141.36122504340275
 30
0.0
 10
112.23983289930554
 20
140.91370713975692
 30
0.0
 10
111.68792860243055
 20
140.91370713975692
 30
0.0
 10
111.68792860243055
 20
140.91370713975692
 30
0.0
 10
110.68747287326389
 20
140.91370713975692
 30
0.0
 10
110.68747287326389
 20
140.91370713975692
 30
0.0
 10
110.13556857638888
 20
140.91370713975692
 30
0.0
 10
109.68770616319443
 20
141.36122504340275
 30
0.0
 10
109.68770616319443
 20
141.913818359375
 30
0.0
 10
109.68770616319443
 20
141.913818359375
 30
0.0
 10
109.68770616319443
 20
143.9136962890625
 30
0.0
 10
109.68770616319443
 20
143.9136962890625
 30
0.0
 10
109.68770616319443
 20
144.46594509548609
 30
0.0
 10
110.13556857638888
 20
144.91380750868055
 30
0.0
 10
110.68747287326389
 20
144.91380750868055
 30
0.0
 10
110.68747287326389
 20
144.91380750868055
 30
0.0
 10
111.68792860243055
 20
144.91380750868055
 30
0.0
 10
111.68792860243055
 20
144.91380750868055
 30
0.0
 10
112.23983289930554
 20
144.91380750868055
 30
0.0
 10
112.68769531249998
 20
144.46594509548609
 30
0.0
 10
112.68769531249998
 20
143.9136962890625
 30
0.0
 10
112.68769531249998
 20
143.9136962890625
 30
0.0
 10
112.68769531249998
 20
141.913818359375
 30
0.0
 10
112.68769531249998
 20
141.913818359375
 30
0.0
  0
SPLINE
  5
73
100
AcDbEntity
  8
CALQUE_1
 62
     7
100
AcDbSpline
210
0.0
220
0.0
230
1.0
 70
     8
 71
     3
 72
    29
 73
    25
 74
     0
 42
0.00000001
 43
0.00000001
 40
0.0
 40
0.0
 40
0.0
 40
0.0
 40
1.0
 40
1.0
 40
1.0
 40
2.0
 40
2.0
 40
2.0
 40
3.0
 40
3.0
 40
3.0
 40
4.0
 40
4.0
 40
4.0
 40
5.0
 40
5.0
 40
5.0
 40
6.0
 40
6.0
 40
6.0
 40
7.0
 40
7.0
 40
7.0
 40
8.0
 40
8.0
 40
8.0
 40
8.0
 10
123.82499999999999
 20
141.913818359375
 30
0.0
 10
123.82499999999999
 20
141.36122504340275
 30
0.0
 10
123.37713758680555
 20
140.91370713975692
 30
0.0
 10
122.82523328993055
 20
140.91370713975692
 30
0.0
 10
122.82523328993055
 20
140.91370713975692
 30
0.0
 10
121.82477756076388
 20
140.91370713975692
 30
0.0
 10
121.82477756076388
 20
140.91370713975692
 30
0.0
 10
121.27287326388888
 20
140.91370713975692
 30
0.0
 10
120.82501085069444
 20
141.36122504340275
 30
0.0
 10
120.82501085069444
 20
141.913818359375
 30
0.0
 10
120.82501085069444
 20
141.913818359375
 30
0.0
 10
120.82501085069444
 20
143.9136962890625
 30
0.0
 10
120.82501085069444
 20
143.9136962890625
 30
0.0
 10
120.82501085069444
 20
144.46594509548609
 30
0.0
 10
121.27287326388888
 20
144.91380750868055
 30
0.0
 10
121.82477756076388
 20
144.91380750868055
 30
0.0
 10
121.82477756076388
 20
144.91380750868055
 30
0.0
 10
122.82523328993055
 20
144.91380750868055
 30
0.0
 10
122.82523328993055
 20
144.91380750868055
 30
0.0
 10
123.37713758680555
 20
144.91380750868055
 30
0.0
 10
123.82499999999999
 20
144.46594509548609
 30
0.0
 10
123.82499999999999
 20
143.9136962890625
 30
0.0
 10
123.82499999999999
 20
143.9136962890625
 30
0.0
 10
123.82499999999999
 20
141.913818359375
 30
0.0
 10
123.82499999999999
 20
141.913818359375
 30
0.0
  0
SPLINE
  5
72
100
AcDbEntity
  8
CALQUE_1
 62
     7
100
AcDbSpline
210
0.0
220
0.0
230
1.0
 70
     8
 71
     3
 72
    29
 73
    25
 74
     0
 42
0.00000001
 43
0.00000001
 40
0.0
 40
0.0
 40
0.0
 40
0.0
 40
1.0
 40
1.0
 40
1.0
 40
2.0
 40
2.0
 40
2.0
 40
3.0
 40
3.0
 40
3.0
 40
4.0
 40
4.0
 40
4.0
 40
5.0
 40
5.0
 40
5.0
 40
6.0
 40
6.0
 40
6.0
 40
7.0
 40
7.0
 40
7.0
 40
8.0
 40
8.0
 40
8.0
 40
8.0
 10
134.96230468749999
 20
141.913818359375
 30
0.0
 10
134.96230468749999
 20
141.36122504340275
 30
0.0
 10
134.51444227430554
 20
140.91370713975692
 30
0.0
 10
133.96253797743054
 20
140.91370713975692
 30
0.0
 10
133.96253797743054
 20
140.91370713975692
 30
0.0
 10
132.96208224826387
 20
140.91370713975692
 30
0.0
 10
132.96208224826387
 20
140.91370713975692
 30
0.0
 10
132.41017795138887
 20
140.91370713975692
 30
0.0
 10
131.96231553819445
 20
141.36122504340275
 30
0.0
 10
131.96231553819445
 20
141.913818359375
 30
0.0
 10
131.96231553819445
 20
141.913818359375
 30
0.0
 10
131.96231553819445
 20
143.9136962890625
 30
0.0
 10
131.96231553819445
 20
143.9136962890625
 30
0.0
 10
131.96231553819445
 20
144.46594509548609
 30
0.0
 10
132.41017795138887
 20
144.91380750868055
 30
0.0
 10
132.96208224826387
 20
144.91380750868055
 30
0.0
 10
132.96208224826387
 20
144.91380750868055
 30
0.0
 10
133.96253797743054
 20
144.91380750868055
 30
0.0
 10
133.96253797743054
 20
144.91380750868055
 30
0.0
 10
134.51444227430554
 20
144.91380750868055
 30
0.0
 10
134.96230468749999
 20
144.46594509548609
 30
0.0
 10
134.96230468749999
 20
143.9136962890625
 30
0.0
 10
134.96230468749999
 20
143.9136962890625
 30
0.0
 10
134.96230468749999
 20
141.913818359375
 30
0.0
 10
134.96230468749999
 20
141.913818359375
 30
0.0
  0
SPLINE
  5
71
100
AcDbEntity
  8
CALQUE_1
 62
     7
100
AcDbSpline
210
0.0
220
0.0
230
1.0
 70
     8
 71
     3
 72
    29
 73
    25
 74
     0
 42
0.00000001
 43
0.00000001
 40
0.0
 40
0.0
 40
0.0
 40
0.0
 40
1.0
 40
1.0
 40
1.0
 40
2.0
 40
2.0
 40
2.0
 40
3.0
 40
3.0
 40
3.0
 40
4.0
 40
4.0
 40
4.0
 40
5.0
 40
5.0
 40
5.0
 40
6.0
 40
6.0
 40
6.0
 40
7.0
 40
7.0
 40
7.0
 40
8.0
 40
8.0
 40
8.0
 40
8.0
 10
146.099609375
 20
141.913818359375
 30
0.0
 10
146.099609375
 20
141.36122504340275
 30
0.0
 10
145.65174696180554
 20
140.91370713975692
 30
0.0
 10
145.09984266493055
 20
140.91370713975692
 30
0.0
 10
145.09984266493055
 20
140.91370713975692
 30
0.0
 10
144.09938693576387
 20
140.91370713975692
 30
0.0
 10
144.09938693576387
 20
140.91370713975692
 30
0.0
 10
143.54748263888888
 20
140.91370713975692
 30
0.0
 10
143.09962022569442
 20
141.36122504340275
 30
0.0
 10
143.09962022569442
 20
141.913818359375
 30
0.0
 10
143.09962022569442
 20
141.913818359375
 30
0.0
 10
143.09962022569442
 20
143.9136962890625
 30
0.0
 10
143.09962022569442
 20
143.9136962890625
 30
0.0
 10
143.09962022569442
 20
144.46594509548609
 30
0.0
 10
143.54748263888888
 20
144.91380750868055
 30
0.0
 10
144.09938693576387
 20
144.91380750868055
 30
0.0
 10
144.09938693576387
 20
144.91380750868055
 30
0.0
 10
145.09984266493055
 20
144.91380750868055
 30
0.0
 10
145.09984266493055
 20
144.91380750868055
 30
0.0
 10
145.65174696180554
 20
144.91380750868055
 30
0.0
 10
146.099609375
 20
144.46594509548609
 30
0.0
 10
146.099609375
 20
143.9136962890625
 30
0.0
 10
146.099609375
 20
143.9136962890625
 30
0.0
 10
146.099609375
 20
141.913818359375
 30
0.0
 10
146.099609375
 20
141.913818359375
 30
0.0
  0
SPLINE
  5
70
100
AcDbEntity
  8
CALQUE_1
 62
     7
100
AcDbSpline
210
0.0
220
0.0
230
1.0
 70
     8
 71
     3
 72
    29
 73
    25
 74
     0
 42
0.00000001
 43
0.00000001
 40
0.0
 40
0.0
 40
0.0
 40
0.0
 40
1.0
 40
1.0
 40
1.0
 40
2.0
 40
2.0
 40
2.0
 40
3.0
 40
3.0
 40
3.0
 40
4.0
 40
4.0
 40
4.0
 40
5.0
 40
5.0
 40
5.0
 40
6.0
 40
6.0
 40
6.0
 40
7.0
 40
7.0
 40
7.0
 40
8.0
 40
8.0
 40
8.0
 40
8.0
 10
157.23691406249998
 20
141.913818359375
 30
0.0
 10
157.23691406249998
 20
141.36122504340275
 30
0.0
 10
156.78905164930555
 20
140.91370713975692
 30
0.0
 10
156.23714735243055
 20
140.91370713975692
 30
0.0
 10
156.23714735243055
 20
140.91370713975692
 30
0.0
 10
155.23669162326388
 20
140.91370713975692
 30
0.0
 10
155.23669162326388
 20
140.91370713975692
 30
0.0
 10
154.68478732638889
 20
140.91370713975692
 30
0.0
 10
154.23692491319443
 20
141.36122504340275
 30
0.0
 10
154.23692491319443
 20
141.913818359375
 30
0.0
 10
154.23692491319443
 20
141.913818359375
 30
0.0
 10
154.23692491319443
 20
143.9136962890625
 30
0.0
 10
154.23692491319443
 20
143.9136962890625
 30
0.0
 10
154.23692491319443
 20
144.46594509548609
 30
0.0
 10
154.68478732638889
 20
144.91380750868055
 30
0.0
 10
155.23669162326388
 20
144.91380750868055
 30
0.0
 10
155.23669162326388
 20
144.91380750868055
 30
0.0
 10
156.23714735243055
 20
144.91380750868055
 30
0.0
 10
156.23714735243055
 20
144.91380750868055
 30
0.0
 10
156.78905164930555
 20
144.91380750868055
 30
0.0
 10
157.23691406249998
 20
144.46594509548609
 30
0.0
 10
157.23691406249998
 20
143.9136962890625
 30
0.0
 10
157.23691406249998
 20
143.9136962890625
 30
0.0
 10
157.23691406249998
 20
141.913818359375
 30
0.0
 10
157.23691406249998
 20
141.913818359375
 30
0.0
  0
SPLINE
  5
6F
100
AcDbEntity
  8
CALQUE_1
 62
     7
100
AcDbSpline
210
0.0
220
0.0
230
1.0
 70
     8
 71
     3
 72
    29
 73
    25
 74
     0
 42
0.00000001
 43
0.00000001
 40
0.0
 40
0.0
 40
0.0
 40
0.0
 40
1.0
 40
1.0
 40
1.0
 40
2.0
 40
2.0
 40
2.0
 40
3.0
 40
3.0
 40
3.0
 40
4.0
 40
4.0
 40
4.0
 40
5.0
 40
5.0
 40
5.0
 40
6.0
 40
6.0
 40
6.0
 40
7.0
 40
7.0
 40
7.0
 40
8.0
 40
8.0
 40
8.0
 40
8.0
 10
168.37421874999998
 20
141.913818359375
 30
0.0
 10
168.37421874999998
 20
141.36122504340275
 30
0.0
 10
167.92635633680555
 20
140.91370713975692
 30
0.0
 10
167.37445203993053
 20
140.91370713975692
 30
0.0
 10
167.37445203993053
 20
140.91370713975692
 30
0.0
 10
166.37399631076389
 20
140.91370713975692
 30
0.0
 10
166.37399631076389
 20
140.91370713975692
 30
0.0
 10
165.82209201388886
 20
140.91370713975692
 30
0.0
 10
165.37422960069443
 20
141.36122504340275
 30
0.0
 10
165.37422960069443
 20
141.913818359375
 30
0.0
 10
165.37422960069443
 20
141.913818359375
 30
0.0
 10
165.37422960069443
 20
143.9136962890625
 30
0.0
 10
165.37422960069443
 20
143.9136962890625
 30
0.0
 10
165.37422960069443
 20
144.46594509548609
 30
0.0
 10
165.82209201388886
 20
144.91380750868055
 30
0.0
 10
166.37399631076389
 20
144.91380750868055
 30
0.0
 10
166.37399631076389
 20
144.91380750868055
 30
0.0
 10
167.37445203993053
 20
144.91380750868055
 30
0.0
 10
167.37445203993053
 20
144.91380750868055
 30
0.0
 10
167.92635633680555
 20
144.91380750868055
 30
0.0
 10
168.37421874999998
 20
144.46594509548609
 30
0.0
 10
168.37421874999998
 20
143.9136962890625
 30
0.0
 10
168.37421874999998
 20
143.9136962890625
 30
0.0
 10
168.37421874999998
 20
141.913818359375
 30
0.0
 10
168.37421874999998
 20
141.913818359375
 30
0.0
  0
SPLINE
  5
6E
100
AcDbEntity
  8
CALQUE_1
 62
     7
100
AcDbSpline
210
0.0
220
0.0
230
1.0
 70
     8
 71
     3
 72
    29
 73
    25
 74
     0
 42
0.00000001
 43
0.00000001
 40
0.0
 40
0.0
 40
0.0
 40
0.0
 40
1.0
 40
1.0
 40
1.0
 40
2.0
 40
2.0
 40
2.0
 40
3.0
 40
3.0
 40
3.0
 40
4.0
 40
4.0
 40
4.0
 40
5.0
 40
5.0
 40
5.0
 40
6.0
 40
6.0
 40
6.0
 40
7.0
 40
7.0
 40
7.0
 40
8.0
 40
8.0
 40
8.0
 40
8.0
 10
179.51152343749999
 20
141.913818359375
 30
0.0
 10
179.51152343749999
 20
141.36122504340275
 30
0.0
 10
179.06366102430553
 20
140.91370713975692
 30
0.0
 10
178.51175672743054
 20
140.91370713975692
 30
0.0
 10
178.51175672743054
 20
140.91370713975692
 30
0.0
 10
177.51130099826386
 20
140.91370713975692
 30
0.0
 10
177.51130099826386
 20
140.91370713975692
 30
0.0
 10
176.95939670138887
 20
140.91370713975692
 30
0.0
 10
176.51153428819444
 20
141.36122504340275
 30
0.0
 10
176.51153428819444
 20
141.913818359375
 30
0.0
 10
176.51153428819444
 20
141.913818359375
 30
0.0
 10
176.51153428819444
 20
143.9136962890625
 30
0.0
 10
176.51153428819444
 20
143.9136962890625
 30
0.0
 10
176.51153428819444
 20
144.46594509548609
 30
0.0
 10
176.95939670138887
 20
144.91380750868055
 30
0.0
 10
177.51130099826386
 20
144.91380750868055
 30
0.0
 10
177.51130099826386
 20
144.91380750868055
 30
0.0
 10
178.51175672743054
 20
144.91380750868055
 30
0.0
 10
178.51175672743054
 20
144.91380750868055
 30
0.0
 10
179.06366102430553
 20
144.91380750868055
 30
0.0
 10
179.51152343749999
 20
144.46594509548609
 30
0.0
 10
179.51152343749999
 20
143.9136962890625
 30
0.0
 10
179.51152343749999
 20
143.9136962890625
 30
0.0
 10
179.51152343749999
 20
141.913818359375
 30
0.0
 10
179.51152343749999
 20
141.913818359375
 30
0.0
  0
SPLINE
  5
6D
100
AcDbEntity
  8
CALQUE_1
 62
     7
100
AcDbSpline
210
0.0
220
0.0
230
1.0
 70
     8
 71
     3
 72
    29
 73
    25
 74
     0
 42
0.00000001
 43
0.00000001
 40
0.0
 40
0.0
 40
0.0
 40
0.0
 40
1.0
 40
1.0
 40
1.0
 40
2.0
 40
2.0
 40
2.0
 40
3.0
 40
3.0
 40
3.0
 40
4.0
 40
4.0
 40
4.0
 40
5.0
 40
5.0
 40
5.0
 40
6.0
 40
6.0
 40
6.0
 40
7.0
 40
7.0
 40
7.0
 40
8.0
 40
8.0
 40
8.0
 40
8.0
 10
190.64882812499999
 20
141.913818359375
 30
0.0
 10
190.64882812499999
 20
141.36122504340275
 30
0.0
 10
190.20096571180554
 20
140.91370713975692
 30
0.0
 10
189.64906141493054
 20
140.91370713975692
 30
0.0
 10
189.64906141493054
 20
140.91370713975692
 30
0.0
 10
188.64860568576387
 20
140.91370713975692
 30
0.0
 10
188.64860568576387
 20
140.91370713975692
 30
0.0
 10
188.09670138888887
 20
140.91370713975692
 30
0.0
 10
187.64883897569442
 20
141.36122504340275
 30
0.0
 10
187.64883897569442
 20
141.913818359375
 30
0.0
 10
187.64883897569442
 20
141.913818359375
 30
0.0
 10
187.64883897569442
 20
143.9136962890625
 30
0.0
 10
187.64883897569442
 20
143.9136962890625
 30
0.0
 10
187.64883897569442
 20
144.46594509548609
 30
0.0
 10
188.09670138888887
 20
144.91380750868055
 30
0.0
 10
188.64860568576387
 20
144.91380750868055
 30
0.0
 10
188.64860568576387
 20
144.91380750868055
 30
0.0
 10
189.64906141493054
 20
144.91380750868055
 30
0.0
 10
189.64906141493054
 20
144.91380750868055
 30
0.0
 10
190.20096571180554
 20
144.91380750868055
 30
0.0
 10
190.64882812499999
 20
144.46594509548609
 30
0.0
 10
190.64882812499999
 20
143.9136962890625
 30
0.0
 10
190.64882812499999
 20
143.9136962890625
 30
0.0
 10
190.64882812499999
 20
141.913818359375
 30
0.0
 10
190.64882812499999
 20
141.913818359375
 30
0.0
  0
SPLINE
  5
6C
100
AcDbEntity
  8
CALQUE_1
 62
     7
100
AcDbSpline
210
0.0
220
0.0
230
1.0
 70
     8
 71
     3
 72
    29
 73
    25
 74
     0
 42
0.00000001
 43
0.00000001
 40
0.0
 40
0.0
 40
0.0
 40
0.0
 40
1.0
 40
1.0
 40
1.0
 40
2.0
 40
2.0
 40
2.0
 40
3.0
 40
3.0
 40
3.0
 40
4.0
 40
4.0
 40
4.0
 40
5.0
 40
5.0
 40
5.0
 40
6.0
 40
6.0
 40
6.0
 40
7.0
 40
7.0
 40
7.0
 40
8.0
 40
8.0
 40
8.0
 40
8.0
 10
12.451953124999999
 20
132.03604058159721
 30
0.0
 10
12.451953124999999
 20
131.48344726562499
 30
0.0
 10
12.004090711805555
 20
131.03592936197916
 30
0.0
 10
11.452186414930555
 20
131.03592936197916
 30
0.0
 10
11.452186414930555
 20
131.03592936197916
 30
0.0
 10
10.451730685763888
 20
131.03592936197916
 30
0.0
 10
10.451730685763888
 20
131.03592936197916
 30
0.0
 10
9.8998263888888882
 20
131.03592936197916
 30
0.0
 10
9.4519639756944436
 20
131.48344726562499
 30
0.0
 10
9.4519639756944436
 20
132.03604058159721
 30
0.0
 10
9.4519639756944436
 20
132.03604058159721
 30
0.0
 10
9.4519639756944436
 20
134.03591851128471
 30
0.0
 10
9.4519639756944436
 20
134.03591851128471
 30
0.0
 10
9.4519639756944436
 20
134.58816731770833
 30
0.0
 10
9.8998263888888882
 20
135.03602973090275
 30
0.0
 10
10.451730685763888
 20
135.03602973090275
 30
0.0
 10
10.451730685763888
 20
135.03602973090275
 30
0.0
 10
11.452186414930555
 20
135.03602973090275
 30
0.0
 10
11.452186414930555
 20
135.03602973090275
 30
0.0
 10
12.004090711805555
 20
135.03602973090275
 30
0.0
 10
12.451953124999999
 20
134.58816731770833
 30
0.0
 10
12.451953124999999
 20
134.03591851128471
 30
0.0
 10
12.451953124999999
 20
134.03591851128471
 30
0.0
 10
12.451953124999999
 20
132.03604058159721
 30
0.0
 10
12.451953124999999
 20
132.03604058159721
 30
0.0
  0
SPLINE
  5
6B
100
AcDbEntity
  8
CALQUE_1
 62
     7
100
AcDbSpline
210
0.0
220
0.0
230
1.0
 70
     8
 71
     3
 72
    29
 73
    25
 74
     0
 42
0.00000001
 43
0.00000001
 40
0.0
 40
0.0
 40
0.0
 40
0.0
 40
1.0
 40
1.0
 40
1.0
 40
2.0
 40
2.0
 40
2.0
 40
3.0
 40
3.0
 40
3.0
 40
4.0
 40
4.0
 40
4.0
 40
5.0
 40
5.0
 40
5.0
 40
6.0
 40
6.0
 40
6.0
 40
7.0
 40
7.0
 40
7.0
 40
8.0
 40
8.0
 40
8.0
 40
8.0
 10
23.589257812499998
 20
132.03604058159721
 30
0.0
 10
23.589257812499998
 20
131.48344726562499
 30
0.0
 10
23.141395399305555
 20
131.03592936197916
 30
0.0
 10
22.589491102430554
 20
131.03592936197916
 30
0.0
 10
22.589491102430554
 20
131.03592936197916
 30
0.0
 10
21.589035373263886
 20
131.03592936197916
 30
0.0
 10
21.589035373263886
 20
131.03592936197916
 30
0.0
 10
21.037131076388889
 20
131.03592936197916
 30
0.0
 10
20.589268663194442
 20
131.48344726562499
 30
0.0
 10
20.589268663194442
 20
132.03604058159721
 30
0.0
 10
20.589268663194442
 20
132.03604058159721
 30
0.0
 10
20.589268663194442
 20
134.03591851128471
 30
0.0
 10
20.589268663194442
 20
134.03591851128471
 30
0.0
 10
20.589268663194442
 20
134.58816731770833
 30
0.0
 10
21.037131076388889
 20
135.03602973090275
 30
0.0
 10
21.589035373263886
 20
135.03602973090275
 30
0.0
 10
21.589035373263886
 20
135.03602973090275
 30
0.0
 10
22.589491102430554
 20
135.03602973090275
 30
0.0
 10
22.589491102430554
 20
135.03602973090275
 30
0.0
 10
23.141395399305555
 20
135.03602973090275
 30
0.0
 10
23.589257812499998
 20
134.58816731770833
 30
0.0
 10
23.589257812499998
 20
134.03591851128471
 30
0.0
 10
23.589257812499998
 20
134.03591851128471
 30
0.0
 10
23.589257812499998
 20
132.03604058159721
 30
0.0
 10
23.589257812499998
 20
132.03604058159721
 30
0.0
  0
SPLINE
  5
6A
100
AcDbEntity
  8
CALQUE_1
 62
     7
100
AcDbSpline
210
0.0
220
0.0
230
1.0
 70
     8
 71
     3
 72
    29
 73
    25
 74
     0
 42
0.00000001
 43
0.00000001
 40
0.0
 40
0.0
 40
0.0
 40
0.0
 40
1.0
 40
1.0
 40
1.0
 40
2.0
 40
2.0
 40
2.0
 40
3.0
 40
3.0
 40
3.0
 40
4.0
 40
4.0
 40
4.0
 40
5.0
 40
5.0
 40
5.0
 40
6.0
 40
6.0
 40
6.0
 40
7.0
 40
7.0
 40
7.0
 40
8.0
 40
8.0
 40
8.0
 40
8.0
 10
34.7265625
 20
132.03604058159721
 30
0.0
 10
34.7265625
 20
131.48344726562499
 30
0.0
 10
34.27870008680555
 20
131.03592936197916
 30
0.0
 10
33.726795789930556
 20
131.03592936197916
 30
0.0
 10
33.726795789930556
 20
131.03592936197916
 30
0.0
 10
32.726340060763889
 20
131.03592936197916
 30
0.0
 10
32.726340060763889
 20
131.03592936197916
 30
0.0
 10
32.174435763888887
 20
131.03592936197916
 30
0.0
 10
31.726573350694441
 20
131.48344726562499
 30
0.0
 10
31.726573350694441
 20
132.03604058159721
 30
0.0
 10
31.726573350694441
 20
132.03604058159721
 30
0.0
 10
31.726573350694441
 20
134.03591851128471
 30
0.0
 10
31.726573350694441
 20
134.03591851128471
 30
0.0
 10
31.726573350694441
 20
134.58816731770833
 30
0.0
 10
32.174435763888887
 20
135.03602973090275
 30
0.0
 10
32.726340060763889
 20
135.03602973090275
 30
0.0
 10
32.726340060763889
 20
135.03602973090275
 30
0.0
 10
33.726795789930556
 20
135.03602973090275
 30
0.0
 10
33.726795789930556
 20
135.03602973090275
 30
0.0
 10
34.27870008680555
 20
135.03602973090275
 30
0.0
 10
34.7265625
 20
134.58816731770833
 30
0.0
 10
34.7265625
 20
134.03591851128471
 30
0.0
 10
34.7265625
 20
134.03591851128471
 30
0.0
 10
34.7265625
 20
132.03604058159721
 30
0.0
 10
34.7265625
 20
132.03604058159721
 30
0.0
  0
SPLINE
  5
69
100
AcDbEntity
  8
CALQUE_1
 62
     7
100
AcDbSpline
210
0.0
220
0.0
230
1.0
 70
     8
 71
     3
 72
    29
 73
    25
 74
     0
 42
0.00000001
 43
0.00000001
 40
0.0
 40
0.0
 40
0.0
 40
0.0
 40
1.0
 40
1.0
 40
1.0
 40
2.0
 40
2.0
 40
2.0
 40
3.0
 40
3.0
 40
3.0
 40
4.0
 40
4.0
 40
4.0
 40
5.0
 40
5.0
 40
5.0
 40
6.0
 40
6.0
 40
6.0
 40
7.0
 40
7.0
 40
7.0
 40
8.0
 40
8.0
 40
8.0
 40
8.0
 10
45.863867187499999
 20
132.03604058159721
 30
0.0
 10
45.863867187499999
 20
131.48344726562499
 30
0.0
 10
45.416004774305549
 20
131.03592936197916
 30
0.0
 10
44.864100477430554
 20
131.03592936197916
 30
0.0
 10
44.864100477430554
 20
131.03592936197916
 30
0.0
 10
43.863644748263887
 20
131.03592936197916
 30
0.0
 10
43.863644748263887
 20
131.03592936197916
 30
0.0
 10
43.311740451388886
 20
131.03592936197916
 30
0.0
 10
42.863878038194443
 20
131.48344726562499
 30
0.0
 10
42.863878038194443
 20
132.03604058159721
 30
0.0
 10
42.863878038194443
 20
132.03604058159721
 30
0.0
 10
42.863878038194443
 20
134.03591851128471
 30
0.0
 10
42.863878038194443
 20
134.03591851128471
 30
0.0
 10
42.863878038194443
 20
134.58816731770833
 30
0.0
 10
43.311740451388886
 20
135.03602973090275
 30
0.0
 10
43.863644748263887
 20
135.03602973090275
 30
0.0
 10
43.863644748263887
 20
135.03602973090275
 30
0.0
 10
44.864100477430554
 20
135.03602973090275
 30
0.0
 10
44.864100477430554
 20
135.03602973090275
 30
0.0
 10
45.416004774305549
 20
135.03602973090275
 30
0.0
 10
45.863867187499999
 20
134.58816731770833
 30
0.0
 10
45.863867187499999
 20
134.03591851128471
 30
0.0
 10
45.863867187499999
 20
134.03591851128471
 30
0.0
 10
45.863867187499999
 20
132.03604058159721
 30
0.0
 10
45.863867187499999
 20
132.03604058159721
 30
0.0
  0
SPLINE
  5
68
100
AcDbEntity
  8
CALQUE_1
 62
     7
100
AcDbSpline
210
0.0
220
0.0
230
1.0
 70
     8
 71
     3
 72
    29
 73
    25
 74
     0
 42
0.00000001
 43
0.00000001
 40
0.0
 40
0.0
 40
0.0
 40
0.0
 40
1.0
 40
1.0
 40
1.0
 40
2.0
 40
2.0
 40
2.0
 40
3.0
 40
3.0
 40
3.0
 40
4.0
 40
4.0
 40
4.0
 40
5.0
 40
5.0
 40
5.0
 40
6.0
 40
6.0
 40
6.0
 40
7.0
 40
7.0
 40
7.0
 40
8.0
 40
8.0
 40
8.0
 40
8.0
 10
57.001171874999997
 20
132.03604058159721
 30
0.0
 10
57.001171874999997
 20
131.48344726562499
 30
0.0
 10
56.553309461805547
 20
131.03592936197916
 30
0.0
 10
56.001405164930553
 20
131.03592936197916
 30
0.0
 10
56.001405164930553
 20
131.03592936197916
 30
0.0
 10
55.000949435763886
 20
131.03592936197916
 30
0.0
 10
55.000949435763886
 20
131.03592936197916
 30
0.0
 10
54.449045138888884
 20
131.03592936197916
 30
0.0
 10
54.001182725694441
 20
131.48344726562499
 30
0.0
 10
54.001182725694441
 20
132.03604058159721
 30
0.0
 10
54.001182725694441
 20
132.03604058159721
 30
0.0
 10
54.001182725694441
 20
134.03591851128471
 30
0.0
 10
54.001182725694441
 20
134.03591851128471
 30
0.0
 10
54.001182725694441
 20
134.58816731770833
 30
0.0
 10
54.449045138888884
 20
135.03602973090275
 30
0.0
 10
55.000949435763886
 20
135.03602973090275
 30
0.0
 10
55.000949435763886
 20
135.03602973090275
 30
0.0
 10
56.001405164930553
 20
135.03602973090275
 30
0.0
 10
56.001405164930553
 20
135.03602973090275
 30
0.0
 10
56.553309461805547
 20
135.03602973090275
 30
0.0
 10
57.001171874999997
 20
134.58816731770833
 30
0.0
 10
57.001171874999997
 20
134.03591851128471
 30
0.0
 10
57.001171874999997
 20
134.03591851128471
 30
0.0
 10
57.001171874999997
 20
132.03604058159721
 30
0.0
 10
57.001171874999997
 20
132.03604058159721
 30
0.0
  0
SPLINE
  5
67
100
AcDbEntity
  8
CALQUE_1
 62
     7
100
AcDbSpline
210
0.0
220
0.0
230
1.0
 70
     8
 71
     3
 72
    29
 73
    25
 74
     0
 42
0.00000001
 43
0.00000001
 40
0.0
 40
0.0
 40
0.0
 40
0.0
 40
1.0
 40
1.0
 40
1.0
 40
2.0
 40
2.0
 40
2.0
 40
3.0
 40
3.0
 40
3.0
 40
4.0
 40
4.0
 40
4.0
 40
5.0
 40
5.0
 40
5.0
 40
6.0
 40
6.0
 40
6.0
 40
7.0
 40
7.0
 40
7.0
 40
8.0
 40
8.0
 40
8.0
 40
8.0
 10
68.138476562499989
 20
132.03604058159721
 30
0.0
 10
68.138476562499989
 20
131.48344726562499
 30
0.0
 10
67.690614149305546
 20
131.03592936197916
 30
0.0
 10
67.138709852430551
 20
131.03592936197916
 30
0.0
 10
67.138709852430551
 20
131.03592936197916
 30
0.0
 10
66.138254123263877
 20
131.03592936197916
 30
0.0
 10
66.138254123263877
 20
131.03592936197916
 30
0.0
 10
65.586349826388883
 20
131.03592936197916
 30
0.0
 10
65.13848741319444
 20
131.48344726562499
 30
0.0
 10
65.13848741319444
 20
132.03604058159721
 30
0.0
 10
65.13848741319444
 20
132.03604058159721
 30
0.0
 10
65.13848741319444
 20
134.03591851128471
 30
0.0
 10
65.13848741319444
 20
134.03591851128471
 30
0.0
 10
65.13848741319444
 20
134.58816731770833
 30
0.0
 10
65.586349826388883
 20
135.03602973090275
 30
0.0
 10
66.138254123263877
 20
135.03602973090275
 30
0.0
 10
66.138254123263877
 20
135.03602973090275
 30
0.0
 10
67.138709852430551
 20
135.03602973090275
 30
0.0
 10
67.138709852430551
 20
135.03602973090275
 30
0.0
 10
67.690614149305546
 20
135.03602973090275
 30
0.0
 10
68.138476562499989
 20
134.58816731770833
 30
0.0
 10
68.138476562499989
 20
134.03591851128471
 30
0.0
 10
68.138476562499989
 20
134.03591851128471
 30
0.0
 10
68.138476562499989
 20
132.03604058159721
 30
0.0
 10
68.138476562499989
 20
132.03604058159721
 30
0.0
  0
SPLINE
  5
66
100
AcDbEntity
  8
CALQUE_1
 62
     7
100
AcDbSpline
210
0.0
220
0.0
230
1.0
 70
     8
 71
     3
 72
    29
 73
    25
 74
     0
 42
0.00000001
 43
0.00000001
 40
0.0
 40
0.0
 40
0.0
 40
0.0
 40
1.0
 40
1.0
 40
1.0
 40
2.0
 40
2.0
 40
2.0
 40
3.0
 40
3.0
 40
3.0
 40
4.0
 40
4.0
 40
4.0
 40
5.0
 40
5.0
 40
5.0
 40
6.0
 40
6.0
 40
6.0
 40
7.0
 40
7.0
 40
7.0
 40
8.0
 40
8.0
 40
8.0
 40
8.0
 10
79.275781249999994
 20
132.03604058159721
 30
0.0
 10
79.275781249999994
 20
131.48344726562499
 30
0.0
 10
78.827918836805551
 20
131.03592936197916
 30
0.0
 10
78.276014539930543
 20
131.03592936197916
 30
0.0
 10
78.276014539930543
 20
131.03592936197916
 30
0.0
 10
77.275558810763883
 20
131.03592936197916
 30
0.0
 10
77.275558810763883
 20
131.03592936197916
 30
0.0
 10
76.723654513888889
 20
131.03592936197916
 30
0.0
 10
76.275792100694431
 20
131.48344726562499
 30
0.0
 10
76.275792100694431
 20
132.03604058159721
 30
0.0
 10
76.275792100694431
 20
132.03604058159721
 30
0.0
 10
76.275792100694431
 20
134.03591851128471
 30
0.0
 10
76.275792100694431
 20
134.03591851128471
 30
0.0
 10
76.275792100694431
 20
134.58816731770833
 30
0.0
 10
76.723654513888889
 20
135.03602973090275
 30
0.0
 10
77.275558810763883
 20
135.03602973090275
 30
0.0
 10
77.275558810763883
 20
135.03602973090275
 30
0.0
 10
78.276014539930543
 20
135.03602973090275
 30
0.0
 10
78.276014539930543
 20
135.03602973090275
 30
0.0
 10
78.827918836805551
 20
135.03602973090275
 30
0.0
 10
79.275781249999994
 20
134.58816731770833
 30
0.0
 10
79.275781249999994
 20
134.03591851128471
 30
0.0
 10
79.275781249999994
 20
134.03591851128471
 30
0.0
 10
79.275781249999994
 20
132.03604058159721
 30
0.0
 10
79.275781249999994
 20
132.03604058159721
 30
0.0
  0
SPLINE
  5
65
100
AcDbEntity
  8
CALQUE_1
 62
     7
100
AcDbSpline
210
0.0
220
0.0
230
1.0
 70
     8
 71
     3
 72
    29
 73
    25
 74
     0
 42
0.00000001
 43
0.00000001
 40
0.0
 40
0.0
 40
0.0
 40
0.0
 40
1.0
 40
1.0
 40
1.0
 40
2.0
 40
2.0
 40
2.0
 40
3.0
 40
3.0
 40
3.0
 40
4.0
 40
4.0
 40
4.0
 40
5.0
 40
5.0
 40
5.0
 40
6.0
 40
6.0
 40
6.0
 40
7.0
 40
7.0
 40
7.0
 40
8.0
 40
8.0
 40
8.0
 40
8.0
 10
90.413085937499986
 20
132.03604058159721
 30
0.0
 10
90.413085937499986
 20
131.48344726562499
 30
0.0
 10
89.965223524305543
 20
131.03592936197916
 30
0.0
 10
89.413319227430549
 20
131.03592936197916
 30
0.0
 10
89.413319227430549
 20
131.03592936197916
 30
0.0
 10
88.412863498263874
 20
131.03592936197916
 30
0.0
 10
88.412863498263874
 20
131.03592936197916
 30
0.0
 10
87.86095920138888
 20
131.03592936197916
 30
0.0
 10
87.413096788194437
 20
131.48344726562499
 30
0.0
 10
87.413096788194437
 20
132.03604058159721
 30
0.0
 10
87.413096788194437
 20
132.03604058159721
 30
0.0
 10
87.413096788194437
 20
134.03591851128471
 30
0.0
 10
87.413096788194437
 20
134.03591851128471
 30
0.0
 10
87.413096788194437
 20
134.58816731770833
 30
0.0
 10
87.86095920138888
 20
135.03602973090275
 30
0.0
 10
88.412863498263874
 20
135.03602973090275
 30
0.0
 10
88.412863498263874
 20
135.03602973090275
 30
0.0
 10
89.413319227430549
 20
135.03602973090275
 30
0.0
 10
89.413319227430549
 20
135.03602973090275
 30
0.0
 10
89.965223524305543
 20
135.03602973090275
 30
0.0
 10
90.413085937499986
 20
134.58816731770833
 30
0.0
 10
90.413085937499986
 20
134.03591851128471
 30
0.0
 10
90.413085937499986
 20
134.03591851128471
 30
0.0
 10
90.413085937499986
 20
132.03604058159721
 30
0.0
 10
90.413085937499986
 20
132.03604058159721
 30
0.0
  0
SPLINE
  5
64
100
AcDbEntity
  8
CALQUE_1
 62
     7
100
AcDbSpline
210
0.0
220
0.0
230
1.0
 70
     8
 71
     3
 72
    29
 73
    25
 74
     0
 42
0.00000001
 43
0.00000001
 40
0.0
 40
0.0
 40
0.0
 40
0.0
 40
1.0
 40
1.0
 40
1.0
 40
2.0
 40
2.0
 40
2.0
 40
3.0
 40
3.0
 40
3.0
 40
4.0
 40
4.0
 40
4.0
 40
5.0
 40
5.0
 40
5.0
 40
6.0
 40
6.0
 40
6.0
 40
7.0
 40
7.0
 40
7.0
 40
8.0
 40
8.0
 40
8.0
 40
8.0
 10
101.55039062499999
 20
132.03604058159721
 30
0.0
 10
101.55039062499999
 20
131.48344726562499
 30
0.0
 10
101.10252821180555
 20
131.03592936197916
 30
0.0
 10
100.55062391493054
 20
131.03592936197916
 30
0.0
 10
100.55062391493054
 20
131.03592936197916
 30
0.0
 10
99.55016818576388
 20
131.03592936197916
 30
0.0
 10
99.55016818576388
 20
131.03592936197916
 30
0.0
 10
98.998263888888886
 20
131.03592936197916
 30
0.0
 10
98.550401475694429
 20
131.48344726562499
 30
0.0
 10
98.550401475694429
 20
132.03604058159721
 30
0.0
 10
98.550401475694429
 20
132.03604058159721
 30
0.0
 10
98.550401475694429
 20
134.03591851128471
 30
0.0
 10
98.550401475694429
 20
134.03591851128471
 30
0.0
 10
98.550401475694429
 20
134.58816731770833
 30
0.0
 10
98.998263888888886
 20
135.03602973090275
 30
0.0
 10
99.55016818576388
 20
135.03602973090275
 30
0.0
 10
99.55016818576388
 20
135.03602973090275
 30
0.0
 10
100.55062391493054
 20
135.03602973090275
 30
0.0
 10
100.55062391493054
 20
135.03602973090275
 30
0.0
 10
101.10252821180555
 20
135.03602973090275
 30
0.0
 10
101.55039062499999
 20
134.58816731770833
 30
0.0
 10
101.55039062499999
 20
134.03591851128471
 30
0.0
 10
101.55039062499999
 20
134.03591851128471
 30
0.0
 10
101.55039062499999
 20
132.03604058159721
 30
0.0
 10
101.55039062499999
 20
132.03604058159721
 30
0.0
  0
SPLINE
  5
63
100
AcDbEntity
  8
CALQUE_1
 62
     7
100
AcDbSpline
210
0.0
220
0.0
230
1.0
 70
     8
 71
     3
 72
    29
 73
    25
 74
     0
 42
0.00000001
 43
0.00000001
 40
0.0
 40
0.0
 40
0.0
 40
0.0
 40
1.0
 40
1.0
 40
1.0
 40
2.0
 40
2.0
 40
2.0
 40
3.0
 40
3.0
 40
3.0
 40
4.0
 40
4.0
 40
4.0
 40
5.0
 40
5.0
 40
5.0
 40
6.0
 40
6.0
 40
6.0
 40
7.0
 40
7.0
 40
7.0
 40
8.0
 40
8.0
 40
8.0
 40
8.0
 10
112.68769531249998
 20
132.03604058159721
 30
0.0
 10
112.68769531249998
 20
131.48344726562499
 30
0.0
 10
112.23983289930554
 20
131.03592936197916
 30
0.0
 10
111.68792860243055
 20
131.03592936197916
 30
0.0
 10
111.68792860243055
 20
131.03592936197916
 30
0.0
 10
110.68747287326389
 20
131.03592936197916
 30
0.0
 10
110.68747287326389
 20
131.03592936197916
 30
0.0
 10
110.13556857638888
 20
131.03592936197916
 30
0.0
 10
109.68770616319443
 20
131.48344726562499
 30
0.0
 10
109.68770616319443
 20
132.03604058159721
 30
0.0
 10
109.68770616319443
 20
132.03604058159721
 30
0.0
 10
109.68770616319443
 20
134.03591851128471
 30
0.0
 10
109.68770616319443
 20
134.03591851128471
 30
0.0
 10
109.68770616319443
 20
134.58816731770833
 30
0.0
 10
110.13556857638888
 20
135.03602973090275
 30
0.0
 10
110.68747287326389
 20
135.03602973090275
 30
0.0
 10
110.68747287326389
 20
135.03602973090275
 30
0.0
 10
111.68792860243055
 20
135.03602973090275
 30
0.0
 10
111.68792860243055
 20
135.03602973090275
 30
0.0
 10
112.23983289930554
 20
135.03602973090275
 30
0.0
 10
112.68769531249998
 20
134.58816731770833
 30
0.0
 10
112.68769531249998
 20
134.03591851128471
 30
0.0
 10
112.68769531249998
 20
134.03591851128471
 30
0.0
 10
112.68769531249998
 20
132.03604058159721
 30
0.0
 10
112.68769531249998
 20
132.03604058159721
 30
0.0
  0
SPLINE
  5
62
100
AcDbEntity
  8
CALQUE_1
 62
     7
100
AcDbSpline
210
0.0
220
0.0
230
1.0
 70
     8
 71
     3
 72
    29
 73
    25
 74
     0
 42
0.00000001
 43
0.00000001
 40
0.0
 40
0.0
 40
0.0
 40
0.0
 40
1.0
 40
1.0
 40
1.0
 40
2.0
 40
2.0
 40
2.0
 40
3.0
 40
3.0
 40
3.0
 40
4.0
 40
4.0
 40
4.0
 40
5.0
 40
5.0
 40
5.0
 40
6.0
 40
6.0
 40
6.0
 40
7.0
 40
7.0
 40
7.0
 40
8.0
 40
8.0
 40
8.0
 40
8.0
 10
123.82499999999999
 20
132.03604058159721
 30
0.0
 10
123.82499999999999
 20
131.48344726562499
 30
0.0
 10
123.37713758680555
 20
131.03592936197916
 30
0.0
 10
122.82523328993055
 20
131.03592936197916
 30
0.0
 10
122.82523328993055
 20
131.03592936197916
 30
0.0
 10
121.82477756076388
 20
131.03592936197916
 30
0.0
 10
121.82477756076388
 20
131.03592936197916
 30
0.0
 10
121.27287326388888
 20
131.03592936197916
 30
0.0
 10
120.82501085069444
 20
131.48344726562499
 30
0.0
 10
120.82501085069444
 20
132.03604058159721
 30
0.0
 10
120.82501085069444
 20
132.03604058159721
 30
0.0
 10
120.82501085069444
 20
134.03591851128471
 30
0.0
 10
120.82501085069444
 20
134.03591851128471
 30
0.0
 10
120.82501085069444
 20
134.58816731770833
 30
0.0
 10
121.27287326388888
 20
135.03602973090275
 30
0.0
 10
121.82477756076388
 20
135.03602973090275
 30
0.0
 10
121.82477756076388
 20
135.03602973090275
 30
0.0
 10
122.82523328993055
 20
135.03602973090275
 30
0.0
 10
122.82523328993055
 20
135.03602973090275
 30
0.0
 10
123.37713758680555
 20
135.03602973090275
 30
0.0
 10
123.82499999999999
 20
134.58816731770833
 30
0.0
 10
123.82499999999999
 20
134.03591851128471
 30
0.0
 10
123.82499999999999
 20
134.03591851128471
 30
0.0
 10
123.82499999999999
 20
132.03604058159721
 30
0.0
 10
123.82499999999999
 20
132.03604058159721
 30
0.0
  0
SPLINE
  5
61
100
AcDbEntity
  8
CALQUE_1
 62
     7
100
AcDbSpline
210
0.0
220
0.0
230
1.0
 70
     8
 71
     3
 72
    29
 73
    25
 74
     0
 42
0.00000001
 43
0.00000001
 40
0.0
 40
0.0
 40
0.0
 40
0.0
 40
1.0
 40
1.0
 40
1.0
 40
2.0
 40
2.0
 40
2.0
 40
3.0
 40
3.0
 40
3.0
 40
4.0
 40
4.0
 40
4.0
 40
5.0
 40
5.0
 40
5.0
 40
6.0
 40
6.0
 40
6.0
 40
7.0
 40
7.0
 40
7.0
 40
8.0
 40
8.0
 40
8.0
 40
8.0
 10
134.96230468749999
 20
132.03604058159721
 30
0.0
 10
134.96230468749999
 20
131.48344726562499
 30
0.0
 10
134.51444227430554
 20
131.03592936197916
 30
0.0
 10
133.96253797743054
 20
131.03592936197916
 30
0.0
 10
133.96253797743054
 20
131.03592936197916
 30
0.0
 10
132.96208224826387
 20
131.03592936197916
 30
0.0
 10
132.96208224826387
 20
131.03592936197916
 30
0.0
 10
132.41017795138887
 20
131.03592936197916
 30
0.0
 10
131.96231553819445
 20
131.48344726562499
 30
0.0
 10
131.96231553819445
 20
132.03604058159721
 30
0.0
 10
131.96231553819445
 20
132.03604058159721
 30
0.0
 10
131.96231553819445
 20
134.03591851128471
 30
0.0
 10
131.96231553819445
 20
134.03591851128471
 30
0.0
 10
131.96231553819445
 20
134.58816731770833
 30
0.0
 10
132.41017795138887
 20
135.03602973090275
 30
0.0
 10
132.96208224826387
 20
135.03602973090275
 30
0.0
 10
132.96208224826387
 20
135.03602973090275
 30
0.0
 10
133.96253797743054
 20
135.03602973090275
 30
0.0
 10
133.96253797743054
 20
135.03602973090275
 30
0.0
 10
134.51444227430554
 20
135.03602973090275
 30
0.0
 10
134.96230468749999
 20
134.58816731770833
 30
0.0
 10
134.96230468749999
 20
134.03591851128471
 30
0.0
 10
134.96230468749999
 20
134.03591851128471
 30
0.0
 10
134.96230468749999
 20
132.03604058159721
 30
0.0
 10
134.96230468749999
 20
132.03604058159721
 30
0.0
  0
SPLINE
  5
60
100
AcDbEntity
  8
CALQUE_1
 62
     7
100
AcDbSpline
210
0.0
220
0.0
230
1.0
 70
     8
 71
     3
 72
    29
 73
    25
 74
     0
 42
0.00000001
 43
0.00000001
 40
0.0
 40
0.0
 40
0.0
 40
0.0
 40
1.0
 40
1.0
 40
1.0
 40
2.0
 40
2.0
 40
2.0
 40
3.0
 40
3.0
 40
3.0
 40
4.0
 40
4.0
 40
4.0
 40
5.0
 40
5.0
 40
5.0
 40
6.0
 40
6.0
 40
6.0
 40
7.0
 40
7.0
 40
7.0
 40
8.0
 40
8.0
 40
8.0
 40
8.0
 10
146.099609375
 20
132.03604058159721
 30
0.0
 10
146.099609375
 20
131.48344726562499
 30
0.0
 10
145.65174696180554
 20
131.03592936197916
 30
0.0
 10
145.09984266493055
 20
131.03592936197916
 30
0.0
 10
145.09984266493055
 20
131.03592936197916
 30
0.0
 10
144.09938693576387
 20
131.03592936197916
 30
0.0
 10
144.09938693576387
 20
131.03592936197916
 30
0.0
 10
143.54748263888888
 20
131.03592936197916
 30
0.0
 10
143.09962022569442
 20
131.48344726562499
 30
0.0
 10
143.09962022569442
 20
132.03604058159721
 30
0.0
 10
143.09962022569442
 20
132.03604058159721
 30
0.0
 10
143.09962022569442
 20
134.03591851128471
 30
0.0
 10
143.09962022569442
 20
134.03591851128471
 30
0.0
 10
143.09962022569442
 20
134.58816731770833
 30
0.0
 10
143.54748263888888
 20
135.03602973090275
 30
0.0
 10
144.09938693576387
 20
135.03602973090275
 30
0.0
 10
144.09938693576387
 20
135.03602973090275
 30
0.0
 10
145.09984266493055
 20
135.03602973090275
 30
0.0
 10
145.09984266493055
 20
135.03602973090275
 30
0.0
 10
145.65174696180554
 20
135.03602973090275
 30
0.0
 10
146.099609375
 20
134.58816731770833
 30
0.0
 10
146.099609375
 20
134.03591851128471
 30
0.0
 10
146.099609375
 20
134.03591851128471
 30
0.0
 10
146.099609375
 20
132.03604058159721
 30
0.0
 10
146.099609375
 20
132.03604058159721
 30
0.0
  0
SPLINE
  5
5F
100
AcDbEntity
  8
CALQUE_1
 62
     7
100
AcDbSpline
210
0.0
220
0.0
230
1.0
 70
     8
 71
     3
 72
    29
 73
    25
 74
     0
 42
0.00000001
 43
0.00000001
 40
0.0
 40
0.0
 40
0.0
 40
0.0
 40
1.0
 40
1.0
 40
1.0
 40
2.0
 40
2.0
 40
2.0
 40
3.0
 40
3.0
 40
3.0
 40
4.0
 40
4.0
 40
4.0
 40
5.0
 40
5.0
 40
5.0
 40
6.0
 40
6.0
 40
6.0
 40
7.0
 40
7.0
 40
7.0
 40
8.0
 40
8.0
 40
8.0
 40
8.0
 10
157.23691406249998
 20
132.03604058159721
 30
0.0
 10
157.23691406249998
 20
131.48344726562499
 30
0.0
 10
156.78905164930555
 20
131.03592936197916
 30
0.0
 10
156.23714735243055
 20
131.03592936197916
 30
0.0
 10
156.23714735243055
 20
131.03592936197916
 30
0.0
 10
155.23669162326388
 20
131.03592936197916
 30
0.0
 10
155.23669162326388
 20
131.03592936197916
 30
0.0
 10
154.68478732638889
 20
131.03592936197916
 30
0.0
 10
154.23692491319443
 20
131.48344726562499
 30
0.0
 10
154.23692491319443
 20
132.03604058159721
 30
0.0
 10
154.23692491319443
 20
132.03604058159721
 30
0.0
 10
154.23692491319443
 20
134.03591851128471
 30
0.0
 10
154.23692491319443
 20
134.03591851128471
 30
0.0
 10
154.23692491319443
 20
134.58816731770833
 30
0.0
 10
154.68478732638889
 20
135.03602973090275
 30
0.0
 10
155.23669162326388
 20
135.03602973090275
 30
0.0
 10
155.23669162326388
 20
135.03602973090275
 30
0.0
 10
156.23714735243055
 20
135.03602973090275
 30
0.0
 10
156.23714735243055
 20
135.03602973090275
 30
0.0
 10
156.78905164930555
 20
135.03602973090275
 30
0.0
 10
157.23691406249998
 20
134.58816731770833
 30
0.0
 10
157.23691406249998
 20
134.03591851128471
 30
0.0
 10
157.23691406249998
 20
134.03591851128471
 30
0.0
 10
157.23691406249998
 20
132.03604058159721
 30
0.0
 10
157.23691406249998
 20
132.03604058159721
 30
0.0
  0
SPLINE
  5
5E
100
AcDbEntity
  8
CALQUE_1
 62
     7
100
AcDbSpline
210
0.0
220
0.0
230
1.0
 70
     8
 71
     3
 72
    29
 73
    25
 74
     0
 42
0.00000001
 43
0.00000001
 40
0.0
 40
0.0
 40
0.0
 40
0.0
 40
1.0
 40
1.0
 40
1.0
 40
2.0
 40
2.0
 40
2.0
 40
3.0
 40
3.0
 40
3.0
 40
4.0
 40
4.0
 40
4.0
 40
5.0
 40
5.0
 40
5.0
 40
6.0
 40
6.0
 40
6.0
 40
7.0
 40
7.0
 40
7.0
 40
8.0
 40
8.0
 40
8.0
 40
8.0
 10
168.37421874999998
 20
132.03604058159721
 30
0.0
 10
168.37421874999998
 20
131.48344726562499
 30
0.0
 10
167.92635633680555
 20
131.03592936197916
 30
0.0
 10
167.37445203993053
 20
131.03592936197916
 30
0.0
 10
167.37445203993053
 20
131.03592936197916
 30
0.0
 10
166.37399631076389
 20
131.03592936197916
 30
0.0
 10
166.37399631076389
 20
131.03592936197916
 30
0.0
 10
165.82209201388886
 20
131.03592936197916
 30
0.0
 10
165.37422960069443
 20
131.48344726562499
 30
0.0
 10
165.37422960069443
 20
132.03604058159721
 30
0.0
 10
165.37422960069443
 20
132.03604058159721
 30
0.0
 10
165.37422960069443
 20
134.03591851128471
 30
0.0
 10
165.37422960069443
 20
134.03591851128471
 30
0.0
 10
165.37422960069443
 20
134.58816731770833
 30
0.0
 10
165.82209201388886
 20
135.03602973090275
 30
0.0
 10
166.37399631076389
 20
135.03602973090275
 30
0.0
 10
166.37399631076389
 20
135.03602973090275
 30
0.0
 10
167.37445203993053
 20
135.03602973090275
 30
0.0
 10
167.37445203993053
 20
135.03602973090275
 30
0.0
 10
167.92635633680555
 20
135.03602973090275
 30
0.0
 10
168.37421874999998
 20
134.58816731770833
 30
0.0
 10
168.37421874999998
 20
134.03591851128471
 30
0.0
 10
168.37421874999998
 20
134.03591851128471
 30
0.0
 10
168.37421874999998
 20
132.03604058159721
 30
0.0
 10
168.37421874999998
 20
132.03604058159721
 30
0.0
  0
SPLINE
  5
5D
100
AcDbEntity
  8
CALQUE_1
 62
     7
100
AcDbSpline
210
0.0
220
0.0
230
1.0
 70
     8
 71
     3
 72
    29
 73
    25
 74
     0
 42
0.00000001
 43
0.00000001
 40
0.0
 40
0.0
 40
0.0
 40
0.0
 40
1.0
 40
1.0
 40
1.0
 40
2.0
 40
2.0
 40
2.0
 40
3.0
 40
3.0
 40
3.0
 40
4.0
 40
4.0
 40
4.0
 40
5.0
 40
5.0
 40
5.0
 40
6.0
 40
6.0
 40
6.0
 40
7.0
 40
7.0
 40
7.0
 40
8.0
 40
8.0
 40
8.0
 40
8.0
 10
179.51152343749999
 20
132.03604058159721
 30
0.0
 10
179.51152343749999
 20
131.48344726562499
 30
0.0
 10
179.06366102430553
 20
131.03592936197916
 30
0.0
 10
178.51175672743054
 20
131.03592936197916
 30
0.0
 10
178.51175672743054
 20
131.03592936197916
 30
0.0
 10
177.51130099826386
 20
131.03592936197916
 30
0.0
 10
177.51130099826386
 20
131.03592936197916
 30
0.0
 10
176.95939670138887
 20
131.03592936197916
 30
0.0
 10
176.51153428819444
 20
131.48344726562499
 30
0.0
 10
176.51153428819444
 20
132.03604058159721
 30
0.0
 10
176.51153428819444
 20
132.03604058159721
 30
0.0
 10
176.51153428819444
 20
134.03591851128471
 30
0.0
 10
176.51153428819444
 20
134.03591851128471
 30
0.0
 10
176.51153428819444
 20
134.58816731770833
 30
0.0
 10
176.95939670138887
 20
135.03602973090275
 30
0.0
 10
177.51130099826386
 20
135.03602973090275
 30
0.0
 10
177.51130099826386
 20
135.03602973090275
 30
0.0
 10
178.51175672743054
 20
135.03602973090275
 30
0.0
 10
178.51175672743054
 20
135.03602973090275
 30
0.0
 10
179.06366102430553
 20
135.03602973090275
 30
0.0
 10
179.51152343749999
 20
134.58816731770833
 30
0.0
 10
179.51152343749999
 20
134.03591851128471
 30
0.0
 10
179.51152343749999
 20
134.03591851128471
 30
0.0
 10
179.51152343749999
 20
132.03604058159721
 30
0.0
 10
179.51152343749999
 20
132.03604058159721
 30
0.0
  0
SPLINE
  5
5C
100
AcDbEntity
  8
CALQUE_1
 62
     7
100
AcDbSpline
210
0.0
220
0.0
230
1.0
 70
     8
 71
     3
 72
    29
 73
    25
 74
     0
 42
0.00000001
 43
0.00000001
 40
0.0
 40
0.0
 40
0.0
 40
0.0
 40
1.0
 40
1.0
 40
1.0
 40
2.0
 40
2.0
 40
2.0
 40
3.0
 40
3.0
 40
3.0
 40
4.0
 40
4.0
 40
4.0
 40
5.0
 40
5.0
 40
5.0
 40
6.0
 40
6.0
 40
6.0
 40
7.0
 40
7.0
 40
7.0
 40
8.0
 40
8.0
 40
8.0
 40
8.0
 10
190.64882812499999
 20
132.03604058159721
 30
0.0
 10
190.64882812499999
 20
131.48344726562499
 30
0.0
 10
190.20096571180554
 20
131.03592936197916
 30
0.0
 10
189.64906141493054
 20
131.03592936197916
 30
0.0
 10
189.64906141493054
 20
131.03592936197916
 30
0.0
 10
188.64860568576387
 20
131.03592936197916
 30
0.0
 10
188.64860568576387
 20
131.03592936197916
 30
0.0
 10
188.09670138888887
 20
131.03592936197916
 30
0.0
 10
187.64883897569442
 20
131.48344726562499
 30
0.0
 10
187.64883897569442
 20
132.03604058159721
 30
0.0
 10
187.64883897569442
 20
132.03604058159721
 30
0.0
 10
187.64883897569442
 20
134.03591851128471
 30
0.0
 10
187.64883897569442
 20
134.03591851128471
 30
0.0
 10
187.64883897569442
 20
134.58816731770833
 30
0.0
 10
188.09670138888887
 20
135.03602973090275
 30
0.0
 10
188.64860568576387
 20
135.03602973090275
 30
0.0
 10
188.64860568576387
 20
135.03602973090275
 30
0.0
 10
189.64906141493054
 20
135.03602973090275
 30
0.0
 10
189.64906141493054
 20
135.03602973090275
 30
0.0
 10
190.20096571180554
 20
135.03602973090275
 30
0.0
 10
190.64882812499999
 20
134.58816731770833
 30
0.0
 10
190.64882812499999
 20
134.03591851128471
 30
0.0
 10
190.64882812499999
 20
134.03591851128471
 30
0.0
 10
190.64882812499999
 20
132.03604058159721
 30
0.0
 10
190.64882812499999
 20
132.03604058159721
 30
0.0
  0
SPLINE
  5
5B
100
AcDbEntity
  8
CALQUE_1
 62
     7
100
AcDbSpline
210
0.0
220
0.0
230
1.0
 70
     8
 71
     3
 72
    29
 73
    25
 74
     0
 42
0.00000001
 43
0.00000001
 40
0.0
 40
0.0
 40
0.0
 40
0.0
 40
1.0
 40
1.0
 40
1.0
 40
2.0
 40
2.0
 40
2.0
 40
3.0
 40
3.0
 40
3.0
 40
4.0
 40
4.0
 40
4.0
 40
5.0
 40
5.0
 40
5.0
 40
6.0
 40
6.0
 40
6.0
 40
7.0
 40
7.0
 40
7.0
 40
8.0
 40
8.0
 40
8.0
 40
8.0
 10
12.451953124999999
 20
122.15826280381944
 30
0.0
 10
12.451953124999999
 20
121.60566948784721
 30
0.0
 10
12.004090711805555
 20
121.15815158420138
 30
0.0
 10
11.452186414930555
 20
121.15815158420138
 30
0.0
 10
11.452186414930555
 20
121.15815158420138
 30
0.0
 10
10.451730685763888
 20
121.15815158420138
 30
0.0
 10
10.451730685763888
 20
121.15815158420138
 30
0.0
 10
9.8998263888888882
 20
121.15815158420138
 30
0.0
 10
9.4519639756944436
 20
121.60566948784721
 30
0.0
 10
9.4519639756944436
 20
122.15826280381944
 30
0.0
 10
9.4519639756944436
 20
122.15826280381944
 30
0.0
 10
9.4519639756944436
 20
124.15814073350694
 30
0.0
 10
9.4519639756944436
 20
124.15814073350694
 30
0.0
 10
9.4519639756944436
 20
124.71038953993055
 30
0.0
 10
9.8998263888888882
 20
125.15825195312499
 30
0.0
 10
10.451730685763888
 20
125.15825195312499
 30
0.0
 10
10.451730685763888
 20
125.15825195312499
 30
0.0
 10
11.452186414930555
 20
125.15825195312499
 30
0.0
 10
11.452186414930555
 20
125.15825195312499
 30
0.0
 10
12.004090711805555
 20
125.15825195312499
 30
0.0
 10
12.451953124999999
 20
124.71038953993055
 30
0.0
 10
12.451953124999999
 20
124.15814073350694
 30
0.0
 10
12.451953124999999
 20
124.15814073350694
 30
0.0
 10
12.451953124999999
 20
122.15826280381944
 30
0.0
 10
12.451953124999999
 20
122.15826280381944
 30
0.0
  0
SPLINE
  5
5A
100
AcDbEntity
  8
CALQUE_1
 62
     7
100
AcDbSpline
210
0.0
220
0.0
230
1.0
 70
     8
 71
     3
 72
    29
 73
    25
 74
     0
 42
0.00000001
 43
0.00000001
 40
0.0
 40
0.0
 40
0.0
 40
0.0
 40
1.0
 40
1.0
 40
1.0
 40
2.0
 40
2.0
 40
2.0
 40
3.0
 40
3.0
 40
3.0
 40
4.0
 40
4.0
 40
4.0
 40
5.0
 40
5.0
 40
5.0
 40
6.0
 40
6.0
 40
6.0
 40
7.0
 40
7.0
 40
7.0
 40
8.0
 40
8.0
 40
8.0
 40
8.0
 10
23.589257812499998
 20
122.15826280381944
 30
0.0
 10
23.589257812499998
 20
121.60566948784721
 30
0.0
 10
23.141395399305555
 20
121.15815158420138
 30
0.0
 10
22.589491102430554
 20
121.15815158420138
 30
0.0
 10
22.589491102430554
 20
121.15815158420138
 30
0.0
 10
21.589035373263886
 20
121.15815158420138
 30
0.0
 10
21.589035373263886
 20
121.15815158420138
 30
0.0
 10
21.037131076388889
 20
121.15815158420138
 30
0.0
 10
20.589268663194442
 20
121.60566948784721
 30
0.0
 10
20.589268663194442
 20
122.15826280381944
 30
0.0
 10
20.589268663194442
 20
122.15826280381944
 30
0.0
 10
20.589268663194442
 20
124.15814073350694
 30
0.0
 10
20.589268663194442
 20
124.15814073350694
 30
0.0
 10
20.589268663194442
 20
124.71038953993055
 30
0.0
 10
21.037131076388889
 20
125.15825195312499
 30
0.0
 10
21.589035373263886
 20
125.15825195312499
 30
0.0
 10
21.589035373263886
 20
125.15825195312499
 30
0.0
 10
22.589491102430554
 20
125.15825195312499
 30
0.0
 10
22.589491102430554
 20
125.15825195312499
 30
0.0
 10
23.141395399305555
 20
125.15825195312499
 30
0.0
 10
23.589257812499998
 20
124.71038953993055
 30
0.0
 10
23.589257812499998
 20
124.15814073350694
 30
0.0
 10
23.589257812499998
 20
124.15814073350694
 30
0.0
 10
23.589257812499998
 20
122.15826280381944
 30
0.0
 10
23.589257812499998
 20
122.15826280381944
 30
0.0
  0
SPLINE
  5
59
100
AcDbEntity
  8
CALQUE_1
 62
     7
100
AcDbSpline
210
0.0
220
0.0
230
1.0
 70
     8
 71
     3
 72
    29
 73
    25
 74
     0
 42
0.00000001
 43
0.00000001
 40
0.0
 40
0.0
 40
0.0
 40
0.0
 40
1.0
 40
1.0
 40
1.0
 40
2.0
 40
2.0
 40
2.0
 40
3.0
 40
3.0
 40
3.0
 40
4.0
 40
4.0
 40
4.0
 40
5.0
 40
5.0
 40
5.0
 40
6.0
 40
6.0
 40
6.0
 40
7.0
 40
7.0
 40
7.0
 40
8.0
 40
8.0
 40
8.0
 40
8.0
 10
34.7265625
 20
122.15826280381944
 30
0.0
 10
34.7265625
 20
121.60566948784721
 30
0.0
 10
34.27870008680555
 20
121.15815158420138
 30
0.0
 10
33.726795789930556
 20
121.15815158420138
 30
0.0
 10
33.726795789930556
 20
121.15815158420138
 30
0.0
 10
32.726340060763889
 20
121.15815158420138
 30
0.0
 10
32.726340060763889
 20
121.15815158420138
 30
0.0
 10
32.174435763888887
 20
121.15815158420138
 30
0.0
 10
31.726573350694441
 20
121.60566948784721
 30
0.0
 10
31.726573350694441
 20
122.15826280381944
 30
0.0
 10
31.726573350694441
 20
122.15826280381944
 30
0.0
 10
31.726573350694441
 20
124.15814073350694
 30
0.0
 10
31.726573350694441
 20
124.15814073350694
 30
0.0
 10
31.726573350694441
 20
124.71038953993055
 30
0.0
 10
32.174435763888887
 20
125.15825195312499
 30
0.0
 10
32.726340060763889
 20
125.15825195312499
 30
0.0
 10
32.726340060763889
 20
125.15825195312499
 30
0.0
 10
33.726795789930556
 20
125.15825195312499
 30
0.0
 10
33.726795789930556
 20
125.15825195312499
 30
0.0
 10
34.27870008680555
 20
125.15825195312499
 30
0.0
 10
34.7265625
 20
124.71038953993055
 30
0.0
 10
34.7265625
 20
124.15814073350694
 30
0.0
 10
34.7265625
 20
124.15814073350694
 30
0.0
 10
34.7265625
 20
122.15826280381944
 30
0.0
 10
34.7265625
 20
122.15826280381944
 30
0.0
  0
SPLINE
  5
58
100
AcDbEntity
  8
CALQUE_1
 62
     7
100
AcDbSpline
210
0.0
220
0.0
230
1.0
 70
     8
 71
     3
 72
    29
 73
    25
 74
     0
 42
0.00000001
 43
0.00000001
 40
0.0
 40
0.0
 40
0.0
 40
0.0
 40
1.0
 40
1.0
 40
1.0
 40
2.0
 40
2.0
 40
2.0
 40
3.0
 40
3.0
 40
3.0
 40
4.0
 40
4.0
 40
4.0
 40
5.0
 40
5.0
 40
5.0
 40
6.0
 40
6.0
 40
6.0
 40
7.0
 40
7.0
 40
7.0
 40
8.0
 40
8.0
 40
8.0
 40
8.0
 10
45.863867187499999
 20
122.15826280381944
 30
0.0
 10
45.863867187499999
 20
121.60566948784721
 30
0.0
 10
45.416004774305549
 20
121.15815158420138
 30
0.0
 10
44.864100477430554
 20
121.15815158420138
 30
0.0
 10
44.864100477430554
 20
121.15815158420138
 30
0.0
 10
43.863644748263887
 20
121.15815158420138
 30
0.0
 10
43.863644748263887
 20
121.15815158420138
 30
0.0
 10
43.311740451388886
 20
121.15815158420138
 30
0.0
 10
42.863878038194443
 20
121.60566948784721
 30
0.0
 10
42.863878038194443
 20
122.15826280381944
 30
0.0
 10
42.863878038194443
 20
122.15826280381944
 30
0.0
 10
42.863878038194443
 20
124.15814073350694
 30
0.0
 10
42.863878038194443
 20
124.15814073350694
 30
0.0
 10
42.863878038194443
 20
124.71038953993055
 30
0.0
 10
43.311740451388886
 20
125.15825195312499
 30
0.0
 10
43.863644748263887
 20
125.15825195312499
 30
0.0
 10
43.863644748263887
 20
125.15825195312499
 30
0.0
 10
44.864100477430554
 20
125.15825195312499
 30
0.0
 10
44.864100477430554
 20
125.15825195312499
 30
0.0
 10
45.416004774305549
 20
125.15825195312499
 30
0.0
 10
45.863867187499999
 20
124.71038953993055
 30
0.0
 10
45.863867187499999
 20
124.15814073350694
 30
0.0
 10
45.863867187499999
 20
124.15814073350694
 30
0.0
 10
45.863867187499999
 20
122.15826280381944
 30
0.0
 10
45.863867187499999
 20
122.15826280381944
 30
0.0
  0
SPLINE
  5
57
100
AcDbEntity
  8
CALQUE_1
 62
     7
100
AcDbSpline
210
0.0
220
0.0
230
1.0
 70
     8
 71
     3
 72
    29
 73
    25
 74
     0
 42
0.00000001
 43
0.00000001
 40
0.0
 40
0.0
 40
0.0
 40
0.0
 40
1.0
 40
1.0
 40
1.0
 40
2.0
 40
2.0
 40
2.0
 40
3.0
 40
3.0
 40
3.0
 40
4.0
 40
4.0
 40
4.0
 40
5.0
 40
5.0
 40
5.0
 40
6.0
 40
6.0
 40
6.0
 40
7.0
 40
7.0
 40
7.0
 40
8.0
 40
8.0
 40
8.0
 40
8.0
 10
57.001171874999997
 20
122.15826280381944
 30
0.0
 10
57.001171874999997
 20
121.60566948784721
 30
0.0
 10
56.553309461805547
 20
121.15815158420138
 30
0.0
 10
56.001405164930553
 20
121.15815158420138
 30
0.0
 10
56.001405164930553
 20
121.15815158420138
 30
0.0
 10
55.000949435763886
 20
121.15815158420138
 30
0.0
 10
55.000949435763886
 20
121.15815158420138
 30
0.0
 10
54.449045138888884
 20
121.15815158420138
 30
0.0
 10
54.001182725694441
 20
121.60566948784721
 30
0.0
 10
54.001182725694441
 20
122.15826280381944
 30
0.0
 10
54.001182725694441
 20
122.15826280381944
 30
0.0
 10
54.001182725694441
 20
124.15814073350694
 30
0.0
 10
54.001182725694441
 20
124.15814073350694
 30
0.0
 10
54.001182725694441
 20
124.71038953993055
 30
0.0
 10
54.449045138888884
 20
125.15825195312499
 30
0.0
 10
55.000949435763886
 20
125.15825195312499
 30
0.0
 10
55.000949435763886
 20
125.15825195312499
 30
0.0
 10
56.001405164930553
 20
125.15825195312499
 30
0.0
 10
56.001405164930553
 20
125.15825195312499
 30
0.0
 10
56.553309461805547
 20
125.15825195312499
 30
0.0
 10
57.001171874999997
 20
124.71038953993055
 30
0.0
 10
57.001171874999997
 20
124.15814073350694
 30
0.0
 10
57.001171874999997
 20
124.15814073350694
 30
0.0
 10
57.001171874999997
 20
122.15826280381944
 30
0.0
 10
57.001171874999997
 20
122.15826280381944
 30
0.0
  0
SPLINE
  5
56
100
AcDbEntity
  8
CALQUE_1
 62
     7
100
AcDbSpline
210
0.0
220
0.0
230
1.0
 70
     8
 71
     3
 72
    29
 73
    25
 74
     0
 42
0.00000001
 43
0.00000001
 40
0.0
 40
0.0
 40
0.0
 40
0.0
 40
1.0
 40
1.0
 40
1.0
 40
2.0
 40
2.0
 40
2.0
 40
3.0
 40
3.0
 40
3.0
 40
4.0
 40
4.0
 40
4.0
 40
5.0
 40
5.0
 40
5.0
 40
6.0
 40
6.0
 40
6.0
 40
7.0
 40
7.0
 40
7.0
 40
8.0
 40
8.0
 40
8.0
 40
8.0
 10
68.138476562499989
 20
122.15826280381944
 30
0.0
 10
68.138476562499989
 20
121.60566948784721
 30
0.0
 10
67.690614149305546
 20
121.15815158420138
 30
0.0
 10
67.138709852430551
 20
121.15815158420138
 30
0.0
 10
67.138709852430551
 20
121.15815158420138
 30
0.0
 10
66.138254123263877
 20
121.15815158420138
 30
0.0
 10
66.138254123263877
 20
121.15815158420138
 30
0.0
 10
65.586349826388883
 20
121.15815158420138
 30
0.0
 10
65.13848741319444
 20
121.60566948784721
 30
0.0
 10
65.13848741319444
 20
122.15826280381944
 30
0.0
 10
65.13848741319444
 20
122.15826280381944
 30
0.0
 10
65.13848741319444
 20
124.15814073350694
 30
0.0
 10
65.13848741319444
 20
124.15814073350694
 30
0.0
 10
65.13848741319444
 20
124.71038953993055
 30
0.0
 10
65.586349826388883
 20
125.15825195312499
 30
0.0
 10
66.138254123263877
 20
125.15825195312499
 30
0.0
 10
66.138254123263877
 20
125.15825195312499
 30
0.0
 10
67.138709852430551
 20
125.15825195312499
 30
0.0
 10
67.138709852430551
 20
125.15825195312499
 30
0.0
 10
67.690614149305546
 20
125.15825195312499
 30
0.0
 10
68.138476562499989
 20
124.71038953993055
 30
0.0
 10
68.138476562499989
 20
124.15814073350694
 30
0.0
 10
68.138476562499989
 20
124.15814073350694
 30
0.0
 10
68.138476562499989
 20
122.15826280381944
 30
0.0
 10
68.138476562499989
 20
122.15826280381944
 30
0.0
  0
SPLINE
  5
55
100
AcDbEntity
  8
CALQUE_1
 62
     7
100
AcDbSpline
210
0.0
220
0.0
230
1.0
 70
     8
 71
     3
 72
    29
 73
    25
 74
     0
 42
0.00000001
 43
0.00000001
 40
0.0
 40
0.0
 40
0.0
 40
0.0
 40
1.0
 40
1.0
 40
1.0
 40
2.0
 40
2.0
 40
2.0
 40
3.0
 40
3.0
 40
3.0
 40
4.0
 40
4.0
 40
4.0
 40
5.0
 40
5.0
 40
5.0
 40
6.0
 40
6.0
 40
6.0
 40
7.0
 40
7.0
 40
7.0
 40
8.0
 40
8.0
 40
8.0
 40
8.0
 10
79.275781249999994
 20
122.15826280381944
 30
0.0
 10
79.275781249999994
 20
121.60566948784721
 30
0.0
 10
78.827918836805551
 20
121.15815158420138
 30
0.0
 10
78.276014539930543
 20
121.15815158420138
 30
0.0
 10
78.276014539930543
 20
121.15815158420138
 30
0.0
 10
77.275558810763883
 20
121.15815158420138
 30
0.0
 10
77.275558810763883
 20
121.15815158420138
 30
0.0
 10
76.723654513888889
 20
121.15815158420138
 30
0.0
 10
76.275792100694431
 20
121.60566948784721
 30
0.0
 10
76.275792100694431
 20
122.15826280381944
 30
0.0
 10
76.275792100694431
 20
122.15826280381944
 30
0.0
 10
76.275792100694431
 20
124.15814073350694
 30
0.0
 10
76.275792100694431
 20
124.15814073350694
 30
0.0
 10
76.275792100694431
 20
124.71038953993055
 30
0.0
 10
76.723654513888889
 20
125.15825195312499
 30
0.0
 10
77.275558810763883
 20
125.15825195312499
 30
0.0
 10
77.275558810763883
 20
125.15825195312499
 30
0.0
 10
78.276014539930543
 20
125.15825195312499
 30
0.0
 10
78.276014539930543
 20
125.15825195312499
 30
0.0
 10
78.827918836805551
 20
125.15825195312499
 30
0.0
 10
79.275781249999994
 20
124.71038953993055
 30
0.0
 10
79.275781249999994
 20
124.15814073350694
 30
0.0
 10
79.275781249999994
 20
124.15814073350694
 30
0.0
 10
79.275781249999994
 20
122.15826280381944
 30
0.0
 10
79.275781249999994
 20
122.15826280381944
 30
0.0
  0
SPLINE
  5
54
100
AcDbEntity
  8
CALQUE_1
 62
     7
100
AcDbSpline
210
0.0
220
0.0
230
1.0
 70
     8
 71
     3
 72
    29
 73
    25
 74
     0
 42
0.00000001
 43
0.00000001
 40
0.0
 40
0.0
 40
0.0
 40
0.0
 40
1.0
 40
1.0
 40
1.0
 40
2.0
 40
2.0
 40
2.0
 40
3.0
 40
3.0
 40
3.0
 40
4.0
 40
4.0
 40
4.0
 40
5.0
 40
5.0
 40
5.0
 40
6.0
 40
6.0
 40
6.0
 40
7.0
 40
7.0
 40
7.0
 40
8.0
 40
8.0
 40
8.0
 40
8.0
 10
90.413085937499986
 20
122.15826280381944
 30
0.0
 10
90.413085937499986
 20
121.60566948784721
 30
0.0
 10
89.965223524305543
 20
121.15815158420138
 30
0.0
 10
89.413319227430549
 20
121.15815158420138
 30
0.0
 10
89.413319227430549
 20
121.15815158420138
 30
0.0
 10
88.412863498263874
 20
121.15815158420138
 30
0.0
 10
88.412863498263874
 20
121.15815158420138
 30
0.0
 10
87.86095920138888
 20
121.15815158420138
 30
0.0
 10
87.413096788194437
 20
121.60566948784721
 30
0.0
 10
87.413096788194437
 20
122.15826280381944
 30
0.0
 10
87.413096788194437
 20
122.15826280381944
 30
0.0
 10
87.413096788194437
 20
124.15814073350694
 30
0.0
 10
87.413096788194437
 20
124.15814073350694
 30
0.0
 10
87.413096788194437
 20
124.71038953993055
 30
0.0
 10
87.86095920138888
 20
125.15825195312499
 30
0.0
 10
88.412863498263874
 20
125.15825195312499
 30
0.0
 10
88.412863498263874
 20
125.15825195312499
 30
0.0
 10
89.413319227430549
 20
125.15825195312499
 30
0.0
 10
89.413319227430549
 20
125.15825195312499
 30
0.0
 10
89.965223524305543
 20
125.15825195312499
 30
0.0
 10
90.413085937499986
 20
124.71038953993055
 30
0.0
 10
90.413085937499986
 20
124.15814073350694
 30
0.0
 10
90.413085937499986
 20
124.15814073350694
 30
0.0
 10
90.413085937499986
 20
122.15826280381944
 30
0.0
 10
90.413085937499986
 20
122.15826280381944
 30
0.0
  0
SPLINE
  5
53
100
AcDbEntity
  8
CALQUE_1
 62
     7
100
AcDbSpline
210
0.0
220
0.0
230
1.0
 70
     8
 71
     3
 72
    29
 73
    25
 74
     0
 42
0.00000001
 43
0.00000001
 40
0.0
 40
0.0
 40
0.0
 40
0.0
 40
1.0
 40
1.0
 40
1.0
 40
2.0
 40
2.0
 40
2.0
 40
3.0
 40
3.0
 40
3.0
 40
4.0
 40
4.0
 40
4.0
 40
5.0
 40
5.0
 40
5.0
 40
6.0
 40
6.0
 40
6.0
 40
7.0
 40
7.0
 40
7.0
 40
8.0
 40
8.0
 40
8.0
 40
8.0
 10
101.55039062499999
 20
122.15826280381944
 30
0.0
 10
101.55039062499999
 20
121.60566948784721
 30
0.0
 10
101.10252821180555
 20
121.15815158420138
 30
0.0
 10
100.55062391493054
 20
121.15815158420138
 30
0.0
 10
100.55062391493054
 20
121.15815158420138
 30
0.0
 10
99.55016818576388
 20
121.15815158420138
 30
0.0
 10
99.55016818576388
 20
121.15815158420138
 30
0.0
 10
98.998263888888886
 20
121.15815158420138
 30
0.0
 10
98.550401475694429
 20
121.60566948784721
 30
0.0
 10
98.550401475694429
 20
122.15826280381944
 30
0.0
 10
98.550401475694429
 20
122.15826280381944
 30
0.0
 10
98.550401475694429
 20
124.15814073350694
 30
0.0
 10
98.550401475694429
 20
124.15814073350694
 30
0.0
 10
98.550401475694429
 20
124.71038953993055
 30
0.0
 10
98.998263888888886
 20
125.15825195312499
 30
0.0
 10
99.55016818576388
 20
125.15825195312499
 30
0.0
 10
99.55016818576388
 20
125.15825195312499
 30
0.0
 10
100.55062391493054
 20
125.15825195312499
 30
0.0
 10
100.55062391493054
 20
125.15825195312499
 30
0.0
 10
101.10252821180555
 20
125.15825195312499
 30
0.0
 10
101.55039062499999
 20
124.71038953993055
 30
0.0
 10
101.55039062499999
 20
124.15814073350694
 30
0.0
 10
101.55039062499999
 20
124.15814073350694
 30
0.0
 10
101.55039062499999
 20
122.15826280381944
 30
0.0
 10
101.55039062499999
 20
122.15826280381944
 30
0.0
  0
SPLINE
  5
52
100
AcDbEntity
  8
CALQUE_1
 62
     7
100
AcDbSpline
210
0.0
220
0.0
230
1.0
 70
     8
 71
     3
 72
    29
 73
    25
 74
     0
 42
0.00000001
 43
0.00000001
 40
0.0
 40
0.0
 40
0.0
 40
0.0
 40
1.0
 40
1.0
 40
1.0
 40
2.0
 40
2.0
 40
2.0
 40
3.0
 40
3.0
 40
3.0
 40
4.0
 40
4.0
 40
4.0
 40
5.0
 40
5.0
 40
5.0
 40
6.0
 40
6.0
 40
6.0
 40
7.0
 40
7.0
 40
7.0
 40
8.0
 40
8.0
 40
8.0
 40
8.0
 10
112.68769531249998
 20
122.15826280381944
 30
0.0
 10
112.68769531249998
 20
121.60566948784721
 30
0.0
 10
112.23983289930554
 20
121.15815158420138
 30
0.0
 10
111.68792860243055
 20
121.15815158420138
 30
0.0
 10
111.68792860243055
 20
121.15815158420138
 30
0.0
 10
110.68747287326389
 20
121.15815158420138
 30
0.0
 10
110.68747287326389
 20
121.15815158420138
 30
0.0
 10
110.13556857638888
 20
121.15815158420138
 30
0.0
 10
109.68770616319443
 20
121.60566948784721
 30
0.0
 10
109.68770616319443
 20
122.15826280381944
 30
0.0
 10
109.68770616319443
 20
122.15826280381944
 30
0.0
 10
109.68770616319443
 20
124.15814073350694
 30
0.0
 10
109.68770616319443
 20
124.15814073350694
 30
0.0
 10
109.68770616319443
 20
124.71038953993055
 30
0.0
 10
110.13556857638888
 20
125.15825195312499
 30
0.0
 10
110.68747287326389
 20
125.15825195312499
 30
0.0
 10
110.68747287326389
 20
125.15825195312499
 30
0.0
 10
111.68792860243055
 20
125.15825195312499
 30
0.0
 10
111.68792860243055
 20
125.15825195312499
 30
0.0
 10
112.23983289930554
 20
125.15825195312499
 30
0.0
 10
112.68769531249998
 20
124.71038953993055
 30
0.0
 10
112.68769531249998
 20
124.15814073350694
 30
0.0
 10
112.68769531249998
 20
124.15814073350694
 30
0.0
 10
112.68769531249998
 20
122.15826280381944
 30
0.0
 10
112.68769531249998
 20
122.15826280381944
 30
0.0
  0
SPLINE
  5
51
100
AcDbEntity
  8
CALQUE_1
 62
     7
100
AcDbSpline
210
0.0
220
0.0
230
1.0
 70
     8
 71
     3
 72
    29
 73
    25
 74
     0
 42
0.00000001
 43
0.00000001
 40
0.0
 40
0.0
 40
0.0
 40
0.0
 40
1.0
 40
1.0
 40
1.0
 40
2.0
 40
2.0
 40
2.0
 40
3.0
 40
3.0
 40
3.0
 40
4.0
 40
4.0
 40
4.0
 40
5.0
 40
5.0
 40
5.0
 40
6.0
 40
6.0
 40
6.0
 40
7.0
 40
7.0
 40
7.0
 40
8.0
 40
8.0
 40
8.0
 40
8.0
 10
123.82499999999999
 20
122.15826280381944
 30
0.0
 10
123.82499999999999
 20
121.60566948784721
 30
0.0
 10
123.37713758680555
 20
121.15815158420138
 30
0.0
 10
122.82523328993055
 20
121.15815158420138
 30
0.0
 10
122.82523328993055
 20
121.15815158420138
 30
0.0
 10
121.82477756076388
 20
121.15815158420138
 30
0.0
 10
121.82477756076388
 20
121.15815158420138
 30
0.0
 10
121.27287326388888
 20
121.15815158420138
 30
0.0
 10
120.82501085069444
 20
121.60566948784721
 30
0.0
 10
120.82501085069444
 20
122.15826280381944
 30
0.0
 10
120.82501085069444
 20
122.15826280381944
 30
0.0
 10
120.82501085069444
 20
124.15814073350694
 30
0.0
 10
120.82501085069444
 20
124.15814073350694
 30
0.0
 10
120.82501085069444
 20
124.71038953993055
 30
0.0
 10
121.27287326388888
 20
125.15825195312499
 30
0.0
 10
121.82477756076388
 20
125.15825195312499
 30
0.0
 10
121.82477756076388
 20
125.15825195312499
 30
0.0
 10
122.82523328993055
 20
125.15825195312499
 30
0.0
 10
122.82523328993055
 20
125.15825195312499
 30
0.0
 10
123.37713758680555
 20
125.15825195312499
 30
0.0
 10
123.82499999999999
 20
124.71038953993055
 30
0.0
 10
123.82499999999999
 20
124.15814073350694
 30
0.0
 10
123.82499999999999
 20
124.15814073350694
 30
0.0
 10
123.82499999999999
 20
122.15826280381944
 30
0.0
 10
123.82499999999999
 20
122.15826280381944
 30
0.0
  0
SPLINE
  5
50
100
AcDbEntity
  8
CALQUE_1
 62
     7
100
AcDbSpline
210
0.0
220
0.0
230
1.0
 70
     8
 71
     3
 72
    29
 73
    25
 74
     0
 42
0.00000001
 43
0.00000001
 40
0.0
 40
0.0
 40
0.0
 40
0.0
 40
1.0
 40
1.0
 40
1.0
 40
2.0
 40
2.0
 40
2.0
 40
3.0
 40
3.0
 40
3.0
 40
4.0
 40
4.0
 40
4.0
 40
5.0
 40
5.0
 40
5.0
 40
6.0
 40
6.0
 40
6.0
 40
7.0
 40
7.0
 40
7.0
 40
8.0
 40
8.0
 40
8.0
 40
8.0
 10
134.96230468749999
 20
122.15826280381944
 30
0.0
 10
134.96230468749999
 20
121.60566948784721
 30
0.0
 10
134.51444227430554
 20
121.15815158420138
 30
0.0
 10
133.96253797743054
 20
121.15815158420138
 30
0.0
 10
133.96253797743054
 20
121.15815158420138
 30
0.0
 10
132.96208224826387
 20
121.15815158420138
 30
0.0
 10
132.96208224826387
 20
121.15815158420138
 30
0.0
 10
132.41017795138887
 20
121.15815158420138
 30
0.0
 10
131.96231553819445
 20
121.60566948784721
 30
0.0
 10
131.96231553819445
 20
122.15826280381944
 30
0.0
 10
131.96231553819445
 20
122.15826280381944
 30
0.0
 10
131.96231553819445
 20
124.15814073350694
 30
0.0
 10
131.96231553819445
 20
124.15814073350694
 30
0.0
 10
131.96231553819445
 20
124.71038953993055
 30
0.0
 10
132.41017795138887
 20
125.15825195312499
 30
0.0
 10
132.96208224826387
 20
125.15825195312499
 30
0.0
 10
132.96208224826387
 20
125.15825195312499
 30
0.0
 10
133.96253797743054
 20
125.15825195312499
 30
0.0
 10
133.96253797743054
 20
125.15825195312499
 30
0.0
 10
134.51444227430554
 20
125.15825195312499
 30
0.0
 10
134.96230468749999
 20
124.71038953993055
 30
0.0
 10
134.96230468749999
 20
124.15814073350694
 30
0.0
 10
134.96230468749999
 20
124.15814073350694
 30
0.0
 10
134.96230468749999
 20
122.15826280381944
 30
0.0
 10
134.96230468749999
 20
122.15826280381944
 30
0.0
  0
SPLINE
  5
4F
100
AcDbEntity
  8
CALQUE_1
 62
     7
100
AcDbSpline
210
0.0
220
0.0
230
1.0
 70
     8
 71
     3
 72
    29
 73
    25
 74
     0
 42
0.00000001
 43
0.00000001
 40
0.0
 40
0.0
 40
0.0
 40
0.0
 40
1.0
 40
1.0
 40
1.0
 40
2.0
 40
2.0
 40
2.0
 40
3.0
 40
3.0
 40
3.0
 40
4.0
 40
4.0
 40
4.0
 40
5.0
 40
5.0
 40
5.0
 40
6.0
 40
6.0
 40
6.0
 40
7.0
 40
7.0
 40
7.0
 40
8.0
 40
8.0
 40
8.0
 40
8.0
 10
146.099609375
 20
122.15826280381944
 30
0.0
 10
146.099609375
 20
121.60566948784721
 30
0.0
 10
145.65174696180554
 20
121.15815158420138
 30
0.0
 10
145.09984266493055
 20
121.15815158420138
 30
0.0
 10
145.09984266493055
 20
121.15815158420138
 30
0.0
 10
144.09938693576387
 20
121.15815158420138
 30
0.0
 10
144.09938693576387
 20
121.15815158420138
 30
0.0
 10
143.54748263888888
 20
121.15815158420138
 30
0.0
 10
143.09962022569442
 20
121.60566948784721
 30
0.0
 10
143.09962022569442
 20
122.15826280381944
 30
0.0
 10
143.09962022569442
 20
122.15826280381944
 30
0.0
 10
143.09962022569442
 20
124.15814073350694
 30
0.0
 10
143.09962022569442
 20
124.15814073350694
 30
0.0
 10
143.09962022569442
 20
124.71038953993055
 30
0.0
 10
143.54748263888888
 20
125.15825195312499
 30
0.0
 10
144.09938693576387
 20
125.15825195312499
 30
0.0
 10
144.09938693576387
 20
125.15825195312499
 30
0.0
 10
145.09984266493055
 20
125.15825195312499
 30
0.0
 10
145.09984266493055
 20
125.15825195312499
 30
0.0
 10
145.65174696180554
 20
125.15825195312499
 30
0.0
 10
146.099609375
 20
124.71038953993055
 30
0.0
 10
146.099609375
 20
124.15814073350694
 30
0.0
 10
146.099609375
 20
124.15814073350694
 30
0.0
 10
146.099609375
 20
122.15826280381944
 30
0.0
 10
146.099609375
 20
122.15826280381944
 30
0.0
  0
SPLINE
  5
4E
100
AcDbEntity
  8
CALQUE_1
 62
     7
100
AcDbSpline
210
0.0
220
0.0
230
1.0
 70
     8
 71
     3
 72
    29
 73
    25
 74
     0
 42
0.00000001
 43
0.00000001
 40
0.0
 40
0.0
 40
0.0
 40
0.0
 40
1.0
 40
1.0
 40
1.0
 40
2.0
 40
2.0
 40
2.0
 40
3.0
 40
3.0
 40
3.0
 40
4.0
 40
4.0
 40
4.0
 40
5.0
 40
5.0
 40
5.0
 40
6.0
 40
6.0
 40
6.0
 40
7.0
 40
7.0
 40
7.0
 40
8.0
 40
8.0
 40
8.0
 40
8.0
 10
157.23691406249998
 20
122.15826280381944
 30
0.0
 10
157.23691406249998
 20
121.60566948784721
 30
0.0
 10
156.78905164930555
 20
121.15815158420138
 30
0.0
 10
156.23714735243055
 20
121.15815158420138
 30
0.0
 10
156.23714735243055
 20
121.15815158420138
 30
0.0
 10
155.23669162326388
 20
121.15815158420138
 30
0.0
 10
155.23669162326388
 20
121.15815158420138
 30
0.0
 10
154.68478732638889
 20
121.15815158420138
 30
0.0
 10
154.23692491319443
 20
121.60566948784721
 30
0.0
 10
154.23692491319443
 20
122.15826280381944
 30
0.0
 10
154.23692491319443
 20
122.15826280381944
 30
0.0
 10
154.23692491319443
 20
124.15814073350694
 30
0.0
 10
154.23692491319443
 20
124.15814073350694
 30
0.0
 10
154.23692491319443
 20
124.71038953993055
 30
0.0
 10
154.68478732638889
 20
125.15825195312499
 30
0.0
 10
155.23669162326388
 20
125.15825195312499
 30
0.0
 10
155.23669162326388
 20
125.15825195312499
 30
0.0
 10
156.23714735243055
 20
125.15825195312499
 30
0.0
 10
156.23714735243055
 20
125.15825195312499
 30
0.0
 10
156.78905164930555
 20
125.15825195312499
 30
0.0
 10
157.23691406249998
 20
124.71038953993055
 30
0.0
 10
157.23691406249998
 20
124.15814073350694
 30
0.0
 10
157.23691406249998
 20
124.15814073350694
 30
0.0
 10
157.23691406249998
 20
122.15826280381944
 30
0.0
 10
157.23691406249998
 20
122.15826280381944
 30
0.0
  0
SPLINE
  5
4D
100
AcDbEntity
  8
CALQUE_1
 62
     7
100
AcDbSpline
210
0.0
220
0.0
230
1.0
 70
     8
 71
     3
 72
    29
 73
    25
 74
     0
 42
0.00000001
 43
0.00000001
 40
0.0
 40
0.0
 40
0.0
 40
0.0
 40
1.0
 40
1.0
 40
1.0
 40
2.0
 40
2.0
 40
2.0
 40
3.0
 40
3.0
 40
3.0
 40
4.0
 40
4.0
 40
4.0
 40
5.0
 40
5.0
 40
5.0
 40
6.0
 40
6.0
 40
6.0
 40
7.0
 40
7.0
 40
7.0
 40
8.0
 40
8.0
 40
8.0
 40
8.0
 10
168.37421874999998
 20
122.15826280381944
 30
0.0
 10
168.37421874999998
 20
121.60566948784721
 30
0.0
 10
167.92635633680555
 20
121.15815158420138
 30
0.0
 10
167.37445203993053
 20
121.15815158420138
 30
0.0
 10
167.37445203993053
 20
121.15815158420138
 30
0.0
 10
166.37399631076389
 20
121.15815158420138
 30
0.0
 10
166.37399631076389
 20
121.15815158420138
 30
0.0
 10
165.82209201388886
 20
121.15815158420138
 30
0.0
 10
165.37422960069443
 20
121.60566948784721
 30
0.0
 10
165.37422960069443
 20
122.15826280381944
 30
0.0
 10
165.37422960069443
 20
122.15826280381944
 30
0.0
 10
165.37422960069443
 20
124.15814073350694
 30
0.0
 10
165.37422960069443
 20
124.15814073350694
 30
0.0
 10
165.37422960069443
 20
124.71038953993055
 30
0.0
 10
165.82209201388886
 20
125.15825195312499
 30
0.0
 10
166.37399631076389
 20
125.15825195312499
 30
0.0
 10
166.37399631076389
 20
125.15825195312499
 30
0.0
 10
167.37445203993053
 20
125.15825195312499
 30
0.0
 10
167.37445203993053
 20
125.15825195312499
 30
0.0
 10
167.92635633680555
 20
125.15825195312499
 30
0.0
 10
168.37421874999998
 20
124.71038953993055
 30
0.0
 10
168.37421874999998
 20
124.15814073350694
 30
0.0
 10
168.37421874999998
 20
124.15814073350694
 30
0.0
 10
168.37421874999998
 20
122.15826280381944
 30
0.0
 10
168.37421874999998
 20
122.15826280381944
 30
0.0
  0
SPLINE
  5
4C
100
AcDbEntity
  8
CALQUE_1
 62
     7
100
AcDbSpline
210
0.0
220
0.0
230
1.0
 70
     8
 71
     3
 72
    29
 73
    25
 74
     0
 42
0.00000001
 43
0.00000001
 40
0.0
 40
0.0
 40
0.0
 40
0.0
 40
1.0
 40
1.0
 40
1.0
 40
2.0
 40
2.0
 40
2.0
 40
3.0
 40
3.0
 40
3.0
 40
4.0
 40
4.0
 40
4.0
 40
5.0
 40
5.0
 40
5.0
 40
6.0
 40
6.0
 40
6.0
 40
7.0
 40
7.0
 40
7.0
 40
8.0
 40
8.0
 40
8.0
 40
8.0
 10
179.51152343749999
 20
122.15826280381944
 30
0.0
 10
179.51152343749999
 20
121.60566948784721
 30
0.0
 10
179.06366102430553
 20
121.15815158420138
 30
0.0
 10
178.51175672743054
 20
121.15815158420138
 30
0.0
 10
178.51175672743054
 20
121.15815158420138
 30
0.0
 10
177.51130099826386
 20
121.15815158420138
 30
0.0
 10
177.51130099826386
 20
121.15815158420138
 30
0.0
 10
176.95939670138887
 20
121.15815158420138
 30
0.0
 10
176.51153428819444
 20
121.60566948784721
 30
0.0
 10
176.51153428819444
 20
122.15826280381944
 30
0.0
 10
176.51153428819444
 20
122.15826280381944
 30
0.0
 10
176.51153428819444
 20
124.15814073350694
 30
0.0
 10
176.51153428819444
 20
124.15814073350694
 30
0.0
 10
176.51153428819444
 20
124.71038953993055
 30
0.0
 10
176.95939670138887
 20
125.15825195312499
 30
0.0
 10
177.51130099826386
 20
125.15825195312499
 30
0.0
 10
177.51130099826386
 20
125.15825195312499
 30
0.0
 10
178.51175672743054
 20
125.15825195312499
 30
0.0
 10
178.51175672743054
 20
125.15825195312499
 30
0.0
 10
179.06366102430553
 20
125.15825195312499
 30
0.0
 10
179.51152343749999
 20
124.71038953993055
 30
0.0
 10
179.51152343749999
 20
124.15814073350694
 30
0.0
 10
179.51152343749999
 20
124.15814073350694
 30
0.0
 10
179.51152343749999
 20
122.15826280381944
 30
0.0
 10
179.51152343749999
 20
122.15826280381944
 30
0.0
  0
SPLINE
  5
4B
100
AcDbEntity
  8
CALQUE_1
 62
     7
100
AcDbSpline
210
0.0
220
0.0
230
1.0
 70
     8
 71
     3
 72
    29
 73
    25
 74
     0
 42
0.00000001
 43
0.00000001
 40
0.0
 40
0.0
 40
0.0
 40
0.0
 40
1.0
 40
1.0
 40
1.0
 40
2.0
 40
2.0
 40
2.0
 40
3.0
 40
3.0
 40
3.0
 40
4.0
 40
4.0
 40
4.0
 40
5.0
 40
5.0
 40
5.0
 40
6.0
 40
6.0
 40
6.0
 40
7.0
 40
7.0
 40
7.0
 40
8.0
 40
8.0
 40
8.0
 40
8.0
 10
190.64882812499999
 20
122.15826280381944
 30
0.0
 10
190.64882812499999
 20
121.60566948784721
 30
0.0
 10
190.20096571180554
 20
121.15815158420138
 30
0.0
 10
189.64906141493054
 20
121.15815158420138
 30
0.0
 10
189.64906141493054
 20
121.15815158420138
 30
0.0
 10
188.64860568576387
 20
121.15815158420138
 30
0.0
 10
188.64860568576387
 20
121.15815158420138
 30
0.0
 10
188.09670138888887
 20
121.15815158420138
 30
0.0
 10
187.64883897569442
 20
121.60566948784721
 30
0.0
 10
187.64883897569442
 20
122.15826280381944
 30
0.0
 10
187.64883897569442
 20
122.15826280381944
 30
0.0
 10
187.64883897569442
 20
124.15814073350694
 30
0.0
 10
187.64883897569442
 20
124.15814073350694
 30
0.0
 10
187.64883897569442
 20
124.71038953993055
 30
0.0
 10
188.09670138888887
 20
125.15825195312499
 30
0.0
 10
188.64860568576387
 20
125.15825195312499
 30
0.0
 10
188.64860568576387
 20
125.15825195312499
 30
0.0
 10
189.64906141493054
 20
125.15825195312499
 30
0.0
 10
189.64906141493054
 20
125.15825195312499
 30
0.0
 10
190.20096571180554
 20
125.15825195312499
 30
0.0
 10
190.64882812499999
 20
124.71038953993055
 30
0.0
 10
190.64882812499999
 20
124.15814073350694
 30
0.0
 10
190.64882812499999
 20
124.15814073350694
 30
0.0
 10
190.64882812499999
 20
122.15826280381944
 30
0.0
 10
190.64882812499999
 20
122.15826280381944
 30
0.0
  0
SPLINE
  5
4A
100
AcDbEntity
  8
CALQUE_1
 62
     7
100
AcDbSpline
210
0.0
220
0.0
230
1.0
 70
     8
 71
     3
 72
    29
 73
    25
 74
     0
 42
0.00000001
 43
0.00000001
 40
0.0
 40
0.0
 40
0.0
 40
0.0
 40
1.0
 40
1.0
 40
1.0
 40
2.0
 40
2.0
 40
2.0
 40
3.0
 40
3.0
 40
3.0
 40
4.0
 40
4.0
 40
4.0
 40
5.0
 40
5.0
 40
5.0
 40
6.0
 40
6.0
 40
6.0
 40
7.0
 40
7.0
 40
7.0
 40
8.0
 40
8.0
 40
8.0
 40
8.0
 10
12.451953124999999
 20
112.28048502604166
 30
0.0
 10
12.451953124999999
 20
111.72789171006943
 30
0.0
 10
12.004090711805555
 20
111.2803738064236
 30
0.0
 10
11.452186414930555
 20
111.2803738064236
 30
0.0
 10
11.452186414930555
 20
111.2803738064236
 30
0.0
 10
10.451730685763888
 20
111.2803738064236
 30
0.0
 10
10.451730685763888
 20
111.2803738064236
 30
0.0
 10
9.8998263888888882
 20
111.2803738064236
 30
0.0
 10
9.4519639756944436
 20
111.72789171006943
 30
0.0
 10
9.4519639756944436
 20
112.28048502604166
 30
0.0
 10
9.4519639756944436
 20
112.28048502604166
 30
0.0
 10
9.4519639756944436
 20
114.28036295572916
 30
0.0
 10
9.4519639756944436
 20
114.28036295572916
 30
0.0
 10
9.4519639756944436
 20
114.83261176215277
 30
0.0
 10
9.8998263888888882
 20
115.28047417534721
 30
0.0
 10
10.451730685763888
 20
115.28047417534721
 30
0.0
 10
10.451730685763888
 20
115.28047417534721
 30
0.0
 10
11.452186414930555
 20
115.28047417534721
 30
0.0
 10
11.452186414930555
 20
115.28047417534721
 30
0.0
 10
12.004090711805555
 20
115.28047417534721
 30
0.0
 10
12.451953124999999
 20
114.83261176215277
 30
0.0
 10
12.451953124999999
 20
114.28036295572916
 30
0.0
 10
12.451953124999999
 20
114.28036295572916
 30
0.0
 10
12.451953124999999
 20
112.28048502604166
 30
0.0
 10
12.451953124999999
 20
112.28048502604166
 30
0.0
  0
SPLINE
  5
49
100
AcDbEntity
  8
CALQUE_1
 62
     7
100
AcDbSpline
210
0.0
220
0.0
230
1.0
 70
     8
 71
     3
 72
    29
 73
    25
 74
     0
 42
0.00000001
 43
0.00000001
 40
0.0
 40
0.0
 40
0.0
 40
0.0
 40
1.0
 40
1.0
 40
1.0
 40
2.0
 40
2.0
 40
2.0
 40
3.0
 40
3.0
 40
3.0
 40
4.0
 40
4.0
 40
4.0
 40
5.0
 40
5.0
 40
5.0
 40
6.0
 40
6.0
 40
6.0
 40
7.0
 40
7.0
 40
7.0
 40
8.0
 40
8.0
 40
8.0
 40
8.0
 10
23.589257812499998
 20
112.28048502604166
 30
0.0
 10
23.589257812499998
 20
111.72789171006943
 30
0.0
 10
23.141395399305555
 20
111.2803738064236
 30
0.0
 10
22.589491102430554
 20
111.2803738064236
 30
0.0
 10
22.589491102430554
 20
111.2803738064236
 30
0.0
 10
21.589035373263886
 20
111.2803738064236
 30
0.0
 10
21.589035373263886
 20
111.2803738064236
 30
0.0
 10
21.037131076388889
 20
111.2803738064236
 30
0.0
 10
20.589268663194442
 20
111.72789171006943
 30
0.0
 10
20.589268663194442
 20
112.28048502604166
 30
0.0
 10
20.589268663194442
 20
112.28048502604166
 30
0.0
 10
20.589268663194442
 20
114.28036295572916
 30
0.0
 10
20.589268663194442
 20
114.28036295572916
 30
0.0
 10
20.589268663194442
 20
114.83261176215277
 30
0.0
 10
21.037131076388889
 20
115.28047417534721
 30
0.0
 10
21.589035373263886
 20
115.28047417534721
 30
0.0
 10
21.589035373263886
 20
115.28047417534721
 30
0.0
 10
22.589491102430554
 20
115.28047417534721
 30
0.0
 10
22.589491102430554
 20
115.28047417534721
 30
0.0
 10
23.141395399305555
 20
115.28047417534721
 30
0.0
 10
23.589257812499998
 20
114.83261176215277
 30
0.0
 10
23.589257812499998
 20
114.28036295572916
 30
0.0
 10
23.589257812499998
 20
114.28036295572916
 30
0.0
 10
23.589257812499998
 20
112.28048502604166
 30
0.0
 10
23.589257812499998
 20
112.28048502604166
 30
0.0
  0
SPLINE
  5
48
100
AcDbEntity
  8
CALQUE_1
 62
     7
100
AcDbSpline
210
0.0
220
0.0
230
1.0
 70
     8
 71
     3
 72
    29
 73
    25
 74
     0
 42
0.00000001
 43
0.00000001
 40
0.0
 40
0.0
 40
0.0
 40
0.0
 40
1.0
 40
1.0
 40
1.0
 40
2.0
 40
2.0
 40
2.0
 40
3.0
 40
3.0
 40
3.0
 40
4.0
 40
4.0
 40
4.0
 40
5.0
 40
5.0
 40
5.0
 40
6.0
 40
6.0
 40
6.0
 40
7.0
 40
7.0
 40
7.0
 40
8.0
 40
8.0
 40
8.0
 40
8.0
 10
34.7265625
 20
112.28048502604166
 30
0.0
 10
34.7265625
 20
111.72789171006943
 30
0.0
 10
34.27870008680555
 20
111.2803738064236
 30
0.0
 10
33.726795789930556
 20
111.2803738064236
 30
0.0
 10
33.726795789930556
 20
111.2803738064236
 30
0.0
 10
32.726340060763889
 20
111.2803738064236
 30
0.0
 10
32.726340060763889
 20
111.2803738064236
 30
0.0
 10
32.174435763888887
 20
111.2803738064236
 30
0.0
 10
31.726573350694441
 20
111.72789171006943
 30
0.0
 10
31.726573350694441
 20
112.28048502604166
 30
0.0
 10
31.726573350694441
 20
112.28048502604166
 30
0.0
 10
31.726573350694441
 20
114.28036295572916
 30
0.0
 10
31.726573350694441
 20
114.28036295572916
 30
0.0
 10
31.726573350694441
 20
114.83261176215277
 30
0.0
 10
32.174435763888887
 20
115.28047417534721
 30
0.0
 10
32.726340060763889
 20
115.28047417534721
 30
0.0
 10
32.726340060763889
 20
115.28047417534721
 30
0.0
 10
33.726795789930556
 20
115.28047417534721
 30
0.0
 10
33.726795789930556
 20
115.28047417534721
 30
0.0
 10
34.27870008680555
 20
115.28047417534721
 30
0.0
 10
34.7265625
 20
114.83261176215277
 30
0.0
 10
34.7265625
 20
114.28036295572916
 30
0.0
 10
34.7265625
 20
114.28036295572916
 30
0.0
 10
34.7265625
 20
112.28048502604166
 30
0.0
 10
34.7265625
 20
112.28048502604166
 30
0.0
  0
SPLINE
  5
47
100
AcDbEntity
  8
CALQUE_1
 62
     7
100
AcDbSpline
210
0.0
220
0.0
230
1.0
 70
     8
 71
     3
 72
    29
 73
    25
 74
     0
 42
0.00000001
 43
0.00000001
 40
0.0
 40
0.0
 40
0.0
 40
0.0
 40
1.0
 40
1.0
 40
1.0
 40
2.0
 40
2.0
 40
2.0
 40
3.0
 40
3.0
 40
3.0
 40
4.0
 40
4.0
 40
4.0
 40
5.0
 40
5.0
 40
5.0
 40
6.0
 40
6.0
 40
6.0
 40
7.0
 40
7.0
 40
7.0
 40
8.0
 40
8.0
 40
8.0
 40
8.0
 10
45.863867187499999
 20
112.28048502604166
 30
0.0
 10
45.863867187499999
 20
111.72789171006943
 30
0.0
 10
45.416004774305549
 20
111.2803738064236
 30
0.0
 10
44.864100477430554
 20
111.2803738064236
 30
0.0
 10
44.864100477430554
 20
111.2803738064236
 30
0.0
 10
43.863644748263887
 20
111.2803738064236
 30
0.0
 10
43.863644748263887
 20
111.2803738064236
 30
0.0
 10
43.311740451388886
 20
111.2803738064236
 30
0.0
 10
42.863878038194443
 20
111.72789171006943
 30
0.0
 10
42.863878038194443
 20
112.28048502604166
 30
0.0
 10
42.863878038194443
 20
112.28048502604166
 30
0.0
 10
42.863878038194443
 20
114.28036295572916
 30
0.0
 10
42.863878038194443
 20
114.28036295572916
 30
0.0
 10
42.863878038194443
 20
114.83261176215277
 30
0.0
 10
43.311740451388886
 20
115.28047417534721
 30
0.0
 10
43.863644748263887
 20
115.28047417534721
 30
0.0
 10
43.863644748263887
 20
115.28047417534721
 30
0.0
 10
44.864100477430554
 20
115.28047417534721
 30
0.0
 10
44.864100477430554
 20
115.28047417534721
 30
0.0
 10
45.416004774305549
 20
115.28047417534721
 30
0.0
 10
45.863867187499999
 20
114.83261176215277
 30
0.0
 10
45.863867187499999
 20
114.28036295572916
 30
0.0
 10
45.863867187499999
 20
114.28036295572916
 30
0.0
 10
45.863867187499999
 20
112.28048502604166
 30
0.0
 10
45.863867187499999
 20
112.28048502604166
 30
0.0
  0
SPLINE
  5
46
100
AcDbEntity
  8
CALQUE_1
 62
     7
100
AcDbSpline
210
0.0
220
0.0
230
1.0
 70
     8
 71
     3
 72
    29
 73
    25
 74
     0
 42
0.00000001
 43
0.00000001
 40
0.0
 40
0.0
 40
0.0
 40
0.0
 40
1.0
 40
1.0
 40
1.0
 40
2.0
 40
2.0
 40
2.0
 40
3.0
 40
3.0
 40
3.0
 40
4.0
 40
4.0
 40
4.0
 40
5.0
 40
5.0
 40
5.0
 40
6.0
 40
6.0
 40
6.0
 40
7.0
 40
7.0
 40
7.0
 40
8.0
 40
8.0
 40
8.0
 40
8.0
 10
57.001171874999997
 20
112.28048502604166
 30
0.0
 10
57.001171874999997
 20
111.72789171006943
 30
0.0
 10
56.553309461805547
 20
111.2803738064236
 30
0.0
 10
56.001405164930553
 20
111.2803738064236
 30
0.0
 10
56.001405164930553
 20
111.2803738064236
 30
0.0
 10
55.000949435763886
 20
111.2803738064236
 30
0.0
 10
55.000949435763886
 20
111.2803738064236
 30
0.0
 10
54.449045138888884
 20
111.2803738064236
 30
0.0
 10
54.001182725694441
 20
111.72789171006943
 30
0.0
 10
54.001182725694441
 20
112.28048502604166
 30
0.0
 10
54.001182725694441
 20
112.28048502604166
 30
0.0
 10
54.001182725694441
 20
114.28036295572916
 30
0.0
 10
54.001182725694441
 20
114.28036295572916
 30
0.0
 10
54.001182725694441
 20
114.83261176215277
 30
0.0
 10
54.449045138888884
 20
115.28047417534721
 30
0.0
 10
55.000949435763886
 20
115.28047417534721
 30
0.0
 10
55.000949435763886
 20
115.28047417534721
 30
0.0
 10
56.001405164930553
 20
115.28047417534721
 30
0.0
 10
56.001405164930553
 20
115.28047417534721
 30
0.0
 10
56.553309461805547
 20
115.28047417534721
 30
0.0
 10
57.001171874999997
 20
114.83261176215277
 30
0.0
 10
57.001171874999997
 20
114.28036295572916
 30
0.0
 10
57.001171874999997
 20
114.28036295572916
 30
0.0
 10
57.001171874999997
 20
112.28048502604166
 30
0.0
 10
57.001171874999997
 20
112.28048502604166
 30
0.0
  0
SPLINE
  5
45
100
AcDbEntity
  8
CALQUE_1
 62
     7
100
AcDbSpline
210
0.0
220
0.0
230
1.0
 70
     8
 71
     3
 72
    29
 73
    25
 74
     0
 42
0.00000001
 43
0.00000001
 40
0.0
 40
0.0
 40
0.0
 40
0.0
 40
1.0
 40
1.0
 40
1.0
 40
2.0
 40
2.0
 40
2.0
 40
3.0
 40
3.0
 40
3.0
 40
4.0
 40
4.0
 40
4.0
 40
5.0
 40
5.0
 40
5.0
 40
6.0
 40
6.0
 40
6.0
 40
7.0
 40
7.0
 40
7.0
 40
8.0
 40
8.0
 40
8.0
 40
8.0
 10
68.138476562499989
 20
112.28048502604166
 30
0.0
 10
68.138476562499989
 20
111.72789171006943
 30
0.0
 10
67.690614149305546
 20
111.2803738064236
 30
0.0
 10
67.138709852430551
 20
111.2803738064236
 30
0.0
 10
67.138709852430551
 20
111.2803738064236
 30
0.0
 10
66.138254123263877
 20
111.2803738064236
 30
0.0
 10
66.138254123263877
 20
111.2803738064236
 30
0.0
 10
65.586349826388883
 20
111.2803738064236
 30
0.0
 10
65.13848741319444
 20
111.72789171006943
 30
0.0
 10
65.13848741319444
 20
112.28048502604166
 30
0.0
 10
65.13848741319444
 20
112.28048502604166
 30
0.0
 10
65.13848741319444
 20
114.28036295572916
 30
0.0
 10
65.13848741319444
 20
114.28036295572916
 30
0.0
 10
65.13848741319444
 20
114.83261176215277
 30
0.0
 10
65.586349826388883
 20
115.28047417534721
 30
0.0
 10
66.138254123263877
 20
115.28047417534721
 30
0.0
 10
66.138254123263877
 20
115.28047417534721
 30
0.0
 10
67.138709852430551
 20
115.28047417534721
 30
0.0
 10
67.138709852430551
 20
115.28047417534721
 30
0.0
 10
67.690614149305546
 20
115.28047417534721
 30
0.0
 10
68.138476562499989
 20
114.83261176215277
 30
0.0
 10
68.138476562499989
 20
114.28036295572916
 30
0.0
 10
68.138476562499989
 20
114.28036295572916
 30
0.0
 10
68.138476562499989
 20
112.28048502604166
 30
0.0
 10
68.138476562499989
 20
112.28048502604166
 30
0.0
  0
SPLINE
  5
44
100
AcDbEntity
  8
CALQUE_1
 62
     7
100
AcDbSpline
210
0.0
220
0.0
230
1.0
 70
     8
 71
     3
 72
    29
 73
    25
 74
     0
 42
0.00000001
 43
0.00000001
 40
0.0
 40
0.0
 40
0.0
 40
0.0
 40
1.0
 40
1.0
 40
1.0
 40
2.0
 40
2.0
 40
2.0
 40
3.0
 40
3.0
 40
3.0
 40
4.0
 40
4.0
 40
4.0
 40
5.0
 40
5.0
 40
5.0
 40
6.0
 40
6.0
 40
6.0
 40
7.0
 40
7.0
 40
7.0
 40
8.0
 40
8.0
 40
8.0
 40
8.0
 10
79.275781249999994
 20
112.28048502604166
 30
0.0
 10
79.275781249999994
 20
111.72789171006943
 30
0.0
 10
78.827918836805551
 20
111.2803738064236
 30
0.0
 10
78.276014539930543
 20
111.2803738064236
 30
0.0
 10
78.276014539930543
 20
111.2803738064236
 30
0.0
 10
77.275558810763883
 20
111.2803738064236
 30
0.0
 10
77.275558810763883
 20
111.2803738064236
 30
0.0
 10
76.723654513888889
 20
111.2803738064236
 30
0.0
 10
76.275792100694431
 20
111.72789171006943
 30
0.0
 10
76.275792100694431
 20
112.28048502604166
 30
0.0
 10
76.275792100694431
 20
112.28048502604166
 30
0.0
 10
76.275792100694431
 20
114.28036295572916
 30
0.0
 10
76.275792100694431
 20
114.28036295572916
 30
0.0
 10
76.275792100694431
 20
114.83261176215277
 30
0.0
 10
76.723654513888889
 20
115.28047417534721
 30
0.0
 10
77.275558810763883
 20
115.28047417534721
 30
0.0
 10
77.275558810763883
 20
115.28047417534721
 30
0.0
 10
78.276014539930543
 20
115.28047417534721
 30
0.0
 10
78.276014539930543
 20
115.28047417534721
 30
0.0
 10
78.827918836805551
 20
115.28047417534721
 30
0.0
 10
79.275781249999994
 20
114.83261176215277
 30
0.0
 10
79.275781249999994
 20
114.28036295572916
 30
0.0
 10
79.275781249999994
 20
114.28036295572916
 30
0.0
 10
79.275781249999994
 20
112.28048502604166
 30
0.0
 10
79.275781249999994
 20
112.28048502604166
 30
0.0
  0
SPLINE
  5
43
100
AcDbEntity
  8
CALQUE_1
 62
     7
100
AcDbSpline
210
0.0
220
0.0
230
1.0
 70
     8
 71
     3
 72
    29
 73
    25
 74
     0
 42
0.00000001
 43
0.00000001
 40
0.0
 40
0.0
 40
0.0
 40
0.0
 40
1.0
 40
1.0
 40
1.0
 40
2.0
 40
2.0
 40
2.0
 40
3.0
 40
3.0
 40
3.0
 40
4.0
 40
4.0
 40
4.0
 40
5.0
 40
5.0
 40
5.0
 40
6.0
 40
6.0
 40
6.0
 40
7.0
 40
7.0
 40
7.0
 40
8.0
 40
8.0
 40
8.0
 40
8.0
 10
90.413085937499986
 20
112.28048502604166
 30
0.0
 10
90.413085937499986
 20
111.72789171006943
 30
0.0
 10
89.965223524305543
 20
111.2803738064236
 30
0.0
 10
89.413319227430549
 20
111.2803738064236
 30
0.0
 10
89.413319227430549
 20
111.2803738064236
 30
0.0
 10
88.412863498263874
 20
111.2803738064236
 30
0.0
 10
88.412863498263874
 20
111.2803738064236
 30
0.0
 10
87.86095920138888
 20
111.2803738064236
 30
0.0
 10
87.413096788194437
 20
111.72789171006943
 30
0.0
 10
87.413096788194437
 20
112.28048502604166
 30
0.0
 10
87.413096788194437
 20
112.28048502604166
 30
0.0
 10
87.413096788194437
 20
114.28036295572916
 30
0.0
 10
87.413096788194437
 20
114.28036295572916
 30
0.0
 10
87.413096788194437
 20
114.83261176215277
 30
0.0
 10
87.86095920138888
 20
115.28047417534721
 30
0.0
 10
88.412863498263874
 20
115.28047417534721
 30
0.0
 10
88.412863498263874
 20
115.28047417534721
 30
0.0
 10
89.413319227430549
 20
115.28047417534721
 30
0.0
 10
89.413319227430549
 20
115.28047417534721
 30
0.0
 10
89.965223524305543
 20
115.28047417534721
 30
0.0
 10
90.413085937499986
 20
114.83261176215277
 30
0.0
 10
90.413085937499986
 20
114.28036295572916
 30
0.0
 10
90.413085937499986
 20
114.28036295572916
 30
0.0
 10
90.413085937499986
 20
112.28048502604166
 30
0.0
 10
90.413085937499986
 20
112.28048502604166
 30
0.0
  0
SPLINE
  5
42
100
AcDbEntity
  8
CALQUE_1
 62
     7
100
AcDbSpline
210
0.0
220
0.0
230
1.0
 70
     8
 71
     3
 72
    29
 73
    25
 74
     0
 42
0.00000001
 43
0.00000001
 40
0.0
 40
0.0
 40
0.0
 40
0.0
 40
1.0
 40
1.0
 40
1.0
 40
2.0
 40
2.0
 40
2.0
 40
3.0
 40
3.0
 40
3.0
 40
4.0
 40
4.0
 40
4.0
 40
5.0
 40
5.0
 40
5.0
 40
6.0
 40
6.0
 40
6.0
 40
7.0
 40
7.0
 40
7.0
 40
8.0
 40
8.0
 40
8.0
 40
8.0
 10
101.55039062499999
 20
112.28048502604166
 30
0.0
 10
101.55039062499999
 20
111.72789171006943
 30
0.0
 10
101.10252821180555
 20
111.2803738064236
 30
0.0
 10
100.55062391493054
 20
111.2803738064236
 30
0.0
 10
100.55062391493054
 20
111.2803738064236
 30
0.0
 10
99.55016818576388
 20
111.2803738064236
 30
0.0
 10
99.55016818576388
 20
111.2803738064236
 30
0.0
 10
98.998263888888886
 20
111.2803738064236
 30
0.0
 10
98.550401475694429
 20
111.72789171006943
 30
0.0
 10
98.550401475694429
 20
112.28048502604166
 30
0.0
 10
98.550401475694429
 20
112.28048502604166
 30
0.0
 10
98.550401475694429
 20
114.28036295572916
 30
0.0
 10
98.550401475694429
 20
114.28036295572916
 30
0.0
 10
98.550401475694429
 20
114.83261176215277
 30
0.0
 10
98.998263888888886
 20
115.28047417534721
 30
0.0
 10
99.55016818576388
 20
115.28047417534721
 30
0.0
 10
99.55016818576388
 20
115.28047417534721
 30
0.0
 10
100.55062391493054
 20
115.28047417534721
 30
0.0
 10
100.55062391493054
 20
115.28047417534721
 30
0.0
 10
101.10252821180555
 20
115.28047417534721
 30
0.0
 10
101.55039062499999
 20
114.83261176215277
 30
0.0
 10
101.55039062499999
 20
114.28036295572916
 30
0.0
 10
101.55039062499999
 20
114.28036295572916
 30
0.0
 10
101.55039062499999
 20
112.28048502604166
 30
0.0
 10
101.55039062499999
 20
112.28048502604166
 30
0.0
  0
SPLINE
  5
41
100
AcDbEntity
  8
CALQUE_1
 62
     7
100
AcDbSpline
210
0.0
220
0.0
230
1.0
 70
     8
 71
     3
 72
    29
 73
    25
 74
     0
 42
0.00000001
 43
0.00000001
 40
0.0
 40
0.0
 40
0.0
 40
0.0
 40
1.0
 40
1.0
 40
1.0
 40
2.0
 40
2.0
 40
2.0
 40
3.0
 40
3.0
 40
3.0
 40
4.0
 40
4.0
 40
4.0
 40
5.0
 40
5.0
 40
5.0
 40
6.0
 40
6.0
 40
6.0
 40
7.0
 40
7.0
 40
7.0
 40
8.0
 40
8.0
 40
8.0
 40
8.0
 10
112.68769531249998
 20
112.28048502604166
 30
0.0
 10
112.68769531249998
 20
111.72789171006943
 30
0.0
 10
112.23983289930554
 20
111.2803738064236
 30
0.0
 10
111.68792860243055
 20
111.2803738064236
 30
0.0
 10
111.68792860243055
 20
111.2803738064236
 30
0.0
 10
110.68747287326389
 20
111.2803738064236
 30
0.0
 10
110.68747287326389
 20
111.2803738064236
 30
0.0
 10
110.13556857638888
 20
111.2803738064236
 30
0.0
 10
109.68770616319443
 20
111.72789171006943
 30
0.0
 10
109.68770616319443
 20
112.28048502604166
 30
0.0
 10
109.68770616319443
 20
112.28048502604166
 30
0.0
 10
109.68770616319443
 20
114.28036295572916
 30
0.0
 10
109.68770616319443
 20
114.28036295572916
 30
0.0
 10
109.68770616319443
 20
114.83261176215277
 30
0.0
 10
110.13556857638888
 20
115.28047417534721
 30
0.0
 10
110.68747287326389
 20
115.28047417534721
 30
0.0
 10
110.68747287326389
 20
115.28047417534721
 30
0.0
 10
111.68792860243055
 20
115.28047417534721
 30
0.0
 10
111.68792860243055
 20
115.28047417534721
 30
0.0
 10
112.23983289930554
 20
115.28047417534721
 30
0.0
 10
112.68769531249998
 20
114.83261176215277
 30
0.0
 10
112.68769531249998
 20
114.28036295572916
 30
0.0
 10
112.68769531249998
 20
114.28036295572916
 30
0.0
 10
112.68769531249998
 20
112.28048502604166
 30
0.0
 10
112.68769531249998
 20
112.28048502604166
 30
0.0
  0
SPLINE
  5
40
100
AcDbEntity
  8
CALQUE_1
 62
     7
100
AcDbSpline
210
0.0
220
0.0
230
1.0
 70
     8
 71
     3
 72
    29
 73
    25
 74
     0
 42
0.00000001
 43
0.00000001
 40
0.0
 40
0.0
 40
0.0
 40
0.0
 40
1.0
 40
1.0
 40
1.0
 40
2.0
 40
2.0
 40
2.0
 40
3.0
 40
3.0
 40
3.0
 40
4.0
 40
4.0
 40
4.0
 40
5.0
 40
5.0
 40
5.0
 40
6.0
 40
6.0
 40
6.0
 40
7.0
 40
7.0
 40
7.0
 40
8.0
 40
8.0
 40
8.0
 40
8.0
 10
123.82499999999999
 20
112.28048502604166
 30
0.0
 10
123.82499999999999
 20
111.72789171006943
 30
0.0
 10
123.37713758680555
 20
111.2803738064236
 30
0.0
 10
122.82523328993055
 20
111.2803738064236
 30
0.0
 10
122.82523328993055
 20
111.2803738064236
 30
0.0
 10
121.82477756076388
 20
111.2803738064236
 30
0.0
 10
121.82477756076388
 20
111.2803738064236
 30
0.0
 10
121.27287326388888
 20
111.2803738064236
 30
0.0
 10
120.82501085069444
 20
111.72789171006943
 30
0.0
 10
120.82501085069444
 20
112.28048502604166
 30
0.0
 10
120.82501085069444
 20
112.28048502604166
 30
0.0
 10
120.82501085069444
 20
114.28036295572916
 30
0.0
 10
120.82501085069444
 20
114.28036295572916
 30
0.0
 10
120.82501085069444
 20
114.83261176215277
 30
0.0
 10
121.27287326388888
 20
115.28047417534721
 30
0.0
 10
121.82477756076388
 20
115.28047417534721
 30
0.0
 10
121.82477756076388
 20
115.28047417534721
 30
0.0
 10
122.82523328993055
 20
115.28047417534721
 30
0.0
 10
122.82523328993055
 20
115.28047417534721
 30
0.0
 10
123.37713758680555
 20
115.28047417534721
 30
0.0
 10
123.82499999999999
 20
114.83261176215277
 30
0.0
 10
123.82499999999999
 20
114.28036295572916
 30
0.0
 10
123.82499999999999
 20
114.28036295572916
 30
0.0
 10
123.82499999999999
 20
112.28048502604166
 30
0.0
 10
123.82499999999999
 20
112.28048502604166
 30
0.0
  0
SPLINE
  5
3F
100
AcDbEntity
  8
CALQUE_1
 62
     7
100
AcDbSpline
210
0.0
220
0.0
230
1.0
 70
     8
 71
     3
 72
    29
 73
    25
 74
     0
 42
0.00000001
 43
0.00000001
 40
0.0
 40
0.0
 40
0.0
 40
0.0
 40
1.0
 40
1.0
 40
1.0
 40
2.0
 40
2.0
 40
2.0
 40
3.0
 40
3.0
 40
3.0
 40
4.0
 40
4.0
 40
4.0
 40
5.0
 40
5.0
 40
5.0
 40
6.0
 40
6.0
 40
6.0
 40
7.0
 40
7.0
 40
7.0
 40
8.0
 40
8.0
 40
8.0
 40
8.0
 10
134.96230468749999
 20
112.28048502604166
 30
0.0
 10
134.96230468749999
 20
111.72789171006943
 30
0.0
 10
134.51444227430554
 20
111.2803738064236
 30
0.0
 10
133.96253797743054
 20
111.2803738064236
 30
0.0
 10
133.96253797743054
 20
111.2803738064236
 30
0.0
 10
132.96208224826387
 20
111.2803738064236
 30
0.0
 10
132.96208224826387
 20
111.2803738064236
 30
0.0
 10
132.41017795138887
 20
111.2803738064236
 30
0.0
 10
131.96231553819445
 20
111.72789171006943
 30
0.0
 10
131.96231553819445
 20
112.28048502604166
 30
0.0
 10
131.96231553819445
 20
112.28048502604166
 30
0.0
 10
131.96231553819445
 20
114.28036295572916
 30
0.0
 10
131.96231553819445
 20
114.28036295572916
 30
0.0
 10
131.96231553819445
 20
114.83261176215277
 30
0.0
 10
132.41017795138887
 20
115.28047417534721
 30
0.0
 10
132.96208224826387
 20
115.28047417534721
 30
0.0
 10
132.96208224826387
 20
115.28047417534721
 30
0.0
 10
133.96253797743054
 20
115.28047417534721
 30
0.0
 10
133.96253797743054
 20
115.28047417534721
 30
0.0
 10
134.51444227430554
 20
115.28047417534721
 30
0.0
 10
134.96230468749999
 20
114.83261176215277
 30
0.0
 10
134.96230468749999
 20
114.28036295572916
 30
0.0
 10
134.96230468749999
 20
114.28036295572916
 30
0.0
 10
134.96230468749999
 20
112.28048502604166
 30
0.0
 10
134.96230468749999
 20
112.28048502604166
 30
0.0
  0
SPLINE
  5
3E
100
AcDbEntity
  8
CALQUE_1
 62
     7
100
AcDbSpline
210
0.0
220
0.0
230
1.0
 70
     8
 71
     3
 72
    29
 73
    25
 74
     0
 42
0.00000001
 43
0.00000001
 40
0.0
 40
0.0
 40
0.0
 40
0.0
 40
1.0
 40
1.0
 40
1.0
 40
2.0
 40
2.0
 40
2.0
 40
3.0
 40
3.0
 40
3.0
 40
4.0
 40
4.0
 40
4.0
 40
5.0
 40
5.0
 40
5.0
 40
6.0
 40
6.0
 40
6.0
 40
7.0
 40
7.0
 40
7.0
 40
8.0
 40
8.0
 40
8.0
 40
8.0
 10
146.099609375
 20
112.28048502604166
 30
0.0
 10
146.099609375
 20
111.72789171006943
 30
0.0
 10
145.65174696180554
 20
111.2803738064236
 30
0.0
 10
145.09984266493055
 20
111.2803738064236
 30
0.0
 10
145.09984266493055
 20
111.2803738064236
 30
0.0
 10
144.09938693576387
 20
111.2803738064236
 30
0.0
 10
144.09938693576387
 20
111.2803738064236
 30
0.0
 10
143.54748263888888
 20
111.2803738064236
 30
0.0
 10
143.09962022569442
 20
111.72789171006943
 30
0.0
 10
143.09962022569442
 20
112.28048502604166
 30
0.0
 10
143.09962022569442
 20
112.28048502604166
 30
0.0
 10
143.09962022569442
 20
114.28036295572916
 30
0.0
 10
143.09962022569442
 20
114.28036295572916
 30
0.0
 10
143.09962022569442
 20
114.83261176215277
 30
0.0
 10
143.54748263888888
 20
115.28047417534721
 30
0.0
 10
144.09938693576387
 20
115.28047417534721
 30
0.0
 10
144.09938693576387
 20
115.28047417534721
 30
0.0
 10
145.09984266493055
 20
115.28047417534721
 30
0.0
 10
145.09984266493055
 20
115.28047417534721
 30
0.0
 10
145.65174696180554
 20
115.28047417534721
 30
0.0
 10
146.099609375
 20
114.83261176215277
 30
0.0
 10
146.099609375
 20
114.28036295572916
 30
0.0
 10
146.099609375
 20
114.28036295572916
 30
0.0
 10
146.099609375
 20
112.28048502604166
 30
0.0
 10
146.099609375
 20
112.28048502604166
 30
0.0
  0
SPLINE
  5
3D
100
AcDbEntity
  8
CALQUE_1
 62
     7
100
AcDbSpline
210
0.0
220
0.0
230
1.0
 70
     8
 71
     3
 72
    29
 73
    25
 74
     0
 42
0.00000001
 43
0.00000001
 40
0.0
 40
0.0
 40
0.0
 40
0.0
 40
1.0
 40
1.0
 40
1.0
 40
2.0
 40
2.0
 40
2.0
 40
3.0
 40
3.0
 40
3.0
 40
4.0
 40
4.0
 40
4.0
 40
5.0
 40
5.0
 40
5.0
 40
6.0
 40
6.0
 40
6.0
 40
7.0
 40
7.0
 40
7.0
 40
8.0
 40
8.0
 40
8.0
 40
8.0
 10
157.23691406249998
 20
112.28048502604166
 30
0.0
 10
157.23691406249998
 20
111.72789171006943
 30
0.0
 10
156.78905164930555
 20
111.2803738064236
 30
0.0
 10
156.23714735243055
 20
111.2803738064236
 30
0.0
 10
156.23714735243055
 20
111.2803738064236
 30
0.0
 10
155.23669162326388
 20
111.2803738064236
 30
0.0
 10
155.23669162326388
 20
111.2803738064236
 30
0.0
 10
154.68478732638889
 20
111.2803738064236
 30
0.0
 10
154.23692491319443
 20
111.72789171006943
 30
0.0
 10
154.23692491319443
 20
112.28048502604166
 30
0.0
 10
154.23692491319443
 20
112.28048502604166
 30
0.0
 10
154.23692491319443
 20
114.28036295572916
 30
0.0
 10
154.23692491319443
 20
114.28036295572916
 30
0.0
 10
154.23692491319443
 20
114.83261176215277
 30
0.0
 10
154.68478732638889
 20
115.28047417534721
 30
0.0
 10
155.23669162326388
 20
115.28047417534721
 30
0.0
 10
155.23669162326388
 20
115.28047417534721
 30
0.0
 10
156.23714735243055
 20
115.28047417534721
 30
0.0
 10
156.23714735243055
 20
115.28047417534721
 30
0.0
 10
156.78905164930555
 20
115.28047417534721
 30
0.0
 10
157.23691406249998
 20
114.83261176215277
 30
0.0
 10
157.23691406249998
 20
114.28036295572916
 30
0.0
 10
157.23691406249998
 20
114.28036295572916
 30
0.0
 10
157.23691406249998
 20
112.28048502604166
 30
0.0
 10
157.23691406249998
 20
112.28048502604166
 30
0.0
  0
SPLINE
  5
3C
100
AcDbEntity
  8
CALQUE_1
 62
     7
100
AcDbSpline
210
0.0
220
0.0
230
1.0
 70
     8
 71
     3
 72
    29
 73
    25
 74
     0
 42
0.00000001
 43
0.00000001
 40
0.0
 40
0.0
 40
0.0
 40
0.0
 40
1.0
 40
1.0
 40
1.0
 40
2.0
 40
2.0
 40
2.0
 40
3.0
 40
3.0
 40
3.0
 40
4.0
 40
4.0
 40
4.0
 40
5.0
 40
5.0
 40
5.0
 40
6.0
 40
6.0
 40
6.0
 40
7.0
 40
7.0
 40
7.0
 40
8.0
 40
8.0
 40
8.0
 40
8.0
 10
168.37421874999998
 20
112.28048502604166
 30
0.0
 10
168.37421874999998
 20
111.72789171006943
 30
0.0
 10
167.92635633680555
 20
111.2803738064236
 30
0.0
 10
167.37445203993053
 20
111.2803738064236
 30
0.0
 10
167.37445203993053
 20
111.2803738064236
 30
0.0
 10
166.37399631076389
 20
111.2803738064236
 30
0.0
 10
166.37399631076389
 20
111.2803738064236
 30
0.0
 10
165.82209201388886
 20
111.2803738064236
 30
0.0
 10
165.37422960069443
 20
111.72789171006943
 30
0.0
 10
165.37422960069443
 20
112.28048502604166
 30
0.0
 10
165.37422960069443
 20
112.28048502604166
 30
0.0
 10
165.37422960069443
 20
114.28036295572916
 30
0.0
 10
165.37422960069443
 20
114.28036295572916
 30
0.0
 10
165.37422960069443
 20
114.83261176215277
 30
0.0
 10
165.82209201388886
 20
115.28047417534721
 30
0.0
 10
166.37399631076389
 20
115.28047417534721
 30
0.0
 10
166.37399631076389
 20
115.28047417534721
 30
0.0
 10
167.37445203993053
 20
115.28047417534721
 30
0.0
 10
167.37445203993053
 20
115.28047417534721
 30
0.0
 10
167.92635633680555
 20
115.28047417534721
 30
0.0
 10
168.37421874999998
 20
114.83261176215277
 30
0.0
 10
168.37421874999998
 20
114.28036295572916
 30
0.0
 10
168.37421874999998
 20
114.28036295572916
 30
0.0
 10
168.37421874999998
 20
112.28048502604166
 30
0.0
 10
168.37421874999998
 20
112.28048502604166
 30
0.0
  0
SPLINE
  5
3B
100
AcDbEntity
  8
CALQUE_1
 62
     7
100
AcDbSpline
210
0.0
220
0.0
230
1.0
 70
     8
 71
     3
 72
    29
 73
    25
 74
     0
 42
0.00000001
 43
0.00000001
 40
0.0
 40
0.0
 40
0.0
 40
0.0
 40
1.0
 40
1.0
 40
1.0
 40
2.0
 40
2.0
 40
2.0
 40
3.0
 40
3.0
 40
3.0
 40
4.0
 40
4.0
 40
4.0
 40
5.0
 40
5.0
 40
5.0
 40
6.0
 40
6.0
 40
6.0
 40
7.0
 40
7.0
 40
7.0
 40
8.0
 40
8.0
 40
8.0
 40
8.0
 10
179.51152343749999
 20
112.28048502604166
 30
0.0
 10
179.51152343749999
 20
111.72789171006943
 30
0.0
 10
179.06366102430553
 20
111.2803738064236
 30
0.0
 10
178.51175672743054
 20
111.2803738064236
 30
0.0
 10
178.51175672743054
 20
111.2803738064236
 30
0.0
 10
177.51130099826386
 20
111.2803738064236
 30
0.0
 10
177.51130099826386
 20
111.2803738064236
 30
0.0
 10
176.95939670138887
 20
111.2803738064236
 30
0.0
 10
176.51153428819444
 20
111.72789171006943
 30
0.0
 10
176.51153428819444
 20
112.28048502604166
 30
0.0
 10
176.51153428819444
 20
112.28048502604166
 30
0.0
 10
176.51153428819444
 20
114.28036295572916
 30
0.0
 10
176.51153428819444
 20
114.28036295572916
 30
0.0
 10
176.51153428819444
 20
114.83261176215277
 30
0.0
 10
176.95939670138887
 20
115.28047417534721
 30
0.0
 10
177.51130099826386
 20
115.28047417534721
 30
0.0
 10
177.51130099826386
 20
115.28047417534721
 30
0.0
 10
178.51175672743054
 20
115.28047417534721
 30
0.0
 10
178.51175672743054
 20
115.28047417534721
 30
0.0
 10
179.06366102430553
 20
115.28047417534721
 30
0.0
 10
179.51152343749999
 20
114.83261176215277
 30
0.0
 10
179.51152343749999
 20
114.28036295572916
 30
0.0
 10
179.51152343749999
 20
114.28036295572916
 30
0.0
 10
179.51152343749999
 20
112.28048502604166
 30
0.0
 10
179.51152343749999
 20
112.28048502604166
 30
0.0
  0
SPLINE
  5
3A
100
AcDbEntity
  8
CALQUE_1
 62
     7
100
AcDbSpline
210
0.0
220
0.0
230
1.0
 70
     8
 71
     3
 72
    29
 73
    25
 74
     0
 42
0.00000001
 43
0.00000001
 40
0.0
 40
0.0
 40
0.0
 40
0.0
 40
1.0
 40
1.0
 40
1.0
 40
2.0
 40
2.0
 40
2.0
 40
3.0
 40
3.0
 40
3.0
 40
4.0
 40
4.0
 40
4.0
 40
5.0
 40
5.0
 40
5.0
 40
6.0
 40
6.0
 40
6.0
 40
7.0
 40
7.0
 40
7.0
 40
8.0
 40
8.0
 40
8.0
 40
8.0
 10
190.64882812499999
 20
112.28048502604166
 30
0.0
 10
190.64882812499999
 20
111.72789171006943
 30
0.0
 10
190.20096571180554
 20
111.2803738064236
 30
0.0
 10
189.64906141493054
 20
111.2803738064236
 30
0.0
 10
189.64906141493054
 20
111.2803738064236
 30
0.0
 10
188.64860568576387
 20
111.2803738064236
 30
0.0
 10
188.64860568576387
 20
111.2803738064236
 30
0.0
 10
188.09670138888887
 20
111.2803738064236
 30
0.0
 10
187.64883897569442
 20
111.72789171006943
 30
0.0
 10
187.64883897569442
 20
112.28048502604166
 30
0.0
 10
187.64883897569442
 20
112.28048502604166
 30
0.0
 10
187.64883897569442
 20
114.28036295572916
 30
0.0
 10
187.64883897569442
 20
114.28036295572916
 30
0.0
 10
187.64883897569442
 20
114.83261176215277
 30
0.0
 10
188.09670138888887
 20
115.28047417534721
 30
0.0
 10
188.64860568576387
 20
115.28047417534721
 30
0.0
 10
188.64860568576387
 20
115.28047417534721
 30
0.0
 10
189.64906141493054
 20
115.28047417534721
 30
0.0
 10
189.64906141493054
 20
115.28047417534721
 30
0.0
 10
190.20096571180554
 20
115.28047417534721
 30
0.0
 10
190.64882812499999
 20
114.83261176215277
 30
0.0
 10
190.64882812499999
 20
114.28036295572916
 30
0.0
 10
190.64882812499999
 20
114.28036295572916
 30
0.0
 10
190.64882812499999
 20
112.28048502604166
 30
0.0
 10
190.64882812499999
 20
112.28048502604166
 30
0.0
  0
SPLINE
  5
39
100
AcDbEntity
  8
CALQUE_1
 62
     7
100
AcDbSpline
210
0.0
220
0.0
230
1.0
 70
     8
 71
     3
 72
    29
 73
    25
 74
     0
 42
0.00000001
 43
0.00000001
 40
0.0
 40
0.0
 40
0.0
 40
0.0
 40
1.0
 40
1.0
 40
1.0
 40
2.0
 40
2.0
 40
2.0
 40
3.0
 40
3.0
 40
3.0
 40
4.0
 40
4.0
 40
4.0
 40
5.0
 40
5.0
 40
5.0
 40
6.0
 40
6.0
 40
6.0
 40
7.0
 40
7.0
 40
7.0
 40
8.0
 40
8.0
 40
8.0
 40
8.0
 10
12.451953124999999
 20
102.40270724826388
 30
0.0
 10
12.451953124999999
 20
101.85011393229166
 30
0.0
 10
12.004090711805555
 20
101.40259602864582
 30
0.0
 10
11.452186414930555
 20
101.40259602864582
 30
0.0
 10
11.452186414930555
 20
101.40259602864582
 30
0.0
 10
10.451730685763888
 20
101.40259602864582
 30
0.0
 10
10.451730685763888
 20
101.40259602864582
 30
0.0
 10
9.8998263888888882
 20
101.40259602864582
 30
0.0
 10
9.4519639756944436
 20
101.85011393229166
 30
0.0
 10
9.4519639756944436
 20
102.40270724826388
 30
0.0
 10
9.4519639756944436
 20
102.40270724826388
 30
0.0
 10
9.4519639756944436
 20
104.40258517795138
 30
0.0
 10
9.4519639756944436
 20
104.40258517795138
 30
0.0
 10
9.4519639756944436
 20
104.95483398437499
 30
0.0
 10
9.8998263888888882
 20
105.40269639756943
 30
0.0
 10
10.451730685763888
 20
105.40269639756943
 30
0.0
 10
10.451730685763888
 20
105.40269639756943
 30
0.0
 10
11.452186414930555
 20
105.40269639756943
 30
0.0
 10
11.452186414930555
 20
105.40269639756943
 30
0.0
 10
12.004090711805555
 20
105.40269639756943
 30
0.0
 10
12.451953124999999
 20
104.95483398437499
 30
0.0
 10
12.451953124999999
 20
104.40258517795138
 30
0.0
 10
12.451953124999999
 20
104.40258517795138
 30
0.0
 10
12.451953124999999
 20
102.40270724826388
 30
0.0
 10
12.451953124999999
 20
102.40270724826388
 30
0.0
  0
SPLINE
  5
38
100
AcDbEntity
  8
CALQUE_1
 62
     7
100
AcDbSpline
210
0.0
220
0.0
230
1.0
 70
     8
 71
     3
 72
    29
 73
    25
 74
     0
 42
0.00000001
 43
0.00000001
 40
0.0
 40
0.0
 40
0.0
 40
0.0
 40
1.0
 40
1.0
 40
1.0
 40
2.0
 40
2.0
 40
2.0
 40
3.0
 40
3.0
 40
3.0
 40
4.0
 40
4.0
 40
4.0
 40
5.0
 40
5.0
 40
5.0
 40
6.0
 40
6.0
 40
6.0
 40
7.0
 40
7.0
 40
7.0
 40
8.0
 40
8.0
 40
8.0
 40
8.0
 10
23.589257812499998
 20
102.40270724826388
 30
0.0
 10
23.589257812499998
 20
101.85011393229166
 30
0.0
 10
23.141395399305555
 20
101.40259602864582
 30
0.0
 10
22.589491102430554
 20
101.40259602864582
 30
0.0
 10
22.589491102430554
 20
101.40259602864582
 30
0.0
 10
21.589035373263886
 20
101.40259602864582
 30
0.0
 10
21.589035373263886
 20
101.40259602864582
 30
0.0
 10
21.037131076388889
 20
101.40259602864582
 30
0.0
 10
20.589268663194442
 20
101.85011393229166
 30
0.0
 10
20.589268663194442
 20
102.40270724826388
 30
0.0
 10
20.589268663194442
 20
102.40270724826388
 30
0.0
 10
20.589268663194442
 20
104.40258517795138
 30
0.0
 10
20.589268663194442
 20
104.40258517795138
 30
0.0
 10
20.589268663194442
 20
104.95483398437499
 30
0.0
 10
21.037131076388889
 20
105.40269639756943
 30
0.0
 10
21.589035373263886
 20
105.40269639756943
 30
0.0
 10
21.589035373263886
 20
105.40269639756943
 30
0.0
 10
22.589491102430554
 20
105.40269639756943
 30
0.0
 10
22.589491102430554
 20
105.40269639756943
 30
0.0
 10
23.141395399305555
 20
105.40269639756943
 30
0.0
 10
23.589257812499998
 20
104.95483398437499
 30
0.0
 10
23.589257812499998
 20
104.40258517795138
 30
0.0
 10
23.589257812499998
 20
104.40258517795138
 30
0.0
 10
23.589257812499998
 20
102.40270724826388
 30
0.0
 10
23.589257812499998
 20
102.40270724826388
 30
0.0
  0
SPLINE
  5
37
100
AcDbEntity
  8
CALQUE_1
 62
     7
100
AcDbSpline
210
0.0
220
0.0
230
1.0
 70
     8
 71
     3
 72
    29
 73
    25
 74
     0
 42
0.00000001
 43
0.00000001
 40
0.0
 40
0.0
 40
0.0
 40
0.0
 40
1.0
 40
1.0
 40
1.0
 40
2.0
 40
2.0
 40
2.0
 40
3.0
 40
3.0
 40
3.0
 40
4.0
 40
4.0
 40
4.0
 40
5.0
 40
5.0
 40
5.0
 40
6.0
 40
6.0
 40
6.0
 40
7.0
 40
7.0
 40
7.0
 40
8.0
 40
8.0
 40
8.0
 40
8.0
 10
34.7265625
 20
102.40270724826388
 30
0.0
 10
34.7265625
 20
101.85011393229166
 30
0.0
 10
34.27870008680555
 20
101.40259602864582
 30
0.0
 10
33.726795789930556
 20
101.40259602864582
 30
0.0
 10
33.726795789930556
 20
101.40259602864582
 30
0.0
 10
32.726340060763889
 20
101.40259602864582
 30
0.0
 10
32.726340060763889
 20
101.40259602864582
 30
0.0
 10
32.174435763888887
 20
101.40259602864582
 30
0.0
 10
31.726573350694441
 20
101.85011393229166
 30
0.0
 10
31.726573350694441
 20
102.40270724826388
 30
0.0
 10
31.726573350694441
 20
102.40270724826388
 30
0.0
 10
31.726573350694441
 20
104.40258517795138
 30
0.0
 10
31.726573350694441
 20
104.40258517795138
 30
0.0
 10
31.726573350694441
 20
104.95483398437499
 30
0.0
 10
32.174435763888887
 20
105.40269639756943
 30
0.0
 10
32.726340060763889
 20
105.40269639756943
 30
0.0
 10
32.726340060763889
 20
105.40269639756943
 30
0.0
 10
33.726795789930556
 20
105.40269639756943
 30
0.0
 10
33.726795789930556
 20
105.40269639756943
 30
0.0
 10
34.27870008680555
 20
105.40269639756943
 30
0.0
 10
34.7265625
 20
104.95483398437499
 30
0.0
 10
34.7265625
 20
104.40258517795138
 30
0.0
 10
34.7265625
 20
104.40258517795138
 30
0.0
 10
34.7265625
 20
102.40270724826388
 30
0.0
 10
34.7265625
 20
102.40270724826388
 30
0.0
  0
SPLINE
  5
36
100
AcDbEntity
  8
CALQUE_1
 62
     7
100
AcDbSpline
210
0.0
220
0.0
230
1.0
 70
     8
 71
     3
 72
    29
 73
    25
 74
     0
 42
0.00000001
 43
0.00000001
 40
0.0
 40
0.0
 40
0.0
 40
0.0
 40
1.0
 40
1.0
 40
1.0
 40
2.0
 40
2.0
 40
2.0
 40
3.0
 40
3.0
 40
3.0
 40
4.0
 40
4.0
 40
4.0
 40
5.0
 40
5.0
 40
5.0
 40
6.0
 40
6.0
 40
6.0
 40
7.0
 40
7.0
 40
7.0
 40
8.0
 40
8.0
 40
8.0
 40
8.0
 10
45.863867187499999
 20
102.40270724826388
 30
0.0
 10
45.863867187499999
 20
101.85011393229166
 30
0.0
 10
45.416004774305549
 20
101.40259602864582
 30
0.0
 10
44.864100477430554
 20
101.40259602864582
 30
0.0
 10
44.864100477430554
 20
101.40259602864582
 30
0.0
 10
43.863644748263887
 20
101.40259602864582
 30
0.0
 10
43.863644748263887
 20
101.40259602864582
 30
0.0
 10
43.311740451388886
 20
101.40259602864582
 30
0.0
 10
42.863878038194443
 20
101.85011393229166
 30
0.0
 10
42.863878038194443
 20
102.40270724826388
 30
0.0
 10
42.863878038194443
 20
102.40270724826388
 30
0.0
 10
42.863878038194443
 20
104.40258517795138
 30
0.0
 10
42.863878038194443
 20
104.40258517795138
 30
0.0
 10
42.863878038194443
 20
104.95483398437499
 30
0.0
 10
43.311740451388886
 20
105.40269639756943
 30
0.0
 10
43.863644748263887
 20
105.40269639756943
 30
0.0
 10
43.863644748263887
 20
105.40269639756943
 30
0.0
 10
44.864100477430554
 20
105.40269639756943
 30
0.0
 10
44.864100477430554
 20
105.40269639756943
 30
0.0
 10
45.416004774305549
 20
105.40269639756943
 30
0.0
 10
45.863867187499999
 20
104.95483398437499
 30
0.0
 10
45.863867187499999
 20
104.40258517795138
 30
0.0
 10
45.863867187499999
 20
104.40258517795138
 30
0.0
 10
45.863867187499999
 20
102.40270724826388
 30
0.0
 10
45.863867187499999
 20
102.40270724826388
 30
0.0
  0
SPLINE
  5
35
100
AcDbEntity
  8
CALQUE_1
 62
     7
100
AcDbSpline
210
0.0
220
0.0
230
1.0
 70
     8
 71
     3
 72
    29
 73
    25
 74
     0
 42
0.00000001
 43
0.00000001
 40
0.0
 40
0.0
 40
0.0
 40
0.0
 40
1.0
 40
1.0
 40
1.0
 40
2.0
 40
2.0
 40
2.0
 40
3.0
 40
3.0
 40
3.0
 40
4.0
 40
4.0
 40
4.0
 40
5.0
 40
5.0
 40
5.0
 40
6.0
 40
6.0
 40
6.0
 40
7.0
 40
7.0
 40
7.0
 40
8.0
 40
8.0
 40
8.0
 40
8.0
 10
57.001171874999997
 20
102.40270724826388
 30
0.0
 10
57.001171874999997
 20
101.85011393229166
 30
0.0
 10
56.553309461805547
 20
101.40259602864582
 30
0.0
 10
56.001405164930553
 20
101.40259602864582
 30
0.0
 10
56.001405164930553
 20
101.40259602864582
 30
0.0
 10
55.000949435763886
 20
101.40259602864582
 30
0.0
 10
55.000949435763886
 20
101.40259602864582
 30
0.0
 10
54.449045138888884
 20
101.40259602864582
 30
0.0
 10
54.001182725694441
 20
101.85011393229166
 30
0.0
 10
54.001182725694441
 20
102.40270724826388
 30
0.0
 10
54.001182725694441
 20
102.40270724826388
 30
0.0
 10
54.001182725694441
 20
104.40258517795138
 30
0.0
 10
54.001182725694441
 20
104.40258517795138
 30
0.0
 10
54.001182725694441
 20
104.95483398437499
 30
0.0
 10
54.449045138888884
 20
105.40269639756943
 30
0.0
 10
55.000949435763886
 20
105.40269639756943
 30
0.0
 10
55.000949435763886
 20
105.40269639756943
 30
0.0
 10
56.001405164930553
 20
105.40269639756943
 30
0.0
 10
56.001405164930553
 20
105.40269639756943
 30
0.0
 10
56.553309461805547
 20
105.40269639756943
 30
0.0
 10
57.001171874999997
 20
104.95483398437499
 30
0.0
 10
57.001171874999997
 20
104.40258517795138
 30
0.0
 10
57.001171874999997
 20
104.40258517795138
 30
0.0
 10
57.001171874999997
 20
102.40270724826388
 30
0.0
 10
57.001171874999997
 20
102.40270724826388
 30
0.0
  0
SPLINE
  5
34
100
AcDbEntity
  8
CALQUE_1
 62
     7
100
AcDbSpline
210
0.0
220
0.0
230
1.0
 70
     8
 71
     3
 72
    29
 73
    25
 74
     0
 42
0.00000001
 43
0.00000001
 40
0.0
 40
0.0
 40
0.0
 40
0.0
 40
1.0
 40
1.0
 40
1.0
 40
2.0
 40
2.0
 40
2.0
 40
3.0
 40
3.0
 40
3.0
 40
4.0
 40
4.0
 40
4.0
 40
5.0
 40
5.0
 40
5.0
 40
6.0
 40
6.0
 40
6.0
 40
7.0
 40
7.0
 40
7.0
 40
8.0
 40
8.0
 40
8.0
 40
8.0
 10
68.138476562499989
 20
102.40270724826388
 30
0.0
 10
68.138476562499989
 20
101.85011393229166
 30
0.0
 10
67.690614149305546
 20
101.40259602864582
 30
0.0
 10
67.138709852430551
 20
101.40259602864582
 30
0.0
 10
67.138709852430551
 20
101.40259602864582
 30
0.0
 10
66.138254123263877
 20
101.40259602864582
 30
0.0
 10
66.138254123263877
 20
101.40259602864582
 30
0.0
 10
65.586349826388883
 20
101.40259602864582
 30
0.0
 10
65.13848741319444
 20
101.85011393229166
 30
0.0
 10
65.13848741319444
 20
102.40270724826388
 30
0.0
 10
65.13848741319444
 20
102.40270724826388
 30
0.0
 10
65.13848741319444
 20
104.40258517795138
 30
0.0
 10
65.13848741319444
 20
104.40258517795138
 30
0.0
 10
65.13848741319444
 20
104.95483398437499
 30
0.0
 10
65.586349826388883
 20
105.40269639756943
 30
0.0
 10
66.138254123263877
 20
105.40269639756943
 30
0.0
 10
66.138254123263877
 20
105.40269639756943
 30
0.0
 10
67.138709852430551
 20
105.40269639756943
 30
0.0
 10
67.138709852430551
 20
105.40269639756943
 30
0.0
 10
67.690614149305546
 20
105.40269639756943
 30
0.0
 10
68.138476562499989
 20
104.95483398437499
 30
0.0
 10
68.138476562499989
 20
104.40258517795138
 30
0.0
 10
68.138476562499989
 20
104.40258517795138
 30
0.0
 10
68.138476562499989
 20
102.40270724826388
 30
0.0
 10
68.138476562499989
 20
102.40270724826388
 30
0.0
  0
SPLINE
  5
33
100
AcDbEntity
  8
CALQUE_1
 62
     7
100
AcDbSpline
210
0.0
220
0.0
230
1.0
 70
     8
 71
     3
 72
    29
 73
    25
 74
     0
 42
0.00000001
 43
0.00000001
 40
0.0
 40
0.0
 40
0.0
 40
0.0
 40
1.0
 40
1.0
 40
1.0
 40
2.0
 40
2.0
 40
2.0
 40
3.0
 40
3.0
 40
3.0
 40
4.0
 40
4.0
 40
4.0
 40
5.0
 40
5.0
 40
5.0
 40
6.0
 40
6.0
 40
6.0
 40
7.0
 40
7.0
 40
7.0
 40
8.0
 40
8.0
 40
8.0
 40
8.0
 10
79.275781249999994
 20
102.40270724826388
 30
0.0
 10
79.275781249999994
 20
101.85011393229166
 30
0.0
 10
78.827918836805551
 20
101.40259602864582
 30
0.0
 10
78.276014539930543
 20
101.40259602864582
 30
0.0
 10
78.276014539930543
 20
101.40259602864582
 30
0.0
 10
77.275558810763883
 20
101.40259602864582
 30
0.0
 10
77.275558810763883
 20
101.40259602864582
 30
0.0
 10
76.723654513888889
 20
101.40259602864582
 30
0.0
 10
76.275792100694431
 20
101.85011393229166
 30
0.0
 10
76.275792100694431
 20
102.40270724826388
 30
0.0
 10
76.275792100694431
 20
102.40270724826388
 30
0.0
 10
76.275792100694431
 20
104.40258517795138
 30
0.0
 10
76.275792100694431
 20
104.40258517795138
 30
0.0
 10
76.275792100694431
 20
104.95483398437499
 30
0.0
 10
76.723654513888889
 20
105.40269639756943
 30
0.0
 10
77.275558810763883
 20
105.40269639756943
 30
0.0
 10
77.275558810763883
 20
105.40269639756943
 30
0.0
 10
78.276014539930543
 20
105.40269639756943
 30
0.0
 10
78.276014539930543
 20
105.40269639756943
 30
0.0
 10
78.827918836805551
 20
105.40269639756943
 30
0.0
 10
79.275781249999994
 20
104.95483398437499
 30
0.0
 10
79.275781249999994
 20
104.40258517795138
 30
0.0
 10
79.275781249999994
 20
104.40258517795138
 30
0.0
 10
79.275781249999994
 20
102.40270724826388
 30
0.0
 10
79.275781249999994
 20
102.40270724826388
 30
0.0
  0
SPLINE
  5
32
100
AcDbEntity
  8
CALQUE_1
 62
     7
100
AcDbSpline
210
0.0
220
0.0
230
1.0
 70
     8
 71
     3
 72
    29
 73
    25
 74
     0
 42
0.00000001
 43
0.00000001
 40
0.0
 40
0.0
 40
0.0
 40
0.0
 40
1.0
 40
1.0
 40
1.0
 40
2.0
 40
2.0
 40
2.0
 40
3.0
 40
3.0
 40
3.0
 40
4.0
 40
4.0
 40
4.0
 40
5.0
 40
5.0
 40
5.0
 40
6.0
 40
6.0
 40
6.0
 40
7.0
 40
7.0
 40
7.0
 40
8.0
 40
8.0
 40
8.0
 40
8.0
 10
90.413085937499986
 20
102.40270724826388
 30
0.0
 10
90.413085937499986
 20
101.85011393229166
 30
0.0
 10
89.965223524305543
 20
101.40259602864582
 30
0.0
 10
89.413319227430549
 20
101.40259602864582
 30
0.0
 10
89.413319227430549
 20
101.40259602864582
 30
0.0
 10
88.412863498263874
 20
101.40259602864582
 30
0.0
 10
88.412863498263874
 20
101.40259602864582
 30
0.0
 10
87.86095920138888
 20
101.40259602864582
 30
0.0
 10
87.413096788194437
 20
101.85011393229166
 30
0.0
 10
87.413096788194437
 20
102.40270724826388
 30
0.0
 10
87.413096788194437
 20
102.40270724826388
 30
0.0
 10
87.413096788194437
 20
104.40258517795138
 30
0.0
 10
87.413096788194437
 20
104.40258517795138
 30
0.0
 10
87.413096788194437
 20
104.95483398437499
 30
0.0
 10
87.86095920138888
 20
105.40269639756943
 30
0.0
 10
88.412863498263874
 20
105.40269639756943
 30
0.0
 10
88.412863498263874
 20
105.40269639756943
 30
0.0
 10
89.413319227430549
 20
105.40269639756943
 30
0.0
 10
89.413319227430549
 20
105.40269639756943
 30
0.0
 10
89.965223524305543
 20
105.40269639756943
 30
0.0
 10
90.413085937499986
 20
104.95483398437499
 30
0.0
 10
90.413085937499986
 20
104.40258517795138
 30
0.0
 10
90.413085937499986
 20
104.40258517795138
 30
0.0
 10
90.413085937499986
 20
102.40270724826388
 30
0.0
 10
90.413085937499986
 20
102.40270724826388
 30
0.0
  0
SPLINE
  5
31
100
AcDbEntity
  8
CALQUE_1
 62
     7
100
AcDbSpline
210
0.0
220
0.0
230
1.0
 70
     8
 71
     3
 72
    29
 73
    25
 74
     0
 42
0.00000001
 43
0.00000001
 40
0.0
 40
0.0
 40
0.0
 40
0.0
 40
1.0
 40
1.0
 40
1.0
 40
2.0
 40
2.0
 40
2.0
 40
3.0
 40
3.0
 40
3.0
 40
4.0
 40
4.0
 40
4.0
 40
5.0
 40
5.0
 40
5.0
 40
6.0
 40
6.0
 40
6.0
 40
7.0
 40
7.0
 40
7.0
 40
8.0
 40
8.0
 40
8.0
 40
8.0
 10
101.55039062499999
 20
102.40270724826388
 30
0.0
 10
101.55039062499999
 20
101.85011393229166
 30
0.0
 10
101.10252821180555
 20
101.40259602864582
 30
0.0
 10
100.55062391493054
 20
101.40259602864582
 30
0.0
 10
100.55062391493054
 20
101.40259602864582
 30
0.0
 10
99.55016818576388
 20
101.40259602864582
 30
0.0
 10
99.55016818576388
 20
101.40259602864582
 30
0.0
 10
98.998263888888886
 20
101.40259602864582
 30
0.0
 10
98.550401475694429
 20
101.85011393229166
 30
0.0
 10
98.550401475694429
 20
102.40270724826388
 30
0.0
 10
98.550401475694429
 20
102.40270724826388
 30
0.0
 10
98.550401475694429
 20
104.40258517795138
 30
0.0
 10
98.550401475694429
 20
104.40258517795138
 30
0.0
 10
98.550401475694429
 20
104.95483398437499
 30
0.0
 10
98.998263888888886
 20
105.40269639756943
 30
0.0
 10
99.55016818576388
 20
105.40269639756943
 30
0.0
 10
99.55016818576388
 20
105.40269639756943
 30
0.0
 10
100.55062391493054
 20
105.40269639756943
 30
0.0
 10
100.55062391493054
 20
105.40269639756943
 30
0.0
 10
101.10252821180555
 20
105.40269639756943
 30
0.0
 10
101.55039062499999
 20
104.95483398437499
 30
0.0
 10
101.55039062499999
 20
104.40258517795138
 30
0.0
 10
101.55039062499999
 20
104.40258517795138
 30
0.0
 10
101.55039062499999
 20
102.40270724826388
 30
0.0
 10
101.55039062499999
 20
102.40270724826388
 30
0.0
  0
SPLINE
  5
30
100
AcDbEntity
  8
CALQUE_1
 62
     7
100
AcDbSpline
210
0.0
220
0.0
230
1.0
 70
     8
 71
     3
 72
    29
 73
    25
 74
     0
 42
0.00000001
 43
0.00000001
 40
0.0
 40
0.0
 40
0.0
 40
0.0
 40
1.0
 40
1.0
 40
1.0
 40
2.0
 40
2.0
 40
2.0
 40
3.0
 40
3.0
 40
3.0
 40
4.0
 40
4.0
 40
4.0
 40
5.0
 40
5.0
 40
5.0
 40
6.0
 40
6.0
 40
6.0
 40
7.0
 40
7.0
 40
7.0
 40
8.0
 40
8.0
 40
8.0
 40
8.0
 10
112.68769531249998
 20
102.40270724826388
 30
0.0
 10
112.68769531249998
 20
101.85011393229166
 30
0.0
 10
112.23983289930554
 20
101.40259602864582
 30
0.0
 10
111.68792860243055
 20
101.40259602864582
 30
0.0
 10
111.68792860243055
 20
101.40259602864582
 30
0.0
 10
110.68747287326389
 20
101.40259602864582
 30
0.0
 10
110.68747287326389
 20
101.40259602864582
 30
0.0
 10
110.13556857638888
 20
101.40259602864582
 30
0.0
 10
109.68770616319443
 20
101.85011393229166
 30
0.0
 10
109.68770616319443
 20
102.40270724826388
 30
0.0
 10
109.68770616319443
 20
102.40270724826388
 30
0.0
 10
109.68770616319443
 20
104.40258517795138
 30
0.0
 10
109.68770616319443
 20
104.40258517795138
 30
0.0
 10
109.68770616319443
 20
104.95483398437499
 30
0.0
 10
110.13556857638888
 20
105.40269639756943
 30
0.0
 10
110.68747287326389
 20
105.40269639756943
 30
0.0
 10
110.68747287326389
 20
105.40269639756943
 30
0.0
 10
111.68792860243055
 20
105.40269639756943
 30
0.0
 10
111.68792860243055
 20
105.40269639756943
 30
0.0
 10
112.23983289930554
 20
105.40269639756943
 30
0.0
 10
112.68769531249998
 20
104.95483398437499
 30
0.0
 10
112.68769531249998
 20
104.40258517795138
 30
0.0
 10
112.68769531249998
 20
104.40258517795138
 30
0.0
 10
112.68769531249998
 20
102.40270724826388
 30
0.0
 10
112.68769531249998
 20
102.40270724826388
 30
0.0
  0
SPLINE
  5
2F
100
AcDbEntity
  8
CALQUE_1
 62
     7
100
AcDbSpline
210
0.0
220
0.0
230
1.0
 70
     8
 71
     3
 72
    29
 73
    25
 74
     0
 42
0.00000001
 43
0.00000001
 40
0.0
 40
0.0
 40
0.0
 40
0.0
 40
1.0
 40
1.0
 40
1.0
 40
2.0
 40
2.0
 40
2.0
 40
3.0
 40
3.0
 40
3.0
 40
4.0
 40
4.0
 40
4.0
 40
5.0
 40
5.0
 40
5.0
 40
6.0
 40
6.0
 40
6.0
 40
7.0
 40
7.0
 40
7.0
 40
8.0
 40
8.0
 40
8.0
 40
8.0
 10
123.82499999999999
 20
102.40270724826388
 30
0.0
 10
123.82499999999999
 20
101.85011393229166
 30
0.0
 10
123.37713758680555
 20
101.40259602864582
 30
0.0
 10
122.82523328993055
 20
101.40259602864582
 30
0.0
 10
122.82523328993055
 20
101.40259602864582
 30
0.0
 10
121.82477756076388
 20
101.40259602864582
 30
0.0
 10
121.82477756076388
 20
101.40259602864582
 30
0.0
 10
121.27287326388888
 20
101.40259602864582
 30
0.0
 10
120.82501085069444
 20
101.85011393229166
 30
0.0
 10
120.82501085069444
 20
102.40270724826388
 30
0.0
 10
120.82501085069444
 20
102.40270724826388
 30
0.0
 10
120.82501085069444
 20
104.40258517795138
 30
0.0
 10
120.82501085069444
 20
104.40258517795138
 30
0.0
 10
120.82501085069444
 20
104.95483398437499
 30
0.0
 10
121.27287326388888
 20
105.40269639756943
 30
0.0
 10
121.82477756076388
 20
105.40269639756943
 30
0.0
 10
121.82477756076388
 20
105.40269639756943
 30
0.0
 10
122.82523328993055
 20
105.40269639756943
 30
0.0
 10
122.82523328993055
 20
105.40269639756943
 30
0.0
 10
123.37713758680555
 20
105.40269639756943
 30
0.0
 10
123.82499999999999
 20
104.95483398437499
 30
0.0
 10
123.82499999999999
 20
104.40258517795138
 30
0.0
 10
123.82499999999999
 20
104.40258517795138
 30
0.0
 10
123.82499999999999
 20
102.40270724826388
 30
0.0
 10
123.82499999999999
 20
102.40270724826388
 30
0.0
  0
SPLINE
  5
2E
100
AcDbEntity
  8
CALQUE_1
 62
     7
100
AcDbSpline
210
0.0
220
0.0
230
1.0
 70
     8
 71
     3
 72
    29
 73
    25
 74
     0
 42
0.00000001
 43
0.00000001
 40
0.0
 40
0.0
 40
0.0
 40
0.0
 40
1.0
 40
1.0
 40
1.0
 40
2.0
 40
2.0
 40
2.0
 40
3.0
 40
3.0
 40
3.0
 40
4.0
 40
4.0
 40
4.0
 40
5.0
 40
5.0
 40
5.0
 40
6.0
 40
6.0
 40
6.0
 40
7.0
 40
7.0
 40
7.0
 40
8.0
 40
8.0
 40
8.0
 40
8.0
 10
134.96230468749999
 20
102.40270724826388
 30
0.0
 10
134.96230468749999
 20
101.85011393229166
 30
0.0
 10
134.51444227430554
 20
101.40259602864582
 30
0.0
 10
133.96253797743054
 20
101.40259602864582
 30
0.0
 10
133.96253797743054
 20
101.40259602864582
 30
0.0
 10
132.96208224826387
 20
101.40259602864582
 30
0.0
 10
132.96208224826387
 20
101.40259602864582
 30
0.0
 10
132.41017795138887
 20
101.40259602864582
 30
0.0
 10
131.96231553819445
 20
101.85011393229166
 30
0.0
 10
131.96231553819445
 20
102.40270724826388
 30
0.0
 10
131.96231553819445
 20
102.40270724826388
 30
0.0
 10
131.96231553819445
 20
104.40258517795138
 30
0.0
 10
131.96231553819445
 20
104.40258517795138
 30
0.0
 10
131.96231553819445
 20
104.95483398437499
 30
0.0
 10
132.41017795138887
 20
105.40269639756943
 30
0.0
 10
132.96208224826387
 20
105.40269639756943
 30
0.0
 10
132.96208224826387
 20
105.40269639756943
 30
0.0
 10
133.96253797743054
 20
105.40269639756943
 30
0.0
 10
133.96253797743054
 20
105.40269639756943
 30
0.0
 10
134.51444227430554
 20
105.40269639756943
 30
0.0
 10
134.96230468749999
 20
104.95483398437499
 30
0.0
 10
134.96230468749999
 20
104.40258517795138
 30
0.0
 10
134.96230468749999
 20
104.40258517795138
 30
0.0
 10
134.96230468749999
 20
102.40270724826388
 30
0.0
 10
134.96230468749999
 20
102.40270724826388
 30
0.0
  0
SPLINE
  5
2D
100
AcDbEntity
  8
CALQUE_1
 62
     7
100
AcDbSpline
210
0.0
220
0.0
230
1.0
 70
     8
 71
     3
 72
    29
 73
    25
 74
     0
 42
0.00000001
 43
0.00000001
 40
0.0
 40
0.0
 40
0.0
 40
0.0
 40
1.0
 40
1.0
 40
1.0
 40
2.0
 40
2.0
 40
2.0
 40
3.0
 40
3.0
 40
3.0
 40
4.0
 40
4.0
 40
4.0
 40
5.0
 40
5.0
 40
5.0
 40
6.0
 40
6.0
 40
6.0
 40
7.0
 40
7.0
 40
7.0
 40
8.0
 40
8.0
 40
8.0
 40
8.0
 10
146.099609375
 20
102.40270724826388
 30
0.0
 10
146.099609375
 20
101.85011393229166
 30
0.0
 10
145.65174696180554
 20
101.40259602864582
 30
0.0
 10
145.09984266493055
 20
101.40259602864582
 30
0.0
 10
145.09984266493055
 20
101.40259602864582
 30
0.0
 10
144.09938693576387
 20
101.40259602864582
 30
0.0
 10
144.09938693576387
 20
101.40259602864582
 30
0.0
 10
143.54748263888888
 20
101.40259602864582
 30
0.0
 10
143.09962022569442
 20
101.85011393229166
 30
0.0
 10
143.09962022569442
 20
102.40270724826388
 30
0.0
 10
143.09962022569442
 20
102.40270724826388
 30
0.0
 10
143.09962022569442
 20
104.40258517795138
 30
0.0
 10
143.09962022569442
 20
104.40258517795138
 30
0.0
 10
143.09962022569442
 20
104.95483398437499
 30
0.0
 10
143.54748263888888
 20
105.40269639756943
 30
0.0
 10
144.09938693576387
 20
105.40269639756943
 30
0.0
 10
144.09938693576387
 20
105.40269639756943
 30
0.0
 10
145.09984266493055
 20
105.40269639756943
 30
0.0
 10
145.09984266493055
 20
105.40269639756943
 30
0.0
 10
145.65174696180554
 20
105.40269639756943
 30
0.0
 10
146.099609375
 20
104.95483398437499
 30
0.0
 10
146.099609375
 20
104.40258517795138
 30
0.0
 10
146.099609375
 20
104.40258517795138
 30
0.0
 10
146.099609375
 20
102.40270724826388
 30
0.0
 10
146.099609375
 20
102.40270724826388
 30
0.0
  0
SPLINE
  5
2C
100
AcDbEntity
  8
CALQUE_1
 62
     7
100
AcDbSpline
210
0.0
220
0.0
230
1.0
 70
     8
 71
     3
 72
    29
 73
    25
 74
     0
 42
0.00000001
 43
0.00000001
 40
0.0
 40
0.0
 40
0.0
 40
0.0
 40
1.0
 40
1.0
 40
1.0
 40
2.0
 40
2.0
 40
2.0
 40
3.0
 40
3.0
 40
3.0
 40
4.0
 40
4.0
 40
4.0
 40
5.0
 40
5.0
 40
5.0
 40
6.0
 40
6.0
 40
6.0
 40
7.0
 40
7.0
 40
7.0
 40
8.0
 40
8.0
 40
8.0
 40
8.0
 10
157.23691406249998
 20
102.40270724826388
 30
0.0
 10
157.23691406249998
 20
101.85011393229166
 30
0.0
 10
156.78905164930555
 20
101.40259602864582
 30
0.0
 10
156.23714735243055
 20
101.40259602864582
 30
0.0
 10
156.23714735243055
 20
101.40259602864582
 30
0.0
 10
155.23669162326388
 20
101.40259602864582
 30
0.0
 10
155.23669162326388
 20
101.40259602864582
 30
0.0
 10
154.68478732638889
 20
101.40259602864582
 30
0.0
 10
154.23692491319443
 20
101.85011393229166
 30
0.0
 10
154.23692491319443
 20
102.40270724826388
 30
0.0
 10
154.23692491319443
 20
102.40270724826388
 30
0.0
 10
154.23692491319443
 20
104.40258517795138
 30
0.0
 10
154.23692491319443
 20
104.40258517795138
 30
0.0
 10
154.23692491319443
 20
104.95483398437499
 30
0.0
 10
154.68478732638889
 20
105.40269639756943
 30
0.0
 10
155.23669162326388
 20
105.40269639756943
 30
0.0
 10
155.23669162326388
 20
105.40269639756943
 30
0.0
 10
156.23714735243055
 20
105.40269639756943
 30
0.0
 10
156.23714735243055
 20
105.40269639756943
 30
0.0
 10
156.78905164930555
 20
105.40269639756943
 30
0.0
 10
157.23691406249998
 20
104.95483398437499
 30
0.0
 10
157.23691406249998
 20
104.40258517795138
 30
0.0
 10
157.23691406249998
 20
104.40258517795138
 30
0.0
 10
157.23691406249998
 20
102.40270724826388
 30
0.0
 10
157.23691406249998
 20
102.40270724826388
 30
0.0
  0
SPLINE
  5
2B
100
AcDbEntity
  8
CALQUE_1
 62
     7
100
AcDbSpline
210
0.0
220
0.0
230
1.0
 70
     8
 71
     3
 72
    29
 73
    25
 74
     0
 42
0.00000001
 43
0.00000001
 40
0.0
 40
0.0
 40
0.0
 40
0.0
 40
1.0
 40
1.0
 40
1.0
 40
2.0
 40
2.0
 40
2.0
 40
3.0
 40
3.0
 40
3.0
 40
4.0
 40
4.0
 40
4.0
 40
5.0
 40
5.0
 40
5.0
 40
6.0
 40
6.0
 40
6.0
 40
7.0
 40
7.0
 40
7.0
 40
8.0
 40
8.0
 40
8.0
 40
8.0
 10
168.37421874999998
 20
102.40270724826388
 30
0.0
 10
168.37421874999998
 20
101.85011393229166
 30
0.0
 10
167.92635633680555
 20
101.40259602864582
 30
0.0
 10
167.37445203993053
 20
101.40259602864582
 30
0.0
 10
167.37445203993053
 20
101.40259602864582
 30
0.0
 10
166.37399631076389
 20
101.40259602864582
 30
0.0
 10
166.37399631076389
 20
101.40259602864582
 30
0.0
 10
165.82209201388886
 20
101.40259602864582
 30
0.0
 10
165.37422960069443
 20
101.85011393229166
 30
0.0
 10
165.37422960069443
 20
102.40270724826388
 30
0.0
 10
165.37422960069443
 20
102.40270724826388
 30
0.0
 10
165.37422960069443
 20
104.40258517795138
 30
0.0
 10
165.37422960069443
 20
104.40258517795138
 30
0.0
 10
165.37422960069443
 20
104.95483398437499
 30
0.0
 10
165.82209201388886
 20
105.40269639756943
 30
0.0
 10
166.37399631076389
 20
105.40269639756943
 30
0.0
 10
166.37399631076389
 20
105.40269639756943
 30
0.0
 10
167.37445203993053
 20
105.40269639756943
 30
0.0
 10
167.37445203993053
 20
105.40269639756943
 30
0.0
 10
167.92635633680555
 20
105.40269639756943
 30
0.0
 10
168.37421874999998
 20
104.95483398437499
 30
0.0
 10
168.37421874999998
 20
104.40258517795138
 30
0.0
 10
168.37421874999998
 20
104.40258517795138
 30
0.0
 10
168.37421874999998
 20
102.40270724826388
 30
0.0
 10
168.37421874999998
 20
102.40270724826388
 30
0.0
  0
SPLINE
  5
2A
100
AcDbEntity
  8
CALQUE_1
 62
     7
100
AcDbSpline
210
0.0
220
0.0
230
1.0
 70
     8
 71
     3
 72
    29
 73
    25
 74
     0
 42
0.00000001
 43
0.00000001
 40
0.0
 40
0.0
 40
0.0
 40
0.0
 40
1.0
 40
1.0
 40
1.0
 40
2.0
 40
2.0
 40
2.0
 40
3.0
 40
3.0
 40
3.0
 40
4.0
 40
4.0
 40
4.0
 40
5.0
 40
5.0
 40
5.0
 40
6.0
 40
6.0
 40
6.0
 40
7.0
 40
7.0
 40
7.0
 40
8.0
 40
8.0
 40
8.0
 40
8.0
 10
179.51152343749999
 20
102.40270724826388
 30
0.0
 10
179.51152343749999
 20
101.85011393229166
 30
0.0
 10
179.06366102430553
 20
101.40259602864582
 30
0.0
 10
178.51175672743054
 20
101.40259602864582
 30
0.0
 10
178.51175672743054
 20
101.40259602864582
 30
0.0
 10
177.51130099826386
 20
101.40259602864582
 30
0.0
 10
177.51130099826386
 20
101.40259602864582
 30
0.0
 10
176.95939670138887
 20
101.40259602864582
 30
0.0
 10
176.51153428819444
 20
101.85011393229166
 30
0.0
 10
176.51153428819444
 20
102.40270724826388
 30
0.0
 10
176.51153428819444
 20
102.40270724826388
 30
0.0
 10
176.51153428819444
 20
104.40258517795138
 30
0.0
 10
176.51153428819444
 20
104.40258517795138
 30
0.0
 10
176.51153428819444
 20
104.95483398437499
 30
0.0
 10
176.95939670138887
 20
105.40269639756943
 30
0.0
 10
177.51130099826386
 20
105.40269639756943
 30
0.0
 10
177.51130099826386
 20
105.40269639756943
 30
0.0
 10
178.51175672743054
 20
105.40269639756943
 30
0.0
 10
178.51175672743054
 20
105.40269639756943
 30
0.0
 10
179.06366102430553
 20
105.40269639756943
 30
0.0
 10
179.51152343749999
 20
104.95483398437499
 30
0.0
 10
179.51152343749999
 20
104.40258517795138
 30
0.0
 10
179.51152343749999
 20
104.40258517795138
 30
0.0
 10
179.51152343749999
 20
102.40270724826388
 30
0.0
 10
179.51152343749999
 20
102.40270724826388
 30
0.0
  0
SPLINE
  5
29
100
AcDbEntity
  8
CALQUE_1
 62
     7
100
AcDbSpline
210
0.0
220
0.0
230
1.0
 70
     8
 71
     3
 72
    29
 73
    25
 74
     0
 42
0.00000001
 43
0.00000001
 40
0.0
 40
0.0
 40
0.0
 40
0.0
 40
1.0
 40
1.0
 40
1.0
 40
2.0
 40
2.0
 40
2.0
 40
3.0
 40
3.0
 40
3.0
 40
4.0
 40
4.0
 40
4.0
 40
5.0
 40
5.0
 40
5.0
 40
6.0
 40
6.0
 40
6.0
 40
7.0
 40
7.0
 40
7.0
 40
8.0
 40
8.0
 40
8.0
 40
8.0
 10
190.64882812499999
 20
102.40270724826388
 30
0.0
 10
190.64882812499999
 20
101.85011393229166
 30
0.0
 10
190.20096571180554
 20
101.40259602864582
 30
0.0
 10
189.64906141493054
 20
101.40259602864582
 30
0.0
 10
189.64906141493054
 20
101.40259602864582
 30
0.0
 10
188.64860568576387
 20
101.40259602864582
 30
0.0
 10
188.64860568576387
 20
101.40259602864582
 30
0.0
 10
188.09670138888887
 20
101.40259602864582
 30
0.0
 10
187.64883897569442
 20
101.85011393229166
 30
0.0
 10
187.64883897569442
 20
102.40270724826388
 30
0.0
 10
187.64883897569442
 20
102.40270724826388
 30
0.0
 10
187.64883897569442
 20
104.40258517795138
 30
0.0
 10
187.64883897569442
 20
104.40258517795138
 30
0.0
 10
187.64883897569442
 20
104.95483398437499
 30
0.0
 10
188.09670138888887
 20
105.40269639756943
 30
0.0
 10
188.64860568576387
 20
105.40269639756943
 30
0.0
 10
188.64860568576387
 20
105.40269639756943
 30
0.0
 10
189.64906141493054
 20
105.40269639756943
 30
0.0
 10
189.64906141493054
 20
105.40269639756943
 30
0.0
 10
190.20096571180554
 20
105.40269639756943
 30
0.0
 10
190.64882812499999
 20
104.95483398437499
 30
0.0
 10
190.64882812499999
 20
104.40258517795138
 30
0.0
 10
190.64882812499999
 20
104.40258517795138
 30
0.0
 10
190.64882812499999
 20
102.40270724826388
 30
0.0
 10
190.64882812499999
 20
102.40270724826388
 30
0.0
  0
ENDSEC
  0
SECTION
  2
OBJECTS
  0
DICTIONARY
  5
19
100
AcDbDictionary
280
     0
281
     1
  3
ACAD_GROUP
350
1A
  3
ACAD_MLINESTYLE
350
1B
  3
ACAD_LAYOUT
350
1E
  3
ACAD_PLOTSETTINGS
350
22
  3
ACAD_PLOTSTYLENAME
350
1F
  3
ACAD_WIPEOUT_VARS
350
23
  0
DICTIONARY
  5
1A
102
{ACAD_REACTORS
330
19
102
}
100
AcDbDictionary
280
     0
281
     1
  0
DICTIONARY
  5
1B
102
{ACAD_REACTORS
330
19
102
}
100
AcDbDictionary
280
     0
281
     1
  3
Standard
350
1C
  0
MLINESTYLE
  5
1C
102
{ACAD_REACTORS
330
1B
102
}
100
AcDbMlineStyle
  2
Standard
 70
     0
  3

 62
     0
 51
90.0
 52
90.0
 71
     2
 49
0.5
 62
   256
  6
ByLayer
 49
-0.5
 62
   256
  6
ByLayer
  0
ACDBDICTIONARYWDFLT
  5
1F
102
{ACAD_REACTORS
330
19
102
}
100
AcDbDictionary
281
     1
  3
Normal
350
1D
100
AcDbDictionaryWithDefault
340
1D
  0
ACDBPLACEHOLDER
  5
1D
102
{ACAD_REACTORS
330
1F
102
}
  0
LAYOUT
  5
20
102
{ACAD_REACTORS
330
1E
102
}
100
AcDbPlotSettings
  1

  2

  4

  6

 40
0.0
 41
0.0
 42
0.0
 43
0.0
 44
0.0
 45
0.0
 46
0.0
 47
0.0
 48
0.0
 49
0.0
140
0.0
141
0.0
142
1.0
143
1.0
 70
  1024
 72
     0
 73
     0
 74
     0
  7

 75
     0
147
1.0
148
0.0
149
0.0
100
AcDbLayout
  1
Model
 70
     0
 71
     0
 10
0.0
 20
0.0
 11
0.0
 21
0.0
 12
0.0
 22
0.0
 32
0.0
 14
0.0
 24
0.0
 34
0.0
 15
0.0
 25
0.0
 35
0.0
146
0.0
 13
0.0
 23
0.0
 33
0.0
 16
0.0
 26
0.0
 36
0.0
 17
0.0
 27
0.0
 37
0.0
 76
     0
330
A
331
0
345
0
346
0
  0
LAYOUT
  5
21
102
{ACAD_REACTORS
330
1E
102
}
100
AcDbPlotSettings
  1

  2

  4

  6

 40
0.0
 41
0.0
 42
0.0
 43
0.0
 44
0.0
 45
0.0
 46
0.0
 47
0.0
 48
0.0
 49
0.0
140
0.0
141
0.0
142
1.0
143
1.0
 70
     0
 72
     0
 73
     0
 74
     0
  7

 75
     0
147
1.0
148
0.0
149
0.0
100
AcDbLayout
  1
Layout1
 70
     0
 71
     0
 10
0.0
 20
0.0
 11
0.0
 21
0.0
 12
0.0
 22
0.0
 32
0.0
 14
0.0
 24
0.0
 34
0.0
 15
0.0
 25
0.0
 35
0.0
146
0.0
 13
0.0
 23
0.0
 33
0.0
 16
0.0
 26
0.0
 36
0.0
 17
0.0
 27
0.0
 37
0.0
 76
     0
330
B
331
0
345
0
346
0
  0
DICTIONARY
  5
1E
102
{ACAD_REACTORS
330
19
102
}
100
AcDbDictionary
280
     0
281
     1
  3
Layout1
350
21
  3
Model
350
20
  0
DICTIONARY
  5
22
102
{ACAD_REACTORS
330
19
102
}
100
AcDbDictionary
280
     0
281
     1
  0
WIPEOUTVARIABLES
  5
23
100
AcDbWipeoutVariables
 70
     1
  0
ENDSEC
  0
EOF
