  0
SECTION
  2
HEADER
  9
$ACADVER
  1
AC1015
  9
$ACADMAINTVER
 70
     6
  9
$DWGCODEPAGE
  3
ANSI_932
  9
$INSBASE
 10
0.0
 20
0.0
 30
0.0
  9
$EXTMIN
 10
12.399071
 20
13.671172
 30
1.000000E+20
  9
$EXTMAX
 10
188.090845
 20
286.166857
 30
-1.000000E+20
  9
$LIMMIN
 10
12.399071
 20
13.671172
  9
$LIMMAX
 10
188.090845
 20
286.166857
  9
$ORTHOMODE
 70
     0
  9
$REGENMODE
 70
     1
  9
$FILLMODE
 70
     1
  9
$QTEXTMODE
 70
     0
  9
$MIRRTEXT
 70
     1
  9
$LTSCALE
 40
1.0
  9
$ATTMODE
 70
     1
  9
$TEXTSIZE
 40
0.2
  9
$TRACEWID
 40
0.05
  9
$TEXTSTYLE
  7
Standard
  9
$CLAYER
  8
0
  9
$CELTYPE
  6
Continuous
  9
$CECOLOR
 62
   256
  9
$CELTSCALE
 40
1.0
  9
$DISPSILH
 70
     0
  9
$DIMSCALE
 40
1.0
  9
$DIMASZ
 40
0.18
  9
$DIMEXO
 40
0.0625
  9
$DIMDLI
 40
0.38
  9
$DIMRND
 40
0.0
  9
$DIMDLE
 40
0.0
  9
$DIMEXE
 40
0.18
  9
$DIMTP
 40
0.0
  9
$DIMTM
 40
0.0
  9
$DIMTXT
 40
0.18
  9
$DIMCEN
 40
0.09
  9
$DIMTSZ
 40
0.0
  9
$DIMTOL
 70
     0
  9
$DIMLIM
 70
     0
  9
$DIMTIH
 70
     1
  9
$DIMTOH
 70
     1
  9
$DIMSE1
 70
     0
  9
$DIMSE2
 70
     0
  9
$DIMTAD
 70
     0
  9
$DIMZIN
 70
     0
  9
$DIMBLK
  1

  9
$DIMASO
 70
     1
  9
$DIMSHO
 70
     1
  9
$DIMPOST
  1

  9
$DIMAPOST
  1

  9
$DIMALT
 70
     0
  9
$DIMALTD
 70
     2
  9
$DIMALTF
 40
25.4
  9
$DIMLFAC
 40
1.0
  9
$DIMTOFL
 70
     0
  9
$DIMTVP
 40
0.0
  9
$DIMTIX
 70
     0
  9
$DIMSOXD
 70
     0
  9
$DIMSAH
 70
     0
  9
$DIMBLK1
  1

  9
$DIMBLK2
  1

  9
$DIMSTYLE
  2
Standard
  9
$DIMCLRD
 70
     0
  9
$DIMCLRE
 70
     0
  9
$DIMCLRT
 70
     0
  9
$DIMTFAC
 40
1.0
  9
$DIMGAP
 40
0.09
  9
$DIMJUST
 70
     0
  9
$DIMSD1
 70
     0
  9
$DIMSD2
 70
     0
  9
$DIMTOLJ
 70
     1
  9
$DIMTZIN
 70
     0
  9
$DIMALTZ
 70
     0
  9
$DIMALTTZ
 70
     0
  9
$DIMUPT
 70
     0
  9
$DIMDEC
 70
     4
  9
$DIMTDEC
 70
     4
  9
$DIMALTU
 70
     2
  9
$DIMALTTD
 70
     2
  9
$DIMTXSTY
  7
Standard
  9
$DIMAUNIT
 70
     0
  9
$DIMADEC
 70
     0
  9
$DIMALTRND
 40
0.0
  9
$DIMAZIN
 70
     0
  9
$DIMDSEP
 70
     0
  9
$DIMATFIT
 70
     3
  9
$DIMFRAC
 70
     0
  9
$DIMLDRBLK
  1

  9
$DIMLUNIT
 70
     2
  9
$DIMLWD
 70
     0
  9
$DIMLWE
 70
     0
  9
$DIMTMOVE
 70
     0
  9
$LUNITS
 70
     2
  9
$LUPREC
 70
     4
  9
$SKETCHINC
 40
0.1
  9
$FILLETRAD
 40
0.0
  9
$AUNITS
 70
     0
  9
$AUPREC
 70
     0
  9
$MENU
  1
acad
  9
$ELEVATION
 40
0.0
  9
$PELEVATION
 40
0.0
  9
$THICKNESS
 40
0.0
  9
$LIMCHECK
 70
     0
  9
$CHAMFERA
 40
0.0
  9
$CHAMFERB
 40
0.0
  9
$CHAMFERC
 40
0.0
  9
$CHAMFERD
 40
0.0
  9
$SKPOLY
 70
     0
  9
$TDCREATE
 40
0.000000000
  9
$TDUCREATE
 40
0.000000000
  9
$TDUPDATE
 40
0.000000000
  9
$TDUUPDATE
 40
0.000000000
  9
$TDINDWG
 40
0.0000000000
  9
$TDUSRTIMER
 40
0.0000000000
  9
$USRTIMER
 70
     1
  9
$ANGBASE
 50
0.0
  9
$ANGDIR
 70
     0
  9
$PDMODE
 70
     0
  9
$PDSIZE
 40
0.0
  9
$PLINEWID
 40
0.0
  9
$SPLFRAME
 70
     0
  9
$SPLINETYPE
 70
     6
  9
$SPLINESEGS
 70
     8
  9
$HANDSEED
  5
3B1
  9
$SURFTAB1
 70
     6
  9
$SURFTAB2
 70
     6
  9
$SURFTYPE
 70
     6
  9
$SURFU
 70
     6
  9
$SURFV
 70
     6
  9
$UCSBASE
  2

  9
$UCSNAME
  2

  9
$UCSORG
 10
0.0
 20
0.0
 30
0.0
  9
$UCSXDIR
 10
1.0
 20
0.0
 30
0.0
  9
$UCSYDIR
 10
0.0
 20
1.0
 30
0.0
  9
$UCSORTHOREF
  2

  9
$UCSORTHOVIEW
 70
     0
  9
$UCSORGTOP
 10
0.0
 20
0.0
 30
0.0
  9
$UCSORGBOTTOM
 10
0.0
 20
0.0
 30
0.0
  9
$UCSORGLEFT
 10
0.0
 20
0.0
 30
0.0
  9
$UCSORGRIGHT
 10
0.0
 20
0.0
 30
0.0
  9
$UCSORGFRONT
 10
0.0
 20
0.0
 30
0.0
  9
$UCSORGBACK
 10
0.0
 20
0.0
 30
0.0
  9
$PUCSBASE
  2

  9
$PUCSNAME
  2

  9
$PUCSORG
 10
0.0
 20
0.0
 30
0.0
  9
$PUCSXDIR
 10
1.0
 20
0.0
 30
0.0
  9
$PUCSYDIR
 10
0.0
 20
1.0
 30
0.0
  9
$PUCSORTHOREF
  2

  9
$PUCSORTHOVIEW
 70
     0
  9
$PUCSORGTOP
 10
0.0
 20
0.0
 30
0.0
  9
$PUCSORGBOTTOM
 10
0.0
 20
0.0
 30
0.0
  9
$PUCSORGLEFT
 10
0.0
 20
0.0
 30
0.0
  9
$PUCSORGRIGHT
 10
0.0
 20
0.0
 30
0.0
  9
$PUCSORGFRONT
 10
0.0
 20
0.0
 30
0.0
  9
$PUCSORGBACK
 10
0.0
 20
0.0
 30
0.0
  9
$USERI1
 70
     0
  9
$USERI2
 70
     0
  9
$USERI3
 70
     0
  9
$USERI4
 70
     0
  9
$USERI5
 70
     0
  9
$USERR1
 40
0.0
  9
$USERR2
 40
0.0
  9
$USERR3
 40
0.0
  9
$USERR4
 40
0.0
  9
$USERR5
 40
0.0
  9
$WORLDVIEW
 70
     1
  9
$SHADEDGE
 70
     3
  9
$SHADEDIF
 70
    70
  9
$TILEMODE
 70
     1
  9
$MAXACTVP
 70
    16
  9
$PINSBASE
 10
0.0
 20
0.0
 30
0.0
  9
$PLIMCHECK
 70
     0
  9
$PEXTMIN
 10
1.000000E+20
 20
1.000000E+20
 30
1.000000E+20
  9
$PEXTMAX
 10
-1.000000E+20
 20
-1.000000E+20
 30
-1.000000E+20
  9
$PLIMMIN
 10
0.0
 20
0.0
  9
$PLIMMAX
 10
12.0
 20
9.0
  9
$UNITMODE
 70
     0
  9
$VISRETAIN
 70
     0
  9
$PLINEGEN
 70
     1
  9
$PSLTSCALE
 70
     0
  9
$TREEDEPTH
 70
  3020
  9
$CMLSTYLE
  2
Standard
  9
$CMLJUST
 70
     0
  9
$CMLSCALE
 40
1.0
  9
$PROXYGRAPHICS
 70
     0
  9
$MEASUREMENT
 70
     1
  9
$CELWEIGHT
370
     0
  9
$ENDCAPS
280
     0
  9
$JOINSTYLE
280
     0
  9
$LWDISPLAY
290
     0
  9
$INSUNITS
 70
     0
  9
$HYPERLINKBASE
  1

  9
$STYLESHEET
  1

  9
$XEDIT
290
     1
  9
$CEPSNTYPE
380
     0
  9
$PSTYLEMODE
290
     1
  9
$FINGERPRINTGUID
  2

  9
$VERSIONGUID
  2

  9
$EXTNAMES
290
     1
  9
$PSVPSCALE
 40
0.0
  0
ENDSEC
  0
SECTION
  2
CLASSES
  0
CLASS
  1
LWPOLYLINE
  2
AcDbPolyline
  3
AutoCAD 2000
 90
    32768
280
     0
281
     1
  0
CLASS
  1
IMAGE
  2
AcDbRasterImage
  3
ISM
 90
    32895
280
     0
281
     1
  0
CLASS
  1
OLE2FRAME
  2
AcDbOle2Frame
  3
AutoCAD 2000
 90
    32768
280
     0
281
     1
  0
CLASS
  1
HATCH
  2
AcDbHatch
  3
AutoCAD 2000
 90
    32768
280
     0
281
     1
  0
CLASS
  1
DICTIONARYVAR
  2
AcDbDictionaryVar
  3
AutoCAD 2000
 90
    32768
280
     0
281
     0
  0
CLASS
  1
RASTERVARIABLES
  2
AcDbRasterVariables
  3
ISM
 90
    32768
280
     0
281
     0
  0
CLASS
  1
IMAGEDEF
  2
AcDbRasterImageDef
  3
ISM
 90
    32768
280
     0
281
     0
  0
CLASS
  1
IMAGEDEF_REACTOR
  2
AcDbRasterImageDefReactor
  3
ISM
 90
    32769
280
     0
281
     0
  0
CLASS
  1
IDBUFFER
  2
AcDbIdBuffer
  3
AutoCAD 2000
 90
    32768
280
     0
281
     0
  0
CLASS
  1
SPATIAL_FILTER
  2
AcDbSpatialFilter
  3
AutoCAD 2000
 90
    32768
280
     0
281
     0
  0
CLASS
  1
XRECORD
  2
AcDbXrecord
  3
AutoCAD 2000
 90
    32768
280
     0
281
     0
  0
CLASS
  1
SORTENTSTABLE
  2
AcDbSortentsTable
  3
AutoCAD 2000
 90
    32768
280
     0
281
     0
  0
CLASS
  1
LAYER_INDEX
  2
AcDbLayerIndex
  3
AutoCAD 2000
 90
    32768
280
     0
281
     0
  0
CLASS
  1
SPATIAL_INDEX
  2
AcDbSpatialIndex
  3
AutoCAD 2000
 90
    32768
280
     0
281
     0
  0
CLASS
  1
OBJECT_PTR
  2
CAseDLPNTableRecord
  3
"ASE-LPNTableRecord"
 90
    32769
280
     0
281
     0
  0
CLASS
  1
LAYOUT
  2
AcDbLayout
  3
AutoCAD 2000
 90
        0
280
     0
281
     0
  0
CLASS
  1
PLOTSETTINGS
  2
AcDbPlotSettings
  3
AutoCAD 2000
 90
    32768
280
     0
281
     0
  0
CLASS
  1
ACDBDICTIONARYWDFLT
  2
AcDbDictionaryWithDefault
  3
AutoCAD 2000
 90
        0
280
     0
281
     0
  0
CLASS
  1
ACDBPLACEHOLDER
  2
AcDbPlaceHolder
  3
AutoCAD 2000
 90
        0
280
     0
281
     0
  0
CLASS
  1
VBA_PROJECT
  2
AcDbVbaProject
  3
acadvba
 90
    32768
280
     0
281
     0
  0
CLASS
  1
WIPEOUT
  2
AcDbWipeout
  3
WipeOut|AutoCAD Express Tool|expresstools@autodesk.com
 90
    32895
280
     0
281
     1
  0
CLASS
  1
WIPEOUTVARIABLES
  2
AcDbWipeoutVariables
  3
WipeOut|AutoCAD Express Tool|expresstools@autodesk.com
 90
        0
280
     0
281
     0
  0
CLASS
  1
RTEXT
  2
RText
  3
RText|AutoCAD Express Tool|expresstools@autodesk.com
 90
    32768
280
     0
281
     1
  0
CLASS
  1
ARCALIGNEDTEXT
  2
AcDbArcAlignedText
  3
ATEXT|AutoCAD Express Tool|expresstools@autodesk.com
 90
    32768
280
     0
281
     1
  0
ENDSEC
  0
SECTION
  2
TABLES
  0
TABLE
  2
VPORT
  5
7
100
AcDbSymbolTable
 70
     1
  0
VPORT
  5
15
100
AcDbSymbolTableRecord
100
AcDbViewportTableRecord
  2
*ACTIVE
 70
     0
 10
0.0
 20
0.0
 11
1.0
 21
1.0
 12
6.591288
 22
4.579184
 13
0.0
 23
0.0
 14
1.0
 24
1.0
 15
0.0
 25
0.0
 16
0.0
 26
0.0
 36
1.0
 17
0.0
 27
0.0
 37
0.0
 40
9.158369
 41
0.688564
 42
50.0
 43
0.0
 44
0.0
 50
0.0
 51
0.0
 71
     0
 72
   100
 73
     1
 74
     1
 75
     0
 76
     0
 77
     0
 78
     0
281
     0
 65
     0
110
0.0
120
0.0
130
0.0
111
1.0
121
0.0
131
0.0
112
0.0
122
1.0
132
0.0
345
0
346
0
 79
     0
146
0.0
  0
ENDTAB
  0
TABLE
  2
LTYPE
  5
4
100
AcDbSymbolTable
 70
     3
  0
LTYPE
  5
11
100
AcDbSymbolTableRecord
100
AcDbLinetypeTableRecord
  2
ByBlock
 70
    64
  3

 72
    65
 73
     0
 40
0.0
  0
LTYPE
  5
12
100
AcDbSymbolTableRecord
100
AcDbLinetypeTableRecord
  2
ByLayer
 70
    64
  3

 72
    65
 73
     0
 40
0.0
  0
LTYPE
  5
13
100
AcDbSymbolTableRecord
100
AcDbLinetypeTableRecord
  2
Continuous
 70
    64
  3
Solid line
 72
    65
 73
     0
 40
0.0
  0
ENDTAB
  0
TABLE
  2
LAYER
  5
2
100
AcDbSymbolTable
 70
     2
  0
LAYER
  5
14
100
AcDbSymbolTableRecord
100
AcDbLayerTableRecord
  2
0
 70
     0
 62
     7
  6
Continuous
290
     1
370
    -3
390
1D
  0
LAYER
  5
28
100
AcDbSymbolTableRecord
100
AcDbLayerTableRecord
  2
CALQUE_1
 70
     0
 62
   160
  6
Continuous
290
     1
370
    -3
390
1D
  0
ENDTAB
  0
TABLE
  2
STYLE
  5
3
100
AcDbSymbolTable
 70
     5
  0
STYLE
  5
17
100
AcDbSymbolTableRecord
100
AcDbTextStyleTableRecord
  2
Standard
 70
     0
 40
0.0
 41
1.0
 50
0.0
 71
     0
 42
0.0
  3
txt
  4

  0
STYLE
  5
24
100
AcDbSymbolTableRecord
100
AcDbTextStyleTableRecord
  2
STD
 70
     0
 40
0.0
 41
1.0
 50
0.0
 71
     0
 42
0.0
  3
txt
  4

  0
STYLE
  5
25
100
AcDbSymbolTableRecord
100
AcDbTextStyleTableRecord
  2
TATESTD
 70
     4
 40
0.0
 41
1.0
 50
0.0
 71
     0
 42
0.0
  3
txt
  4

  0
STYLE
  5
26
100
AcDbSymbolTableRecord
100
AcDbTextStyleTableRecord
  2
KANJISTD
 70
     0
 40
0.0
 41
1.0
 50
0.0
 71
     0
 42
0.0
  3
txt
  4
extfont
  0
STYLE
  5
27
100
AcDbSymbolTableRecord
100
AcDbTextStyleTableRecord
  2
KANJITATE
 70
     4
 40
0.0
 41
1.0
 50
0.0
 71
     0
 42
0.0
  3
txt
  4
extfont
  0
ENDTAB
  0
TABLE
  2
VIEW
  5
5
100
AcDbSymbolTable
 70
     0
  0
ENDTAB
  0
TABLE
  2
UCS
  5
6
100
AcDbSymbolTable
 70
     0
  0
ENDTAB
  0
TABLE
  2
APPID
  5
8
100
AcDbSymbolTable
 70
     1
  0
APPID
  5
16
100
AcDbSymbolTableRecord
100
AcDbRegAppTableRecord
  2
ACAD
 70
     0
  0
ENDTAB
  0
TABLE
  2
DIMSTYLE
  5
9
100
AcDbSymbolTable
 70
     1
100
AcDbDimStyleTable
 71
     0
  0
DIMSTYLE
105
18
100
AcDbSymbolTableRecord
100
AcDbDimStyleTableRecord
  2
Standard
 70
     0
  3

  4

 40
1.0
 41
0.18
 42
0.0625
 43
0.38
 44
0.18
 45
0.0
 46
0.0
 47
0.0
 48
0.0
 71
     0
 72
     0
 73
     1
 74
     1
 75
     0
 76
     0
 77
     0
 78
     0
 79
     0
140
0.18
141
0.09
142
0.0
143
25.4
144
1.0
145
0.0
146
1.0
147
0.09
148
0.0
170
     0
171
     2
172
     0
173
     0
174
     0
175
     0
176
     0
177
     0
178
     0
179
     0
271
     4
272
     4
273
     2
274
     2
275
     0
276
     0
277
     2
278
    46
279
     0
280
     0
281
     0
282
     0
283
     1
284
     0
285
     0
286
     0
288
     0
340
17
341
0
342
0
343
0
344
0
371
    -2
372
    -2
  0
ENDTAB
  0
TABLE
  2
BLOCK_RECORD
  5
1
100
AcDbSymbolTable
 70
     0
  0
BLOCK_RECORD
  5
A
100
AcDbSymbolTableRecord
100
AcDbBlockTableRecord
  2
*MODEL_SPACE
340
20
  0
BLOCK_RECORD
  5
B
100
AcDbSymbolTableRecord
100
AcDbBlockTableRecord
  2
*PAPER_SPACE
340
21
  0
ENDTAB
  0
ENDSEC
  0
SECTION
  2
BLOCKS
  0
BLOCK
  5
D
100
AcDbEntity
  8
0
100
AcDbBlockBegin
  2
*MODEL_SPACE
 70
     0
 10
0.0
 20
0.0
 30
0.0
  3
*MODEL_SPACE
  1

  0
ENDBLK
  5
E
100
AcDbEntity
  8
0
100
AcDbBlockEnd
  0
BLOCK
  5
F
100
AcDbEntity
 67
     1
  8
0
100
AcDbBlockBegin
  2
*PAPER_SPACE
 70
     0
 10
0.0
 20
0.0
 30
0.0
  3
*PAPER_SPACE
  1

  0
ENDBLK
  5
10
100
AcDbEntity
 67
     1
  8
0
100
AcDbBlockEnd
  0
ENDSEC
  0
SECTION
  2
ENTITIES
  0
POLYLINE
  5
3A7
100
AcDbEntity
  8
CALQUE_1
 62
     7
100
AcDb2dPolyline
 66
     1
 10
0.0
 20
0.0
 30
0.0
 70
     1
  0
VERTEX
  5
3A8
100
AcDbEntity
  8
CALQUE_1
 62
     7
100
AcDbVertex
100
AcDb2dVertex
 10
169.828738
 20
124.081315
 30
0.0
  0
VERTEX
  5
3A9
100
AcDbEntity
  8
CALQUE_1
 62
     7
100
AcDbVertex
100
AcDb2dVertex
 10
169.828738
 20
117.859473
 30
0.0
  0
VERTEX
  5
3AA
100
AcDbEntity
  8
CALQUE_1
 62
     7
100
AcDbVertex
100
AcDb2dVertex
 10
167.940826
 20
116.644043
 30
0.0
  0
VERTEX
  5
3AB
100
AcDbEntity
  8
CALQUE_1
 62
     7
100
AcDbVertex
100
AcDb2dVertex
 10
167.940826
 20
108.107096
 30
0.0
  0
VERTEX
  5
3AC
100
AcDbEntity
  8
CALQUE_1
 62
     7
100
AcDbVertex
100
AcDb2dVertex
 10
169.828738
 20
106.862728
 30
0.0
  0
VERTEX
  5
3AD
100
AcDbEntity
  8
CALQUE_1
 62
     7
100
AcDbVertex
100
AcDb2dVertex
 10
169.828738
 20
100.640885
 30
0.0
  0
VERTEX
  5
3AE
100
AcDbEntity
  8
CALQUE_1
 62
     7
100
AcDbVertex
100
AcDb2dVertex
 10
159.190283
 20
108.584587
 30
0.0
  0
VERTEX
  5
3AF
100
AcDbEntity
  8
CALQUE_1
 62
     7
100
AcDbVertex
100
AcDb2dVertex
 10
159.190283
 20
116.137614
 30
0.0
  0
SEQEND
  5
3B0
100
AcDbEntity
  8
CALQUE_1
 62
     7
  0
POLYLINE
  5
3A2
100
AcDbEntity
  8
CALQUE_1
 62
     7
100
AcDb2dPolyline
 66
     1
 10
0.0
 20
0.0
 30
0.0
 70
     1
  0
VERTEX
  5
3A3
100
AcDbEntity
  8
CALQUE_1
 62
     7
100
AcDbVertex
100
AcDb2dVertex
 10
165.894439
 20
115.370736
 30
0.0
  0
VERTEX
  5
3A4
100
AcDbEntity
  8
CALQUE_1
 62
     7
100
AcDbVertex
100
AcDb2dVertex
 10
161.374474
 20
112.404508
 30
0.0
  0
VERTEX
  5
3A5
100
AcDbEntity
  8
CALQUE_1
 62
     7
100
AcDbVertex
100
AcDb2dVertex
 10
165.894439
 20
109.409342
 30
0.0
  0
SEQEND
  5
3A6
100
AcDbEntity
  8
CALQUE_1
 62
     7
  0
POLYLINE
  5
39C
100
AcDbEntity
  8
CALQUE_1
 62
     7
100
AcDb2dPolyline
 66
     1
 10
0.0
 20
0.0
 30
0.0
 70
     1
  0
VERTEX
  5
39D
100
AcDbEntity
  8
CALQUE_1
 62
     7
100
AcDbVertex
100
AcDb2dVertex
 10
169.828738
 20
131.619873
 30
0.0
  0
VERTEX
  5
39E
100
AcDbEntity
  8
CALQUE_1
 62
     7
100
AcDbVertex
100
AcDb2dVertex
 10
169.828738
 20
125.817643
 30
0.0
  0
VERTEX
  5
39F
100
AcDbEntity
  8
CALQUE_1
 62
     7
100
AcDbVertex
100
AcDb2dVertex
 10
159.190283
 20
125.817643
 30
0.0
  0
VERTEX
  5
3A0
100
AcDbEntity
  8
CALQUE_1
 62
     7
100
AcDbVertex
100
AcDb2dVertex
 10
159.190283
 20
131.619873
 30
0.0
  0
SEQEND
  5
3A1
100
AcDbEntity
  8
CALQUE_1
 62
     7
  0
SPLINE
  5
39B
100
AcDbEntity
  8
CALQUE_1
 62
     7
100
AcDbSpline
210
0.0
220
0.0
230
1.0
 70
     8
 71
     3
 72
    38
 73
    34
 74
     0
 42
0.00000001
 43
0.00000001
 40
0.0
 40
0.0
 40
0.0
 40
0.0
 40
1.0
 40
1.0
 40
1.0
 40
2.0
 40
2.0
 40
2.0
 40
3.0
 40
3.0
 40
3.0
 40
4.0
 40
4.0
 40
4.0
 40
5.0
 40
5.0
 40
5.0
 40
6.0
 40
6.0
 40
6.0
 40
7.0
 40
7.0
 40
7.0
 40
8.0
 40
8.0
 40
8.0
 40
9.0
 40
9.0
 40
9.0
 40
10.0
 40
10.0
 40
10.0
 40
11.0
 40
11.0
 40
11.0
 40
11.0
 10
169.82873806423609
 20
153.84487304687499
 30
0.0
 10
169.82873806423609
 20
153.84487304687499
 30
0.0
 10
169.82873806423609
 20
147.00084635416664
 30
0.0
 10
169.82873806423609
 20
147.00084635416664
 30
0.0
 10
169.82873806423609
 20
147.00084635416664
 30
0.0
 10
165.69462348090275
 20
141.87867838541666
 30
0.0
 10
165.69462348090275
 20
141.87867838541666
 30
0.0
 10
165.69462348090275
 20
141.87867838541666
 30
0.0
 10
169.82873806423609
 20
141.87867838541666
 30
0.0
 10
169.82873806423609
 20
141.87867838541666
 30
0.0
 10
169.82873806423609
 20
141.87867838541666
 30
0.0
 10
169.82873806423609
 20
136.06197916666665
 30
0.0
 10
169.82873806423609
 20
136.06197916666665
 30
0.0
 10
169.82873806423609
 20
136.06197916666665
 30
0.0
 10
159.19028320312498
 20
136.06197916666665
 30
0.0
 10
159.19028320312498
 20
136.06197916666665
 30
0.0
 10
159.19028320312498
 20
136.06197916666665
 30
0.0
 10
159.19028320312498
 20
142.87706705729164
 30
0.0
 10
159.19028320312498
 20
142.87706705729164
 30
0.0
 10
159.19028320312498
 20
146.50406358506942
 30
0.0
 10
159.46037868923611
 20
149.05067816840275
 30
0.0
 10
159.99988064236109
 20
150.51691080729165
 30
0.0
 10
160.5397271050347
 20
151.98314344618055
 30
0.0
 10
161.39307725694442
 20
152.71625976562498
 30
0.0
 10
162.55958658854166
 20
152.71625976562498
 30
0.0
 10
163.37745225694442
 20
152.71625976562498
 30
0.0
 10
164.04442274305555
 20
152.2918240017361
 30
0.0
 10
164.56118706597221
 20
151.44295247395831
 30
0.0
 10
165.07795138888886
 20
150.59408094618055
 30
0.0
 10
165.41901584201386
 20
149.35935872395831
 30
0.0
 10
165.58438042534721
 20
147.73878580729166
 30
0.0
 10
165.58438042534721
 20
147.73878580729166
 30
0.0
 10
169.82873806423609
 20
153.84487304687499
 30
0.0
 10
169.82873806423609
 20
153.84487304687499
 30
0.0
  0
SPLINE
  5
39A
100
AcDbEntity
  8
CALQUE_1
 62
     7
100
AcDbSpline
210
0.0
220
0.0
230
1.0
 70
     8
 71
     3
 72
    26
 73
    22
 74
     0
 42
0.00000001
 43
0.00000001
 40
0.0
 40
0.0
 40
0.0
 40
0.0
 40
1.0
 40
1.0
 40
1.0
 40
2.0
 40
2.0
 40
2.0
 40
3.0
 40
3.0
 40
3.0
 40
4.0
 40
4.0
 40
4.0
 40
5.0
 40
5.0
 40
5.0
 40
6.0
 40
6.0
 40
6.0
 40
7.0
 40
7.0
 40
7.0
 40
7.0
 10
162.91098632812498
 20
146.68251953124999
 30
0.0
 10
162.38733181423609
 20
146.68251953124999
 30
0.0
 10
162.01181640624998
 20
146.40518934461804
 30
0.0
 10
161.78444010416666
 20
145.85052897135415
 30
0.0
 10
161.55706380208332
 20
145.29552408854164
 30
0.0
 10
161.44337565104166
 20
144.35776909722222
 30
0.0
 10
161.44337565104166
 20
143.03623046874998
 30
0.0
 10
161.44337565104166
 20
143.03623046874998
 30
0.0
 10
161.44337565104166
 20
141.87867838541666
 30
0.0
 10
161.44337565104166
 20
141.87867838541666
 30
0.0
 10
161.44337565104166
 20
141.87867838541666
 30
0.0
 10
164.26835394965275
 20
141.87867838541666
 30
0.0
 10
164.26835394965275
 20
141.87867838541666
 30
0.0
 10
164.26835394965275
 20
141.87867838541666
 30
0.0
 10
164.26835394965275
 20
142.93494466145833
 30
0.0
 10
164.26835394965275
 20
142.93494466145833
 30
0.0
 10
164.26835394965275
 20
144.21789822048609
 30
0.0
 10
164.15811089409721
 20
145.16323242187499
 30
0.0
 10
163.93762478298609
 20
145.77094726562498
 30
0.0
 10
163.71713867187498
 20
146.378662109375
 30
0.0
 10
163.37504069010416
 20
146.68251953124999
 30
0.0
 10
162.91098632812498
 20
146.68251953124999
 30
0.0
  0
POLYLINE
  5
38E
100
AcDbEntity
  8
CALQUE_1
 62
     7
100
AcDb2dPolyline
 66
     1
 10
0.0
 20
0.0
 30
0.0
 70
     1
  0
VERTEX
  5
38F
100
AcDbEntity
  8
CALQUE_1
 62
     7
100
AcDbVertex
100
AcDb2dVertex
 10
161.443376
 20
179.426774
 30
0.0
  0
VERTEX
  5
390
100
AcDbEntity
  8
CALQUE_1
 62
     7
100
AcDbVertex
100
AcDb2dVertex
 10
161.443376
 20
172.235482
 30
0.0
  0
VERTEX
  5
391
100
AcDbEntity
  8
CALQUE_1
 62
     7
100
AcDbVertex
100
AcDb2dVertex
 10
163.310617
 20
172.235482
 30
0.0
  0
VERTEX
  5
392
100
AcDbEntity
  8
CALQUE_1
 62
     7
100
AcDbVertex
100
AcDb2dVertex
 10
163.310617
 20
178.992692
 30
0.0
  0
VERTEX
  5
393
100
AcDbEntity
  8
CALQUE_1
 62
     7
100
AcDbVertex
100
AcDb2dVertex
 10
165.5706
 20
178.992692
 30
0.0
  0
VERTEX
  5
394
100
AcDbEntity
  8
CALQUE_1
 62
     7
100
AcDbVertex
100
AcDb2dVertex
 10
165.5706
 20
172.235482
 30
0.0
  0
VERTEX
  5
395
100
AcDbEntity
  8
CALQUE_1
 62
     7
100
AcDbVertex
100
AcDb2dVertex
 10
169.828738
 20
172.235482
 30
0.0
  0
VERTEX
  5
396
100
AcDbEntity
  8
CALQUE_1
 62
     7
100
AcDbVertex
100
AcDb2dVertex
 10
169.828738
 20
166.418783
 30
0.0
  0
VERTEX
  5
397
100
AcDbEntity
  8
CALQUE_1
 62
     7
100
AcDbVertex
100
AcDb2dVertex
 10
159.190283
 20
166.418783
 30
0.0
  0
VERTEX
  5
398
100
AcDbEntity
  8
CALQUE_1
 62
     7
100
AcDbVertex
100
AcDb2dVertex
 10
159.190283
 20
179.426774
 30
0.0
  0
SEQEND
  5
399
100
AcDbEntity
  8
CALQUE_1
 62
     7
  0
SPLINE
  5
38D
100
AcDbEntity
  8
CALQUE_1
 62
     7
100
AcDbSpline
210
0.0
220
0.0
230
1.0
 70
     8
 71
     3
 72
    38
 73
    34
 74
     0
 42
0.00000001
 43
0.00000001
 40
0.0
 40
0.0
 40
0.0
 40
0.0
 40
1.0
 40
1.0
 40
1.0
 40
2.0
 40
2.0
 40
2.0
 40
3.0
 40
3.0
 40
3.0
 40
4.0
 40
4.0
 40
4.0
 40
5.0
 40
5.0
 40
5.0
 40
6.0
 40
6.0
 40
6.0
 40
7.0
 40
7.0
 40
7.0
 40
8.0
 40
8.0
 40
8.0
 40
9.0
 40
9.0
 40
9.0
 40
10.0
 40
10.0
 40
10.0
 40
11.0
 40
11.0
 40
11.0
 40
11.0
 10
169.82873806423609
 20
200.26271158854163
 30
0.0
 10
169.82873806423609
 20
200.26271158854163
 30
0.0
 10
169.82873806423609
 20
193.41868489583331
 30
0.0
 10
169.82873806423609
 20
193.41868489583331
 30
0.0
 10
169.82873806423609
 20
193.41868489583331
 30
0.0
 10
165.69462348090275
 20
188.2965169270833
 30
0.0
 10
165.69462348090275
 20
188.2965169270833
 30
0.0
 10
165.69462348090275
 20
188.2965169270833
 30
0.0
 10
169.82873806423609
 20
188.2965169270833
 30
0.0
 10
169.82873806423609
 20
188.2965169270833
 30
0.0
 10
169.82873806423609
 20
188.2965169270833
 30
0.0
 10
169.82873806423609
 20
182.47981770833331
 30
0.0
 10
169.82873806423609
 20
182.47981770833331
 30
0.0
 10
169.82873806423609
 20
182.47981770833331
 30
0.0
 10
159.19028320312498
 20
182.47981770833331
 30
0.0
 10
159.19028320312498
 20
182.47981770833331
 30
0.0
 10
159.19028320312498
 20
182.47981770833331
 30
0.0
 10
159.19028320312498
 20
189.29490559895831
 30
0.0
 10
159.19028320312498
 20
189.29490559895831
 30
0.0
 10
159.19028320312498
 20
192.92190212673609
 30
0.0
 10
159.46037868923611
 20
195.46851671006942
 30
0.0
 10
159.99988064236109
 20
196.93474934895832
 30
0.0
 10
160.5397271050347
 20
198.40098198784722
 30
0.0
 10
161.39307725694442
 20
199.13409830729165
 30
0.0
 10
162.55958658854166
 20
199.13409830729165
 30
0.0
 10
163.37745225694442
 20
199.13409830729165
 30
0.0
 10
164.04442274305555
 20
198.70966254340277
 30
0.0
 10
164.56118706597221
 20
197.86079101562498
 30
0.0
 10
165.07795138888886
 20
197.01191948784719
 30
0.0
 10
165.41901584201386
 20
195.77719726562498
 30
0.0
 10
165.58438042534721
 20
194.1566243489583
 30
0.0
 10
165.58438042534721
 20
194.1566243489583
 30
0.0
 10
169.82873806423609
 20
200.26271158854163
 30
0.0
 10
169.82873806423609
 20
200.26271158854163
 30
0.0
  0
SPLINE
  5
38C
100
AcDbEntity
  8
CALQUE_1
 62
     7
100
AcDbSpline
210
0.0
220
0.0
230
1.0
 70
     8
 71
     3
 72
    26
 73
    22
 74
     0
 42
0.00000001
 43
0.00000001
 40
0.0
 40
0.0
 40
0.0
 40
0.0
 40
1.0
 40
1.0
 40
1.0
 40
2.0
 40
2.0
 40
2.0
 40
3.0
 40
3.0
 40
3.0
 40
4.0
 40
4.0
 40
4.0
 40
5.0
 40
5.0
 40
5.0
 40
6.0
 40
6.0
 40
6.0
 40
7.0
 40
7.0
 40
7.0
 40
7.0
 10
162.91098632812498
 20
193.10035807291666
 30
0.0
 10
162.38733181423609
 20
193.10035807291666
 30
0.0
 10
162.01181640624998
 20
192.82302788628471
 30
0.0
 10
161.78444010416666
 20
192.26836751302082
 30
0.0
 10
161.55706380208332
 20
191.71336263020831
 30
0.0
 10
161.44337565104166
 20
190.77560763888889
 30
0.0
 10
161.44337565104166
 20
189.45406901041665
 30
0.0
 10
161.44337565104166
 20
189.45406901041665
 30
0.0
 10
161.44337565104166
 20
188.2965169270833
 30
0.0
 10
161.44337565104166
 20
188.2965169270833
 30
0.0
 10
161.44337565104166
 20
188.2965169270833
 30
0.0
 10
164.26835394965275
 20
188.2965169270833
 30
0.0
 10
164.26835394965275
 20
188.2965169270833
 30
0.0
 10
164.26835394965275
 20
188.2965169270833
 30
0.0
 10
164.26835394965275
 20
189.35278320312497
 30
0.0
 10
164.26835394965275
 20
189.35278320312497
 30
0.0
 10
164.26835394965275
 20
190.63573676215276
 30
0.0
 10
164.15811089409721
 20
191.58107096354166
 30
0.0
 10
163.93762478298609
 20
192.18878580729165
 30
0.0
 10
163.71713867187498
 20
192.79650065104164
 30
0.0
 10
163.37504069010416
 20
193.10035807291666
 30
0.0
 10
162.91098632812498
 20
193.10035807291666
 30
0.0
  0
POLYLINE
  5
382
100
AcDbEntity
  8
CALQUE_1
 62
     7
100
AcDb2dPolyline
 66
     1
 10
0.0
 20
0.0
 30
0.0
 70
     1
  0
VERTEX
  5
383
100
AcDbEntity
  8
CALQUE_1
 62
     7
100
AcDbVertex
100
AcDb2dVertex
 10
169.828738
 20
224.354264
 30
0.0
  0
VERTEX
  5
384
100
AcDbEntity
  8
CALQUE_1
 62
     7
100
AcDbVertex
100
AcDb2dVertex
 10
169.828738
 20
218.132422
 30
0.0
  0
VERTEX
  5
385
100
AcDbEntity
  8
CALQUE_1
 62
     7
100
AcDbVertex
100
AcDb2dVertex
 10
167.940826
 20
216.916992
 30
0.0
  0
VERTEX
  5
386
100
AcDbEntity
  8
CALQUE_1
 62
     7
100
AcDbVertex
100
AcDb2dVertex
 10
167.940826
 20
208.380046
 30
0.0
  0
VERTEX
  5
387
100
AcDbEntity
  8
CALQUE_1
 62
     7
100
AcDbVertex
100
AcDb2dVertex
 10
169.828738
 20
207.135677
 30
0.0
  0
VERTEX
  5
388
100
AcDbEntity
  8
CALQUE_1
 62
     7
100
AcDbVertex
100
AcDb2dVertex
 10
169.828738
 20
200.913835
 30
0.0
  0
VERTEX
  5
389
100
AcDbEntity
  8
CALQUE_1
 62
     7
100
AcDbVertex
100
AcDb2dVertex
 10
159.190283
 20
208.857536
 30
0.0
  0
VERTEX
  5
38A
100
AcDbEntity
  8
CALQUE_1
 62
     7
100
AcDbVertex
100
AcDb2dVertex
 10
159.190283
 20
216.410563
 30
0.0
  0
SEQEND
  5
38B
100
AcDbEntity
  8
CALQUE_1
 62
     7
  0
POLYLINE
  5
37D
100
AcDbEntity
  8
CALQUE_1
 62
     7
100
AcDb2dPolyline
 66
     1
 10
0.0
 20
0.0
 30
0.0
 70
     1
  0
VERTEX
  5
37E
100
AcDbEntity
  8
CALQUE_1
 62
     7
100
AcDbVertex
100
AcDb2dVertex
 10
165.894439
 20
215.643685
 30
0.0
  0
VERTEX
  5
37F
100
AcDbEntity
  8
CALQUE_1
 62
     7
100
AcDbVertex
100
AcDb2dVertex
 10
161.374474
 20
212.677458
 30
0.0
  0
VERTEX
  5
380
100
AcDbEntity
  8
CALQUE_1
 62
     7
100
AcDbVertex
100
AcDb2dVertex
 10
165.894439
 20
209.682292
 30
0.0
  0
SEQEND
  5
381
100
AcDbEntity
  8
CALQUE_1
 62
     7
  0
POLYLINE
  5
371
100
AcDbEntity
  8
CALQUE_1
 62
     7
100
AcDb2dPolyline
 66
     1
 10
0.0
 20
0.0
 30
0.0
 70
     1
  0
VERTEX
  5
372
100
AcDbEntity
  8
CALQUE_1
 62
     7
100
AcDbVertex
100
AcDb2dVertex
 10
169.828738
 20
248.229637
 30
0.0
  0
VERTEX
  5
373
100
AcDbEntity
  8
CALQUE_1
 62
     7
100
AcDbVertex
100
AcDb2dVertex
 10
169.828738
 20
242.427235
 30
0.0
  0
VERTEX
  5
374
100
AcDbEntity
  8
CALQUE_1
 62
     7
100
AcDbVertex
100
AcDb2dVertex
 10
163.227935
 20
232.081269
 30
0.0
  0
VERTEX
  5
375
100
AcDbEntity
  8
CALQUE_1
 62
     7
100
AcDbVertex
100
AcDb2dVertex
 10
169.828738
 20
232.081269
 30
0.0
  0
VERTEX
  5
376
100
AcDbEntity
  8
CALQUE_1
 62
     7
100
AcDbVertex
100
AcDb2dVertex
 10
169.828738
 20
226.264398
 30
0.0
  0
VERTEX
  5
377
100
AcDbEntity
  8
CALQUE_1
 62
     7
100
AcDbVertex
100
AcDb2dVertex
 10
159.190283
 20
226.264398
 30
0.0
  0
VERTEX
  5
378
100
AcDbEntity
  8
CALQUE_1
 62
     7
100
AcDbVertex
100
AcDb2dVertex
 10
159.190283
 20
232.110208
 30
0.0
  0
VERTEX
  5
379
100
AcDbEntity
  8
CALQUE_1
 62
     7
100
AcDbVertex
100
AcDb2dVertex
 10
165.804867
 20
242.427235
 30
0.0
  0
VERTEX
  5
37A
100
AcDbEntity
  8
CALQUE_1
 62
     7
100
AcDbVertex
100
AcDb2dVertex
 10
159.190283
 20
242.427235
 30
0.0
  0
VERTEX
  5
37B
100
AcDbEntity
  8
CALQUE_1
 62
     7
100
AcDbVertex
100
AcDb2dVertex
 10
159.190283
 20
248.229637
 30
0.0
  0
SEQEND
  5
37C
100
AcDbEntity
  8
CALQUE_1
 62
     7
  0
SPLINE
  5
370
100
AcDbEntity
  8
CALQUE_1
 62
     7
100
AcDbSpline
210
0.0
220
0.0
230
1.0
 70
     8
 71
     3
 72
    59
 73
    55
 74
     0
 42
0.00000001
 43
0.00000001
 40
0.0
 40
0.0
 40
0.0
 40
0.0
 40
1.0
 40
1.0
 40
1.0
 40
2.0
 40
2.0
 40
2.0
 40
3.0
 40
3.0
 40
3.0
 40
4.0
 40
4.0
 40
4.0
 40
5.0
 40
5.0
 40
5.0
 40
6.0
 40
6.0
 40
6.0
 40
7.0
 40
7.0
 40
7.0
 40
8.0
 40
8.0
 40
8.0
 40
9.0
 40
9.0
 40
9.0
 40
10.0
 40
10.0
 40
10.0
 40
11.0
 40
11.0
 40
11.0
 40
12.0
 40
12.0
 40
12.0
 40
13.0
 40
13.0
 40
13.0
 40
14.0
 40
14.0
 40
14.0
 40
15.0
 40
15.0
 40
15.0
 40
16.0
 40
16.0
 40
16.0
 40
17.0
 40
17.0
 40
17.0
 40
18.0
 40
18.0
 40
18.0
 40
18.0
 10
169.39465603298609
 20
268.9360392252604
 30
0.0
 10
169.61066351996527
 20
268.22221544053815
 30
0.0
 10
169.77499457465277
 20
267.36094156901038
 30
0.0
 10
169.88730468749998
 20
266.35325113932288
 30
0.0
 10
169.99961480034722
 20
265.34521620008678
 30
0.0
 10
170.05611436631943
 20
264.22848849826386
 30
0.0
 10
170.05611436631943
 20
263.00341254340276
 30
0.0
 10
170.05611436631943
 20
259.72350938585066
 30
0.0
 10
169.53245985243055
 20
257.00326199001734
 30
0.0
 10
168.48515082465275
 20
254.84232584635416
 30
0.0
 10
167.43784179687498
 20
252.68156195746525
 30
0.0
 10
166.11733669704859
 20
251.60118001302081
 30
0.0
 10
164.52329101562498
 20
251.60118001302081
 30
0.0
 10
162.92958984374999
 20
251.60118001302081
 30
0.0
 10
161.60426161024304
 20
252.68397352430554
 30
0.0
 10
160.54765082465278
 20
254.84956054687498
 30
0.0
 10
159.49138454861111
 20
257.0149753146701
 30
0.0
 10
158.96290690104166
 20
259.73315565321178
 30
0.0
 10
158.96290690104166
 20
263.00341254340276
 30
0.0
 10
158.96290690104166
 20
264.25742730034722
 30
0.0
 10
159.01802842881943
 20
265.38138970269097
 30
0.0
 10
159.12827148437498
 20
266.37495524088541
 30
0.0
 10
159.23851453993055
 20
267.36852077907986
 30
0.0
 10
159.40387912326386
 20
268.22221544053815
 30
0.0
 10
159.62436523437498
 20
268.9360392252604
 30
0.0
 10
159.62436523437498
 20
268.9360392252604
 30
0.0
 10
162.77318250868055
 20
268.9360392252604
 30
0.0
 10
162.77318250868055
 20
268.9360392252604
 30
0.0
 10
162.41489257812498
 20
268.26080050998263
 30
0.0
 10
162.13721788194442
 20
267.45774875217012
 30
0.0
 10
161.93946940104166
 20
266.52688395182287
 30
0.0
 10
161.74206542968747
 20
265.59567464192708
 30
0.0
 10
161.64319118923609
 20
264.62880859374997
 30
0.0
 10
161.64319118923609
 20
263.6255967881944
 30
0.0
 10
161.64319118923609
 20
261.84103732638886
 30
0.0
 10
161.91328667534719
 20
260.39650878906247
 30
0.0
 10
162.45278862847221
 20
259.29183892144096
 30
0.0
 10
162.99263509114581
 20
258.18699679904512
 30
0.0
 10
163.70129123263888
 20
257.6350925021701
 30
0.0
 10
164.57841254340275
 20
257.6350925021701
 30
0.0
 10
165.39627821180554
 20
257.6350925021701
 30
0.0
 10
166.06669379340275
 20
258.19457600911454
 30
0.0
 10
166.59034830729166
 20
259.31354302300343
 30
0.0
 10
167.11400282118055
 20
260.43268229166665
 30
0.0
 10
167.37583007812498
 20
261.86997612847222
 30
0.0
 10
167.37583007812498
 20
263.6255967881944
 30
0.0
 10
167.37583007812498
 20
264.59986979166666
 30
0.0
 10
167.27592230902775
 20
265.56225721571178
 30
0.0
 10
167.07610677083332
 20
266.51241455078122
 30
0.0
 10
166.87629123263886
 20
267.46222737630205
 30
0.0
 10
166.59965006510416
 20
268.27044677734375
 30
0.0
 10
166.24583875868055
 20
268.9360392252604
 30
0.0
 10
166.24583875868055
 20
268.9360392252604
 30
0.0
 10
169.39465603298609
 20
268.9360392252604
 30
0.0
 10
169.39465603298609
 20
268.9360392252604
 30
0.0
  0
POLYLINE
  5
362
100
AcDbEntity
  8
CALQUE_1
 62
     7
100
AcDb2dPolyline
 66
     1
 10
0.0
 20
0.0
 30
0.0
 70
     1
  0
VERTEX
  5
363
100
AcDbEntity
  8
CALQUE_1
 62
     7
100
AcDbVertex
100
AcDb2dVertex
 10
169.828738
 20
284.968652
 30
0.0
  0
VERTEX
  5
364
100
AcDbEntity
  8
CALQUE_1
 62
     7
100
AcDbVertex
100
AcDb2dVertex
 10
169.828738
 20
272.191827
 30
0.0
  0
VERTEX
  5
365
100
AcDbEntity
  8
CALQUE_1
 62
     7
100
AcDbVertex
100
AcDb2dVertex
 10
159.190283
 20
272.191827
 30
0.0
  0
VERTEX
  5
366
100
AcDbEntity
  8
CALQUE_1
 62
     7
100
AcDbVertex
100
AcDb2dVertex
 10
159.190283
 20
284.968652
 30
0.0
  0
VERTEX
  5
367
100
AcDbEntity
  8
CALQUE_1
 62
     7
100
AcDbVertex
100
AcDb2dVertex
 10
161.532948
 20
284.968652
 30
0.0
  0
VERTEX
  5
368
100
AcDbEntity
  8
CALQUE_1
 62
     7
100
AcDbVertex
100
AcDb2dVertex
 10
161.532948
 20
278.008698
 30
0.0
  0
VERTEX
  5
369
100
AcDbEntity
  8
CALQUE_1
 62
     7
100
AcDbVertex
100
AcDb2dVertex
 10
163.310617
 20
278.008698
 30
0.0
  0
VERTEX
  5
36A
100
AcDbEntity
  8
CALQUE_1
 62
     7
100
AcDbVertex
100
AcDb2dVertex
 10
163.310617
 20
284.679264
 30
0.0
  0
VERTEX
  5
36B
100
AcDbEntity
  8
CALQUE_1
 62
     7
100
AcDbVertex
100
AcDb2dVertex
 10
165.5706
 20
284.679264
 30
0.0
  0
VERTEX
  5
36C
100
AcDbEntity
  8
CALQUE_1
 62
     7
100
AcDbVertex
100
AcDb2dVertex
 10
165.5706
 20
278.008698
 30
0.0
  0
VERTEX
  5
36D
100
AcDbEntity
  8
CALQUE_1
 62
     7
100
AcDbVertex
100
AcDb2dVertex
 10
167.486073
 20
278.008698
 30
0.0
  0
VERTEX
  5
36E
100
AcDbEntity
  8
CALQUE_1
 62
     7
100
AcDbVertex
100
AcDb2dVertex
 10
167.486073
 20
284.968652
 30
0.0
  0
SEQEND
  5
36F
100
AcDbEntity
  8
CALQUE_1
 62
     7
  0
POLYLINE
  5
358
100
AcDbEntity
  8
CALQUE_1
 62
     7
100
AcDb2dPolyline
 66
     1
 10
0.0
 20
0.0
 30
0.0
 70
     1
  0
VERTEX
  5
359
100
AcDbEntity
  8
CALQUE_1
 62
     7
100
AcDbVertex
100
AcDb2dVertex
 10
187.819371
 20
124.081315
 30
0.0
  0
VERTEX
  5
35A
100
AcDbEntity
  8
CALQUE_1
 62
     7
100
AcDbVertex
100
AcDb2dVertex
 10
187.819371
 20
117.859473
 30
0.0
  0
VERTEX
  5
35B
100
AcDbEntity
  8
CALQUE_1
 62
     7
100
AcDbVertex
100
AcDb2dVertex
 10
185.931459
 20
116.644043
 30
0.0
  0
VERTEX
  5
35C
100
AcDbEntity
  8
CALQUE_1
 62
     7
100
AcDbVertex
100
AcDb2dVertex
 10
185.931459
 20
108.107096
 30
0.0
  0
VERTEX
  5
35D
100
AcDbEntity
  8
CALQUE_1
 62
     7
100
AcDbVertex
100
AcDb2dVertex
 10
187.819371
 20
106.862728
 30
0.0
  0
VERTEX
  5
35E
100
AcDbEntity
  8
CALQUE_1
 62
     7
100
AcDbVertex
100
AcDb2dVertex
 10
187.819371
 20
100.640885
 30
0.0
  0
VERTEX
  5
35F
100
AcDbEntity
  8
CALQUE_1
 62
     7
100
AcDbVertex
100
AcDb2dVertex
 10
177.180916
 20
108.584587
 30
0.0
  0
VERTEX
  5
360
100
AcDbEntity
  8
CALQUE_1
 62
     7
100
AcDbVertex
100
AcDb2dVertex
 10
177.180916
 20
116.137614
 30
0.0
  0
SEQEND
  5
361
100
AcDbEntity
  8
CALQUE_1
 62
     7
  0
POLYLINE
  5
353
100
AcDbEntity
  8
CALQUE_1
 62
     7
100
AcDb2dPolyline
 66
     1
 10
0.0
 20
0.0
 30
0.0
 70
     1
  0
VERTEX
  5
354
100
AcDbEntity
  8
CALQUE_1
 62
     7
100
AcDbVertex
100
AcDb2dVertex
 10
183.885072
 20
115.370736
 30
0.0
  0
VERTEX
  5
355
100
AcDbEntity
  8
CALQUE_1
 62
     7
100
AcDbVertex
100
AcDb2dVertex
 10
179.365107
 20
112.404508
 30
0.0
  0
VERTEX
  5
356
100
AcDbEntity
  8
CALQUE_1
 62
     7
100
AcDbVertex
100
AcDb2dVertex
 10
183.885072
 20
109.409342
 30
0.0
  0
SEQEND
  5
357
100
AcDbEntity
  8
CALQUE_1
 62
     7
  0
POLYLINE
  5
34D
100
AcDbEntity
  8
CALQUE_1
 62
     7
100
AcDb2dPolyline
 66
     1
 10
0.0
 20
0.0
 30
0.0
 70
     1
  0
VERTEX
  5
34E
100
AcDbEntity
  8
CALQUE_1
 62
     7
100
AcDbVertex
100
AcDb2dVertex
 10
187.819371
 20
131.619873
 30
0.0
  0
VERTEX
  5
34F
100
AcDbEntity
  8
CALQUE_1
 62
     7
100
AcDbVertex
100
AcDb2dVertex
 10
187.819371
 20
125.817643
 30
0.0
  0
VERTEX
  5
350
100
AcDbEntity
  8
CALQUE_1
 62
     7
100
AcDbVertex
100
AcDb2dVertex
 10
177.180916
 20
125.817643
 30
0.0
  0
VERTEX
  5
351
100
AcDbEntity
  8
CALQUE_1
 62
     7
100
AcDbVertex
100
AcDb2dVertex
 10
177.180916
 20
131.619873
 30
0.0
  0
SEQEND
  5
352
100
AcDbEntity
  8
CALQUE_1
 62
     7
  0
SPLINE
  5
34C
100
AcDbEntity
  8
CALQUE_1
 62
     7
100
AcDbSpline
210
0.0
220
0.0
230
1.0
 70
     8
 71
     3
 72
    38
 73
    34
 74
     0
 42
0.00000001
 43
0.00000001
 40
0.0
 40
0.0
 40
0.0
 40
0.0
 40
1.0
 40
1.0
 40
1.0
 40
2.0
 40
2.0
 40
2.0
 40
3.0
 40
3.0
 40
3.0
 40
4.0
 40
4.0
 40
4.0
 40
5.0
 40
5.0
 40
5.0
 40
6.0
 40
6.0
 40
6.0
 40
7.0
 40
7.0
 40
7.0
 40
8.0
 40
8.0
 40
8.0
 40
9.0
 40
9.0
 40
9.0
 40
10.0
 40
10.0
 40
10.0
 40
11.0
 40
11.0
 40
11.0
 40
11.0
 10
187.81937120225692
 20
153.84487304687499
 30
0.0
 10
187.81937120225692
 20
153.84487304687499
 30
0.0
 10
187.81937120225692
 20
147.00084635416664
 30
0.0
 10
187.81937120225692
 20
147.00084635416664
 30
0.0
 10
187.81937120225692
 20
147.00084635416664
 30
0.0
 10
183.6852566189236
 20
141.87867838541666
 30
0.0
 10
183.6852566189236
 20
141.87867838541666
 30
0.0
 10
183.6852566189236
 20
141.87867838541666
 30
0.0
 10
187.81937120225692
 20
141.87867838541666
 30
0.0
 10
187.81937120225692
 20
141.87867838541666
 30
0.0
 10
187.81937120225692
 20
141.87867838541666
 30
0.0
 10
187.81937120225692
 20
136.06197916666665
 30
0.0
 10
187.81937120225692
 20
136.06197916666665
 30
0.0
 10
187.81937120225692
 20
136.06197916666665
 30
0.0
 10
177.1809163411458
 20
136.06197916666665
 30
0.0
 10
177.1809163411458
 20
136.06197916666665
 30
0.0
 10
177.1809163411458
 20
136.06197916666665
 30
0.0
 10
177.1809163411458
 20
142.87706705729164
 30
0.0
 10
177.1809163411458
 20
142.87706705729164
 30
0.0
 10
177.1809163411458
 20
146.50406358506942
 30
0.0
 10
177.45101182725693
 20
149.05067816840275
 30
0.0
 10
177.99051378038192
 20
150.51691080729165
 30
0.0
 10
178.53036024305553
 20
151.98314344618055
 30
0.0
 10
179.38371039496525
 20
152.71625976562498
 30
0.0
 10
180.55021972656249
 20
152.71625976562498
 30
0.0
 10
181.36808539496525
 20
152.71625976562498
 30
0.0
 10
182.03505588107637
 20
152.2918240017361
 30
0.0
 10
182.55182020399303
 20
151.44295247395831
 30
0.0
 10
183.06858452690972
 20
150.59408094618055
 30
0.0
 10
183.40964898003472
 20
149.35935872395831
 30
0.0
 10
183.57501356336803
 20
147.73878580729166
 30
0.0
 10
183.57501356336803
 20
147.73878580729166
 30
0.0
 10
187.81937120225692
 20
153.84487304687499
 30
0.0
 10
187.81937120225692
 20
153.84487304687499
 30
0.0
  0
SPLINE
  5
34B
100
AcDbEntity
  8
CALQUE_1
 62
     7
100
AcDbSpline
210
0.0
220
0.0
230
1.0
 70
     8
 71
     3
 72
    26
 73
    22
 74
     0
 42
0.00000001
 43
0.00000001
 40
0.0
 40
0.0
 40
0.0
 40
0.0
 40
1.0
 40
1.0
 40
1.0
 40
2.0
 40
2.0
 40
2.0
 40
3.0
 40
3.0
 40
3.0
 40
4.0
 40
4.0
 40
4.0
 40
5.0
 40
5.0
 40
5.0
 40
6.0
 40
6.0
 40
6.0
 40
7.0
 40
7.0
 40
7.0
 40
7.0
 10
180.9016194661458
 20
146.68251953124999
 30
0.0
 10
180.37796495225692
 20
146.68251953124999
 30
0.0
 10
180.0024495442708
 20
146.40518934461804
 30
0.0
 10
179.77507324218749
 20
145.85052897135415
 30
0.0
 10
179.54769694010415
 20
145.29552408854164
 30
0.0
 10
179.43400878906249
 20
144.35776909722222
 30
0.0
 10
179.43400878906249
 20
143.03623046874998
 30
0.0
 10
179.43400878906249
 20
143.03623046874998
 30
0.0
 10
179.43400878906249
 20
141.87867838541666
 30
0.0
 10
179.43400878906249
 20
141.87867838541666
 30
0.0
 10
179.43400878906249
 20
141.87867838541666
 30
0.0
 10
182.2589870876736
 20
141.87867838541666
 30
0.0
 10
182.2589870876736
 20
141.87867838541666
 30
0.0
 10
182.2589870876736
 20
141.87867838541666
 30
0.0
 10
182.2589870876736
 20
142.93494466145833
 30
0.0
 10
182.2589870876736
 20
142.93494466145833
 30
0.0
 10
182.2589870876736
 20
144.21789822048609
 30
0.0
 10
182.14874403211803
 20
145.16323242187499
 30
0.0
 10
181.92825792100692
 20
145.77094726562498
 30
0.0
 10
181.7077718098958
 20
146.378662109375
 30
0.0
 10
181.36567382812498
 20
146.68251953124999
 30
0.0
 10
180.9016194661458
 20
146.68251953124999
 30
0.0
  0
POLYLINE
  5
33F
100
AcDbEntity
  8
CALQUE_1
 62
     7
100
AcDb2dPolyline
 66
     1
 10
0.0
 20
0.0
 30
0.0
 70
     1
  0
VERTEX
  5
340
100
AcDbEntity
  8
CALQUE_1
 62
     7
100
AcDbVertex
100
AcDb2dVertex
 10
179.434009
 20
179.426774
 30
0.0
  0
VERTEX
  5
341
100
AcDbEntity
  8
CALQUE_1
 62
     7
100
AcDbVertex
100
AcDb2dVertex
 10
179.434009
 20
172.235482
 30
0.0
  0
VERTEX
  5
342
100
AcDbEntity
  8
CALQUE_1
 62
     7
100
AcDbVertex
100
AcDb2dVertex
 10
181.301251
 20
172.235482
 30
0.0
  0
VERTEX
  5
343
100
AcDbEntity
  8
CALQUE_1
 62
     7
100
AcDbVertex
100
AcDb2dVertex
 10
181.301251
 20
178.992692
 30
0.0
  0
VERTEX
  5
344
100
AcDbEntity
  8
CALQUE_1
 62
     7
100
AcDbVertex
100
AcDb2dVertex
 10
183.561233
 20
178.992692
 30
0.0
  0
VERTEX
  5
345
100
AcDbEntity
  8
CALQUE_1
 62
     7
100
AcDbVertex
100
AcDb2dVertex
 10
183.561233
 20
172.235482
 30
0.0
  0
VERTEX
  5
346
100
AcDbEntity
  8
CALQUE_1
 62
     7
100
AcDbVertex
100
AcDb2dVertex
 10
187.819371
 20
172.235482
 30
0.0
  0
VERTEX
  5
347
100
AcDbEntity
  8
CALQUE_1
 62
     7
100
AcDbVertex
100
AcDb2dVertex
 10
187.819371
 20
166.418783
 30
0.0
  0
VERTEX
  5
348
100
AcDbEntity
  8
CALQUE_1
 62
     7
100
AcDbVertex
100
AcDb2dVertex
 10
177.180916
 20
166.418783
 30
0.0
  0
VERTEX
  5
349
100
AcDbEntity
  8
CALQUE_1
 62
     7
100
AcDbVertex
100
AcDb2dVertex
 10
177.180916
 20
179.426774
 30
0.0
  0
SEQEND
  5
34A
100
AcDbEntity
  8
CALQUE_1
 62
     7
  0
SPLINE
  5
33E
100
AcDbEntity
  8
CALQUE_1
 62
     7
100
AcDbSpline
210
0.0
220
0.0
230
1.0
 70
     8
 71
     3
 72
    38
 73
    34
 74
     0
 42
0.00000001
 43
0.00000001
 40
0.0
 40
0.0
 40
0.0
 40
0.0
 40
1.0
 40
1.0
 40
1.0
 40
2.0
 40
2.0
 40
2.0
 40
3.0
 40
3.0
 40
3.0
 40
4.0
 40
4.0
 40
4.0
 40
5.0
 40
5.0
 40
5.0
 40
6.0
 40
6.0
 40
6.0
 40
7.0
 40
7.0
 40
7.0
 40
8.0
 40
8.0
 40
8.0
 40
9.0
 40
9.0
 40
9.0
 40
10.0
 40
10.0
 40
10.0
 40
11.0
 40
11.0
 40
11.0
 40
11.0
 10
187.81937120225692
 20
200.26271158854163
 30
0.0
 10
187.81937120225692
 20
200.26271158854163
 30
0.0
 10
187.81937120225692
 20
193.41868489583331
 30
0.0
 10
187.81937120225692
 20
193.41868489583331
 30
0.0
 10
187.81937120225692
 20
193.41868489583331
 30
0.0
 10
183.6852566189236
 20
188.2965169270833
 30
0.0
 10
183.6852566189236
 20
188.2965169270833
 30
0.0
 10
183.6852566189236
 20
188.2965169270833
 30
0.0
 10
187.81937120225692
 20
188.2965169270833
 30
0.0
 10
187.81937120225692
 20
188.2965169270833
 30
0.0
 10
187.81937120225692
 20
188.2965169270833
 30
0.0
 10
187.81937120225692
 20
182.47981770833331
 30
0.0
 10
187.81937120225692
 20
182.47981770833331
 30
0.0
 10
187.81937120225692
 20
182.47981770833331
 30
0.0
 10
177.1809163411458
 20
182.47981770833331
 30
0.0
 10
177.1809163411458
 20
182.47981770833331
 30
0.0
 10
177.1809163411458
 20
182.47981770833331
 30
0.0
 10
177.1809163411458
 20
189.29490559895831
 30
0.0
 10
177.1809163411458
 20
189.29490559895831
 30
0.0
 10
177.1809163411458
 20
192.92190212673609
 30
0.0
 10
177.45101182725693
 20
195.46851671006942
 30
0.0
 10
177.99051378038192
 20
196.93474934895832
 30
0.0
 10
178.53036024305553
 20
198.40098198784722
 30
0.0
 10
179.38371039496525
 20
199.13409830729165
 30
0.0
 10
180.55021972656249
 20
199.13409830729165
 30
0.0
 10
181.36808539496525
 20
199.13409830729165
 30
0.0
 10
182.03505588107637
 20
198.70966254340277
 30
0.0
 10
182.55182020399303
 20
197.86079101562498
 30
0.0
 10
183.06858452690972
 20
197.01191948784719
 30
0.0
 10
183.40964898003472
 20
195.77719726562498
 30
0.0
 10
183.57501356336803
 20
194.1566243489583
 30
0.0
 10
183.57501356336803
 20
194.1566243489583
 30
0.0
 10
187.81937120225692
 20
200.26271158854163
 30
0.0
 10
187.81937120225692
 20
200.26271158854163
 30
0.0
  0
SPLINE
  5
33D
100
AcDbEntity
  8
CALQUE_1
 62
     7
100
AcDbSpline
210
0.0
220
0.0
230
1.0
 70
     8
 71
     3
 72
    26
 73
    22
 74
     0
 42
0.00000001
 43
0.00000001
 40
0.0
 40
0.0
 40
0.0
 40
0.0
 40
1.0
 40
1.0
 40
1.0
 40
2.0
 40
2.0
 40
2.0
 40
3.0
 40
3.0
 40
3.0
 40
4.0
 40
4.0
 40
4.0
 40
5.0
 40
5.0
 40
5.0
 40
6.0
 40
6.0
 40
6.0
 40
7.0
 40
7.0
 40
7.0
 40
7.0
 10
180.9016194661458
 20
193.10035807291666
 30
0.0
 10
180.37796495225692
 20
193.10035807291666
 30
0.0
 10
180.0024495442708
 20
192.82302788628471
 30
0.0
 10
179.77507324218749
 20
192.26836751302082
 30
0.0
 10
179.54769694010415
 20
191.71336263020831
 30
0.0
 10
179.43400878906249
 20
190.77560763888889
 30
0.0
 10
179.43400878906249
 20
189.45406901041665
 30
0.0
 10
179.43400878906249
 20
189.45406901041665
 30
0.0
 10
179.43400878906249
 20
188.2965169270833
 30
0.0
 10
179.43400878906249
 20
188.2965169270833
 30
0.0
 10
179.43400878906249
 20
188.2965169270833
 30
0.0
 10
182.2589870876736
 20
188.2965169270833
 30
0.0
 10
182.2589870876736
 20
188.2965169270833
 30
0.0
 10
182.2589870876736
 20
188.2965169270833
 30
0.0
 10
182.2589870876736
 20
189.35278320312497
 30
0.0
 10
182.2589870876736
 20
189.35278320312497
 30
0.0
 10
182.2589870876736
 20
190.63573676215276
 30
0.0
 10
182.14874403211803
 20
191.58107096354166
 30
0.0
 10
181.92825792100692
 20
192.18878580729165
 30
0.0
 10
181.7077718098958
 20
192.79650065104164
 30
0.0
 10
181.36567382812498
 20
193.10035807291666
 30
0.0
 10
180.9016194661458
 20
193.10035807291666
 30
0.0
  0
POLYLINE
  5
333
100
AcDbEntity
  8
CALQUE_1
 62
     7
100
AcDb2dPolyline
 66
     1
 10
0.0
 20
0.0
 30
0.0
 70
     1
  0
VERTEX
  5
334
100
AcDbEntity
  8
CALQUE_1
 62
     7
100
AcDbVertex
100
AcDb2dVertex
 10
187.819371
 20
224.354264
 30
0.0
  0
VERTEX
  5
335
100
AcDbEntity
  8
CALQUE_1
 62
     7
100
AcDbVertex
100
AcDb2dVertex
 10
187.819371
 20
218.132422
 30
0.0
  0
VERTEX
  5
336
100
AcDbEntity
  8
CALQUE_1
 62
     7
100
AcDbVertex
100
AcDb2dVertex
 10
185.931459
 20
216.916992
 30
0.0
  0
VERTEX
  5
337
100
AcDbEntity
  8
CALQUE_1
 62
     7
100
AcDbVertex
100
AcDb2dVertex
 10
185.931459
 20
208.380046
 30
0.0
  0
VERTEX
  5
338
100
AcDbEntity
  8
CALQUE_1
 62
     7
100
AcDbVertex
100
AcDb2dVertex
 10
187.819371
 20
207.135677
 30
0.0
  0
VERTEX
  5
339
100
AcDbEntity
  8
CALQUE_1
 62
     7
100
AcDbVertex
100
AcDb2dVertex
 10
187.819371
 20
200.913835
 30
0.0
  0
VERTEX
  5
33A
100
AcDbEntity
  8
CALQUE_1
 62
     7
100
AcDbVertex
100
AcDb2dVertex
 10
177.180916
 20
208.857536
 30
0.0
  0
VERTEX
  5
33B
100
AcDbEntity
  8
CALQUE_1
 62
     7
100
AcDbVertex
100
AcDb2dVertex
 10
177.180916
 20
216.410563
 30
0.0
  0
SEQEND
  5
33C
100
AcDbEntity
  8
CALQUE_1
 62
     7
  0
POLYLINE
  5
32E
100
AcDbEntity
  8
CALQUE_1
 62
     7
100
AcDb2dPolyline
 66
     1
 10
0.0
 20
0.0
 30
0.0
 70
     1
  0
VERTEX
  5
32F
100
AcDbEntity
  8
CALQUE_1
 62
     7
100
AcDbVertex
100
AcDb2dVertex
 10
183.885072
 20
215.643685
 30
0.0
  0
VERTEX
  5
330
100
AcDbEntity
  8
CALQUE_1
 62
     7
100
AcDbVertex
100
AcDb2dVertex
 10
179.365107
 20
212.677458
 30
0.0
  0
VERTEX
  5
331
100
AcDbEntity
  8
CALQUE_1
 62
     7
100
AcDbVertex
100
AcDb2dVertex
 10
183.885072
 20
209.682292
 30
0.0
  0
SEQEND
  5
332
100
AcDbEntity
  8
CALQUE_1
 62
     7
  0
POLYLINE
  5
322
100
AcDbEntity
  8
CALQUE_1
 62
     7
100
AcDb2dPolyline
 66
     1
 10
0.0
 20
0.0
 30
0.0
 70
     1
  0
VERTEX
  5
323
100
AcDbEntity
  8
CALQUE_1
 62
     7
100
AcDbVertex
100
AcDb2dVertex
 10
187.819371
 20
248.229637
 30
0.0
  0
VERTEX
  5
324
100
AcDbEntity
  8
CALQUE_1
 62
     7
100
AcDbVertex
100
AcDb2dVertex
 10
187.819371
 20
242.427235
 30
0.0
  0
VERTEX
  5
325
100
AcDbEntity
  8
CALQUE_1
 62
     7
100
AcDbVertex
100
AcDb2dVertex
 10
181.218568
 20
232.081269
 30
0.0
  0
VERTEX
  5
326
100
AcDbEntity
  8
CALQUE_1
 62
     7
100
AcDbVertex
100
AcDb2dVertex
 10
187.819371
 20
232.081269
 30
0.0
  0
VERTEX
  5
327
100
AcDbEntity
  8
CALQUE_1
 62
     7
100
AcDbVertex
100
AcDb2dVertex
 10
187.819371
 20
226.264398
 30
0.0
  0
VERTEX
  5
328
100
AcDbEntity
  8
CALQUE_1
 62
     7
100
AcDbVertex
100
AcDb2dVertex
 10
177.180916
 20
226.264398
 30
0.0
  0
VERTEX
  5
329
100
AcDbEntity
  8
CALQUE_1
 62
     7
100
AcDbVertex
100
AcDb2dVertex
 10
177.180916
 20
232.110208
 30
0.0
  0
VERTEX
  5
32A
100
AcDbEntity
  8
CALQUE_1
 62
     7
100
AcDbVertex
100
AcDb2dVertex
 10
183.7955
 20
242.427235
 30
0.0
  0
VERTEX
  5
32B
100
AcDbEntity
  8
CALQUE_1
 62
     7
100
AcDbVertex
100
AcDb2dVertex
 10
177.180916
 20
242.427235
 30
0.0
  0
VERTEX
  5
32C
100
AcDbEntity
  8
CALQUE_1
 62
     7
100
AcDbVertex
100
AcDb2dVertex
 10
177.180916
 20
248.229637
 30
0.0
  0
SEQEND
  5
32D
100
AcDbEntity
  8
CALQUE_1
 62
     7
  0
SPLINE
  5
321
100
AcDbEntity
  8
CALQUE_1
 62
     7
100
AcDbSpline
210
0.0
220
0.0
230
1.0
 70
     8
 71
     3
 72
    59
 73
    55
 74
     0
 42
0.00000001
 43
0.00000001
 40
0.0
 40
0.0
 40
0.0
 40
0.0
 40
1.0
 40
1.0
 40
1.0
 40
2.0
 40
2.0
 40
2.0
 40
3.0
 40
3.0
 40
3.0
 40
4.0
 40
4.0
 40
4.0
 40
5.0
 40
5.0
 40
5.0
 40
6.0
 40
6.0
 40
6.0
 40
7.0
 40
7.0
 40
7.0
 40
8.0
 40
8.0
 40
8.0
 40
9.0
 40
9.0
 40
9.0
 40
10.0
 40
10.0
 40
10.0
 40
11.0
 40
11.0
 40
11.0
 40
12.0
 40
12.0
 40
12.0
 40
13.0
 40
13.0
 40
13.0
 40
14.0
 40
14.0
 40
14.0
 40
15.0
 40
15.0
 40
15.0
 40
16.0
 40
16.0
 40
16.0
 40
17.0
 40
17.0
 40
17.0
 40
18.0
 40
18.0
 40
18.0
 40
18.0
 10
187.38528917100692
 20
268.9360392252604
 30
0.0
 10
187.6012966579861
 20
268.22221544053815
 30
0.0
 10
187.76562771267359
 20
267.36094156901038
 30
0.0
 10
187.8779378255208
 20
266.35325113932288
 30
0.0
 10
187.99024793836804
 20
265.34521620008678
 30
0.0
 10
188.04674750434026
 20
264.22848849826386
 30
0.0
 10
188.04674750434026
 20
263.00341254340276
 30
0.0
 10
188.04674750434026
 20
259.72350938585066
 30
0.0
 10
187.52309299045137
 20
257.00326199001734
 30
0.0
 10
186.4757839626736
 20
254.84232584635416
 30
0.0
 10
185.4284749348958
 20
252.68156195746525
 30
0.0
 10
184.10796983506944
 20
251.60118001302081
 30
0.0
 10
182.5139241536458
 20
251.60118001302081
 30
0.0
 10
180.92022298177082
 20
251.60118001302081
 30
0.0
 10
179.59489474826387
 20
252.68397352430554
 30
0.0
 10
178.5382839626736
 20
254.84956054687498
 30
0.0
 10
177.48201768663193
 20
257.0149753146701
 30
0.0
 10
176.95354003906249
 20
259.73315565321178
 30
0.0
 10
176.95354003906249
 20
263.00341254340276
 30
0.0
 10
176.95354003906249
 20
264.25742730034722
 30
0.0
 10
177.00866156684026
 20
265.38138970269097
 30
0.0
 10
177.11890462239583
 20
266.37495524088541
 30
0.0
 10
177.22914767795137
 20
267.36852077907986
 30
0.0
 10
177.39451226128472
 20
268.22221544053815
 30
0.0
 10
177.6149983723958
 20
268.9360392252604
 30
0.0
 10
177.6149983723958
 20
268.9360392252604
 30
0.0
 10
180.76381564670137
 20
268.9360392252604
 30
0.0
 10
180.76381564670137
 20
268.9360392252604
 30
0.0
 10
180.4055257161458
 20
268.26080050998263
 30
0.0
 10
180.12785101996525
 20
267.45774875217012
 30
0.0
 10
179.93010253906249
 20
266.52688395182287
 30
0.0
 10
179.73269856770833
 20
265.59567464192708
 30
0.0
 10
179.63382432725692
 20
264.62880859374997
 30
0.0
 10
179.63382432725692
 20
263.6255967881944
 30
0.0
 10
179.63382432725692
 20
261.84103732638886
 30
0.0
 10
179.90391981336805
 20
260.39650878906247
 30
0.0
 10
180.44342176649303
 20
259.29183892144096
 30
0.0
 10
180.98326822916664
 20
258.18699679904512
 30
0.0
 10
181.69192437065971
 20
257.6350925021701
 30
0.0
 10
182.5690456814236
 20
257.6350925021701
 30
0.0
 10
183.38691134982636
 20
257.6350925021701
 30
0.0
 10
184.0573269314236
 20
258.19457600911454
 30
0.0
 10
184.58098144531249
 20
259.31354302300343
 30
0.0
 10
185.10463595920137
 20
260.43268229166665
 30
0.0
 10
185.3664632161458
 20
261.86997612847222
 30
0.0
 10
185.3664632161458
 20
263.6255967881944
 30
0.0
 10
185.3664632161458
 20
264.59986979166666
 30
0.0
 10
185.2665554470486
 20
265.56225721571178
 30
0.0
 10
185.06673990885415
 20
266.51241455078122
 30
0.0
 10
184.86692437065972
 20
267.46222737630205
 30
0.0
 10
184.59028320312498
 20
268.27044677734375
 30
0.0
 10
184.23647189670137
 20
268.9360392252604
 30
0.0
 10
184.23647189670137
 20
268.9360392252604
 30
0.0
 10
187.38528917100692
 20
268.9360392252604
 30
0.0
 10
187.38528917100692
 20
268.9360392252604
 30
0.0
  0
POLYLINE
  5
313
100
AcDbEntity
  8
CALQUE_1
 62
     7
100
AcDb2dPolyline
 66
     1
 10
0.0
 20
0.0
 30
0.0
 70
     1
  0
VERTEX
  5
314
100
AcDbEntity
  8
CALQUE_1
 62
     7
100
AcDbVertex
100
AcDb2dVertex
 10
187.819371
 20
284.968652
 30
0.0
  0
VERTEX
  5
315
100
AcDbEntity
  8
CALQUE_1
 62
     7
100
AcDbVertex
100
AcDb2dVertex
 10
187.819371
 20
272.191827
 30
0.0
  0
VERTEX
  5
316
100
AcDbEntity
  8
CALQUE_1
 62
     7
100
AcDbVertex
100
AcDb2dVertex
 10
177.180916
 20
272.191827
 30
0.0
  0
VERTEX
  5
317
100
AcDbEntity
  8
CALQUE_1
 62
     7
100
AcDbVertex
100
AcDb2dVertex
 10
177.180916
 20
284.968652
 30
0.0
  0
VERTEX
  5
318
100
AcDbEntity
  8
CALQUE_1
 62
     7
100
AcDbVertex
100
AcDb2dVertex
 10
179.523581
 20
284.968652
 30
0.0
  0
VERTEX
  5
319
100
AcDbEntity
  8
CALQUE_1
 62
     7
100
AcDbVertex
100
AcDb2dVertex
 10
179.523581
 20
278.008698
 30
0.0
  0
VERTEX
  5
31A
100
AcDbEntity
  8
CALQUE_1
 62
     7
100
AcDbVertex
100
AcDb2dVertex
 10
181.301251
 20
278.008698
 30
0.0
  0
VERTEX
  5
31B
100
AcDbEntity
  8
CALQUE_1
 62
     7
100
AcDbVertex
100
AcDb2dVertex
 10
181.301251
 20
284.679264
 30
0.0
  0
VERTEX
  5
31C
100
AcDbEntity
  8
CALQUE_1
 62
     7
100
AcDbVertex
100
AcDb2dVertex
 10
183.561233
 20
284.679264
 30
0.0
  0
VERTEX
  5
31D
100
AcDbEntity
  8
CALQUE_1
 62
     7
100
AcDbVertex
100
AcDb2dVertex
 10
183.561233
 20
278.008698
 30
0.0
  0
VERTEX
  5
31E
100
AcDbEntity
  8
CALQUE_1
 62
     7
100
AcDbVertex
100
AcDb2dVertex
 10
185.476706
 20
278.008698
 30
0.0
  0
VERTEX
  5
31F
100
AcDbEntity
  8
CALQUE_1
 62
     7
100
AcDbVertex
100
AcDb2dVertex
 10
185.476706
 20
284.968652
 30
0.0
  0
SEQEND
  5
320
100
AcDbEntity
  8
CALQUE_1
 62
     7
  0
POLYLINE
  5
307
100
AcDbEntity
  8
CALQUE_1
 62
     7
100
AcDb2dPolyline
 66
     1
 10
0.0
 20
0.0
 30
0.0
 70
     1
  0
VERTEX
  5
308
100
AcDbEntity
  8
CALQUE_1
 62
     7
100
AcDbVertex
100
AcDb2dVertex
 10
164.336222
 20
84.804126
 30
0.0
  0
VERTEX
  5
309
100
AcDbEntity
  8
CALQUE_1
 62
     7
100
AcDbVertex
100
AcDb2dVertex
 10
162.394567
 20
84.804126
 30
0.0
  0
VERTEX
  5
30A
100
AcDbEntity
  8
CALQUE_1
 62
     7
100
AcDbVertex
100
AcDb2dVertex
 10
162.394567
 20
82.013599
 30
0.0
  0
VERTEX
  5
30B
100
AcDbEntity
  8
CALQUE_1
 62
     7
100
AcDbVertex
100
AcDb2dVertex
 10
161.104378
 20
82.013599
 30
0.0
  0
VERTEX
  5
30C
100
AcDbEntity
  8
CALQUE_1
 62
     7
100
AcDbVertex
100
AcDb2dVertex
 10
161.104378
 20
88.631627
 30
0.0
  0
VERTEX
  5
30D
100
AcDbEntity
  8
CALQUE_1
 62
     7
100
AcDbVertex
100
AcDb2dVertex
 10
164.336222
 20
88.631627
 30
0.0
  0
VERTEX
  5
30E
100
AcDbEntity
  8
CALQUE_1
 62
     7
100
AcDbVertex
100
AcDb2dVertex
 10
164.336222
 20
87.491645
 30
0.0
  0
VERTEX
  5
30F
100
AcDbEntity
  8
CALQUE_1
 62
     7
100
AcDbVertex
100
AcDb2dVertex
 10
162.394567
 20
87.491645
 30
0.0
  0
VERTEX
  5
310
100
AcDbEntity
  8
CALQUE_1
 62
     7
100
AcDbVertex
100
AcDb2dVertex
 10
162.394567
 20
85.948587
 30
0.0
  0
VERTEX
  5
311
100
AcDbEntity
  8
CALQUE_1
 62
     7
100
AcDbVertex
100
AcDb2dVertex
 10
164.336222
 20
85.948587
 30
0.0
  0
SEQEND
  5
312
100
AcDbEntity
  8
CALQUE_1
 62
     7
  0
POLYLINE
  5
301
100
AcDbEntity
  8
CALQUE_1
 62
     7
100
AcDb2dPolyline
 66
     1
 10
0.0
 20
0.0
 30
0.0
 70
     1
  0
VERTEX
  5
302
100
AcDbEntity
  8
CALQUE_1
 62
     7
100
AcDbVertex
100
AcDb2dVertex
 10
167.246639
 20
83.655531
 30
0.0
  0
VERTEX
  5
303
100
AcDbEntity
  8
CALQUE_1
 62
     7
100
AcDbVertex
100
AcDb2dVertex
 10
164.850575
 20
83.655531
 30
0.0
  0
VERTEX
  5
304
100
AcDbEntity
  8
CALQUE_1
 62
     7
100
AcDbVertex
100
AcDb2dVertex
 10
164.850575
 20
84.795513
 30
0.0
  0
VERTEX
  5
305
100
AcDbEntity
  8
CALQUE_1
 62
     7
100
AcDbVertex
100
AcDb2dVertex
 10
167.246639
 20
84.795513
 30
0.0
  0
SEQEND
  5
306
100
AcDbEntity
  8
CALQUE_1
 62
     7
  0
SPLINE
  5
300
100
AcDbEntity
  8
CALQUE_1
 62
     7
100
AcDbSpline
210
0.0
220
0.0
230
1.0
 70
     8
 71
     3
 72
    38
 73
    34
 74
     0
 42
0.00000001
 43
0.00000001
 40
0.0
 40
0.0
 40
0.0
 40
0.0
 40
1.0
 40
1.0
 40
1.0
 40
2.0
 40
2.0
 40
2.0
 40
3.0
 40
3.0
 40
3.0
 40
4.0
 40
4.0
 40
4.0
 40
5.0
 40
5.0
 40
5.0
 40
6.0
 40
6.0
 40
6.0
 40
7.0
 40
7.0
 40
7.0
 40
8.0
 40
8.0
 40
8.0
 40
9.0
 40
9.0
 40
9.0
 40
10.0
 40
10.0
 40
10.0
 40
11.0
 40
11.0
 40
11.0
 40
11.0
 10
172.08596462673609
 20
83.989705403645829
 30
0.0
 10
172.08596462673609
 20
83.343749999999986
 30
0.0
 10
171.87443576388887
 20
82.852823893229157
 30
0.0
 10
171.45172254774303
 20
82.51727159288194
 30
0.0
 10
171.0286648220486
 20
82.181374782986097
 30
0.0
 10
170.40579155815971
 20
82.013598632812489
 30
0.0
 10
169.58275824652776
 20
82.013598632812489
 30
0.0
 10
169.58275824652776
 20
82.013598632812489
 30
0.0
 10
168.02247450086804
 20
82.013598632812489
 30
0.0
 10
168.02247450086804
 20
82.013598632812489
 30
0.0
 10
168.02247450086804
 20
82.013598632812489
 30
0.0
 10
168.02247450086804
 20
88.631627061631931
 30
0.0
 10
168.02247450086804
 20
88.631627061631931
 30
0.0
 10
168.02247450086804
 20
88.631627061631931
 30
0.0
 10
169.4070583767361
 20
88.631627061631931
 30
0.0
 10
169.4070583767361
 20
88.631627061631931
 30
0.0
 10
170.19012858072915
 20
88.631627061631931
 30
0.0
 10
170.76649305555554
 20
88.490378146701374
 30
0.0
 10
171.13649631076387
 20
88.207191297743051
 30
0.0
 10
171.50684407552083
 20
87.924693467881937
 30
0.0
 10
171.69184570312498
 20
87.484410264756931
 30
0.0
 10
171.69184570312498
 20
86.887030707465271
 30
0.0
 10
171.69184570312498
 20
86.527362738715269
 30
0.0
 10
171.59676106770831
 20
86.231429036458323
 30
0.0
 10
171.40659179687498
 20
85.999918619791657
 30
0.0
 10
171.21676703559027
 20
85.768408203124991
 30
0.0
 10
170.95459526909721
 20
85.621302625868054
 30
0.0
 10
170.62007649739581
 20
85.558601888020831
 30
0.0
 10
171.02315266927081
 20
85.521394856770826
 30
0.0
 10
171.36800672743053
 20
85.353274197048606
 30
0.0
 10
171.6553276909722
 20
85.05492892795138
 30
0.0
 10
171.94264865451387
 20
84.755894639756931
 30
0.0
 10
172.08596462673609
 20
84.401049804687489
 30
0.0
 10
172.08596462673609
 20
83.989705403645829
 30
0.0
  0
SPLINE
  5
2FF
100
AcDbEntity
  8
CALQUE_1
 62
     7
100
AcDbSpline
210
0.0
220
0.0
230
1.0
 70
     8
 71
     3
 72
    26
 73
    22
 74
     0
 42
0.00000001
 43
0.00000001
 40
0.0
 40
0.0
 40
0.0
 40
0.0
 40
1.0
 40
1.0
 40
1.0
 40
2.0
 40
2.0
 40
2.0
 40
3.0
 40
3.0
 40
3.0
 40
4.0
 40
4.0
 40
4.0
 40
5.0
 40
5.0
 40
5.0
 40
6.0
 40
6.0
 40
6.0
 40
7.0
 40
7.0
 40
7.0
 40
7.0
 10
170.44437662760416
 20
86.788500976562489
 30
0.0
 10
170.44437662760416
 20
87.05721842447916
 30
0.0
 10
170.36376139322914
 20
87.248765733506943
 30
0.0
 10
170.20218641493054
 20
87.363142903645823
 30
0.0
 10
170.04061143663193
 20
87.477175564236106
 30
0.0
 10
169.77568359374999
 20
87.534708658854157
 30
0.0
 10
169.4070583767361
 20
87.534708658854157
 30
0.0
 10
169.4070583767361
 20
87.534708658854157
 30
0.0
 10
169.33850097656247
 20
87.534708658854157
 30
0.0
 10
169.33850097656247
 20
87.534708658854157
 30
0.0
 10
169.33850097656247
 20
87.534708658854157
 30
0.0
 10
169.33850097656247
 20
86.017144097222214
 30
0.0
 10
169.33850097656247
 20
86.017144097222214
 30
0.0
 10
169.33850097656247
 20
86.017144097222214
 30
0.0
 10
169.4070583767361
 20
86.017144097222214
 30
0.0
 10
169.4070583767361
 20
86.017144097222214
 30
0.0
 10
169.74433322482636
 20
86.017144097222214
 30
0.0
 10
170.00133734809026
 20
86.083634440104163
 30
0.0
 10
170.17875976562499
 20
86.216615125868046
 30
0.0
 10
170.35583767361109
 20
86.349251302083331
 30
0.0
 10
170.44437662760416
 20
86.539765082465266
 30
0.0
 10
170.44437662760416
 20
86.788500976562489
 30
0.0
  0
SPLINE
  5
2FE
100
AcDbEntity
  8
CALQUE_1
 62
     7
100
AcDbSpline
210
0.0
220
0.0
230
1.0
 70
     8
 71
     3
 72
    26
 73
    22
 74
     0
 42
0.00000001
 43
0.00000001
 40
0.0
 40
0.0
 40
0.0
 40
0.0
 40
1.0
 40
1.0
 40
1.0
 40
2.0
 40
2.0
 40
2.0
 40
3.0
 40
3.0
 40
3.0
 40
4.0
 40
4.0
 40
4.0
 40
5.0
 40
5.0
 40
5.0
 40
6.0
 40
6.0
 40
6.0
 40
7.0
 40
7.0
 40
7.0
 40
7.0
 10
170.74444444444444
 20
84.058262803819431
 30
0.0
 10
170.74444444444444
 20
84.349717881944443
 30
0.0
 10
170.65246039496526
 20
84.573304578993046
 30
0.0
 10
170.46814778645833
 20
84.729022894965269
 30
0.0
 10
170.28383517795137
 20
84.884741210937491
 30
0.0
 10
170.01856282552083
 20
84.962600368923603
 30
0.0
 10
169.67301974826387
 20
84.962600368923603
 30
0.0
 10
169.67301974826387
 20
84.962600368923603
 30
0.0
 10
169.33850097656247
 20
84.962600368923603
 30
0.0
 10
169.33850097656247
 20
84.962600368923603
 30
0.0
 10
169.33850097656247
 20
84.962600368923603
 30
0.0
 10
169.33850097656247
 20
83.110861545138874
 30
0.0
 10
169.33850097656247
 20
83.110861545138874
 30
0.0
 10
169.33850097656247
 20
83.110861545138874
 30
0.0
 10
169.67301974826387
 20
83.110861545138874
 30
0.0
 10
169.67301974826387
 20
83.110861545138874
 30
0.0
 10
170.02993164062499
 20
83.110861545138874
 30
0.0
 10
170.29796006944443
 20
83.189409722222209
 30
0.0
 10
170.47641601562498
 20
83.346850585937489
 30
0.0
 10
170.65521647135415
 20
83.503946940104157
 30
0.0
 10
170.74444444444444
 20
83.740969509548606
 30
0.0
 10
170.74444444444444
 20
84.058262803819431
 30
0.0
  0
POLYLINE
  5
2F5
100
AcDbEntity
  8
CALQUE_1
 62
     7
100
AcDb2dPolyline
 66
     1
 10
0.0
 20
0.0
 30
0.0
 70
     1
  0
VERTEX
  5
2F6
100
AcDbEntity
  8
CALQUE_1
 62
     7
100
AcDbVertex
100
AcDb2dVertex
 10
177.778296
 20
88.631627
 30
0.0
  0
VERTEX
  5
2F7
100
AcDbEntity
  8
CALQUE_1
 62
     7
100
AcDbVertex
100
AcDb2dVertex
 10
175.626489
 20
82.013599
 30
0.0
  0
VERTEX
  5
2F8
100
AcDbEntity
  8
CALQUE_1
 62
     7
100
AcDbVertex
100
AcDb2dVertex
 10
174.22468
 20
82.013599
 30
0.0
  0
VERTEX
  5
2F9
100
AcDbEntity
  8
CALQUE_1
 62
     7
100
AcDbVertex
100
AcDb2dVertex
 10
172.073218
 20
88.631627
 30
0.0
  0
VERTEX
  5
2FA
100
AcDbEntity
  8
CALQUE_1
 62
     7
100
AcDbVertex
100
AcDb2dVertex
 10
173.556331
 20
88.631627
 30
0.0
  0
VERTEX
  5
2FB
100
AcDbEntity
  8
CALQUE_1
 62
     7
100
AcDbVertex
100
AcDb2dVertex
 10
174.923345
 20
83.715476
 30
0.0
  0
VERTEX
  5
2FC
100
AcDbEntity
  8
CALQUE_1
 62
     7
100
AcDbVertex
100
AcDb2dVertex
 10
176.295182
 20
88.631627
 30
0.0
  0
SEQEND
  5
2FD
100
AcDbEntity
  8
CALQUE_1
 62
     7
  0
POLYLINE
  5
2E9
100
AcDbEntity
  8
CALQUE_1
 62
     7
100
AcDb2dPolyline
 66
     1
 10
0.0
 20
0.0
 30
0.0
 70
     1
  0
VERTEX
  5
2EA
100
AcDbEntity
  8
CALQUE_1
 62
     7
100
AcDbVertex
100
AcDb2dVertex
 10
181.528971
 20
84.804126
 30
0.0
  0
VERTEX
  5
2EB
100
AcDbEntity
  8
CALQUE_1
 62
     7
100
AcDbVertex
100
AcDb2dVertex
 10
179.587316
 20
84.804126
 30
0.0
  0
VERTEX
  5
2EC
100
AcDbEntity
  8
CALQUE_1
 62
     7
100
AcDbVertex
100
AcDb2dVertex
 10
179.587316
 20
82.013599
 30
0.0
  0
VERTEX
  5
2ED
100
AcDbEntity
  8
CALQUE_1
 62
     7
100
AcDbVertex
100
AcDb2dVertex
 10
178.297127
 20
82.013599
 30
0.0
  0
VERTEX
  5
2EE
100
AcDbEntity
  8
CALQUE_1
 62
     7
100
AcDbVertex
100
AcDb2dVertex
 10
178.297127
 20
88.631627
 30
0.0
  0
VERTEX
  5
2EF
100
AcDbEntity
  8
CALQUE_1
 62
     7
100
AcDbVertex
100
AcDb2dVertex
 10
181.528971
 20
88.631627
 30
0.0
  0
VERTEX
  5
2F0
100
AcDbEntity
  8
CALQUE_1
 62
     7
100
AcDbVertex
100
AcDb2dVertex
 10
181.528971
 20
87.491645
 30
0.0
  0
VERTEX
  5
2F1
100
AcDbEntity
  8
CALQUE_1
 62
     7
100
AcDbVertex
100
AcDb2dVertex
 10
179.587316
 20
87.491645
 30
0.0
  0
VERTEX
  5
2F2
100
AcDbEntity
  8
CALQUE_1
 62
     7
100
AcDbVertex
100
AcDb2dVertex
 10
179.587316
 20
85.948587
 30
0.0
  0
VERTEX
  5
2F3
100
AcDbEntity
  8
CALQUE_1
 62
     7
100
AcDbVertex
100
AcDb2dVertex
 10
181.528971
 20
85.948587
 30
0.0
  0
SEQEND
  5
2F4
100
AcDbEntity
  8
CALQUE_1
 62
     7
  0
POLYLINE
  5
2DF
100
AcDbEntity
  8
CALQUE_1
 62
     7
100
AcDb2dPolyline
 66
     1
 10
0.0
 20
0.0
 30
0.0
 70
     1
  0
VERTEX
  5
2E0
100
AcDbEntity
  8
CALQUE_1
 62
     7
100
AcDbVertex
100
AcDb2dVertex
 10
187.392868
 20
82.013599
 30
0.0
  0
VERTEX
  5
2E1
100
AcDbEntity
  8
CALQUE_1
 62
     7
100
AcDbVertex
100
AcDb2dVertex
 10
185.952474
 20
82.013599
 30
0.0
  0
VERTEX
  5
2E2
100
AcDbEntity
  8
CALQUE_1
 62
     7
100
AcDbVertex
100
AcDb2dVertex
 10
185.519425
 20
83.479487
 30
0.0
  0
VERTEX
  5
2E3
100
AcDbEntity
  8
CALQUE_1
 62
     7
100
AcDbVertex
100
AcDb2dVertex
 10
183.247729
 20
83.479487
 30
0.0
  0
VERTEX
  5
2E4
100
AcDbEntity
  8
CALQUE_1
 62
     7
100
AcDbVertex
100
AcDb2dVertex
 10
182.810547
 20
82.013599
 30
0.0
  0
VERTEX
  5
2E5
100
AcDbEntity
  8
CALQUE_1
 62
     7
100
AcDbVertex
100
AcDb2dVertex
 10
181.370497
 20
82.013599
 30
0.0
  0
VERTEX
  5
2E6
100
AcDbEntity
  8
CALQUE_1
 62
     7
100
AcDbVertex
100
AcDb2dVertex
 10
183.616355
 20
88.631627
 30
0.0
  0
VERTEX
  5
2E7
100
AcDbEntity
  8
CALQUE_1
 62
     7
100
AcDbVertex
100
AcDb2dVertex
 10
185.1508
 20
88.631627
 30
0.0
  0
SEQEND
  5
2E8
100
AcDbEntity
  8
CALQUE_1
 62
     7
  0
POLYLINE
  5
2DA
100
AcDbEntity
  8
CALQUE_1
 62
     7
100
AcDb2dPolyline
 66
     1
 10
0.0
 20
0.0
 30
0.0
 70
     1
  0
VERTEX
  5
2DB
100
AcDbEntity
  8
CALQUE_1
 62
     7
100
AcDbVertex
100
AcDb2dVertex
 10
185.215224
 20
84.53403
 30
0.0
  0
VERTEX
  5
2DC
100
AcDbEntity
  8
CALQUE_1
 62
     7
100
AcDbVertex
100
AcDb2dVertex
 10
184.379443
 20
87.350052
 30
0.0
  0
VERTEX
  5
2DD
100
AcDbEntity
  8
CALQUE_1
 62
     7
100
AcDbVertex
100
AcDb2dVertex
 10
183.547797
 20
84.53403
 30
0.0
  0
SEQEND
  5
2DE
100
AcDbEntity
  8
CALQUE_1
 62
     7
  0
POLYLINE
  5
2CE
100
AcDbEntity
  8
CALQUE_1
 62
     7
100
AcDb2dPolyline
 66
     1
 10
0.0
 20
0.0
 30
0.0
 70
     1
  0
VERTEX
  5
2CF
100
AcDbEntity
  8
CALQUE_1
 62
     7
100
AcDbVertex
100
AcDb2dVertex
 10
164.336222
 20
71.49021
 30
0.0
  0
VERTEX
  5
2D0
100
AcDbEntity
  8
CALQUE_1
 62
     7
100
AcDbVertex
100
AcDb2dVertex
 10
162.394567
 20
71.49021
 30
0.0
  0
VERTEX
  5
2D1
100
AcDbEntity
  8
CALQUE_1
 62
     7
100
AcDbVertex
100
AcDb2dVertex
 10
162.394567
 20
68.699683
 30
0.0
  0
VERTEX
  5
2D2
100
AcDbEntity
  8
CALQUE_1
 62
     7
100
AcDbVertex
100
AcDb2dVertex
 10
161.104378
 20
68.699683
 30
0.0
  0
VERTEX
  5
2D3
100
AcDbEntity
  8
CALQUE_1
 62
     7
100
AcDbVertex
100
AcDb2dVertex
 10
161.104378
 20
75.318056
 30
0.0
  0
VERTEX
  5
2D4
100
AcDbEntity
  8
CALQUE_1
 62
     7
100
AcDbVertex
100
AcDb2dVertex
 10
164.336222
 20
75.318056
 30
0.0
  0
VERTEX
  5
2D5
100
AcDbEntity
  8
CALQUE_1
 62
     7
100
AcDbVertex
100
AcDb2dVertex
 10
164.336222
 20
74.178073
 30
0.0
  0
VERTEX
  5
2D6
100
AcDbEntity
  8
CALQUE_1
 62
     7
100
AcDbVertex
100
AcDb2dVertex
 10
162.394567
 20
74.178073
 30
0.0
  0
VERTEX
  5
2D7
100
AcDbEntity
  8
CALQUE_1
 62
     7
100
AcDbVertex
100
AcDb2dVertex
 10
162.394567
 20
72.634671
 30
0.0
  0
VERTEX
  5
2D8
100
AcDbEntity
  8
CALQUE_1
 62
     7
100
AcDbVertex
100
AcDb2dVertex
 10
164.336222
 20
72.634671
 30
0.0
  0
SEQEND
  5
2D9
100
AcDbEntity
  8
CALQUE_1
 62
     7
  0
POLYLINE
  5
2C8
100
AcDbEntity
  8
CALQUE_1
 62
     7
100
AcDb2dPolyline
 66
     1
 10
0.0
 20
0.0
 30
0.0
 70
     1
  0
VERTEX
  5
2C9
100
AcDbEntity
  8
CALQUE_1
 62
     7
100
AcDbVertex
100
AcDb2dVertex
 10
167.246639
 20
70.341615
 30
0.0
  0
VERTEX
  5
2CA
100
AcDbEntity
  8
CALQUE_1
 62
     7
100
AcDbVertex
100
AcDb2dVertex
 10
164.850575
 20
70.341615
 30
0.0
  0
VERTEX
  5
2CB
100
AcDbEntity
  8
CALQUE_1
 62
     7
100
AcDbVertex
100
AcDb2dVertex
 10
164.850575
 20
71.481942
 30
0.0
  0
VERTEX
  5
2CC
100
AcDbEntity
  8
CALQUE_1
 62
     7
100
AcDbVertex
100
AcDb2dVertex
 10
167.246639
 20
71.481942
 30
0.0
  0
SEQEND
  5
2CD
100
AcDbEntity
  8
CALQUE_1
 62
     7
  0
SPLINE
  5
2C7
100
AcDbEntity
  8
CALQUE_1
 62
     7
100
AcDbSpline
210
0.0
220
0.0
230
1.0
 70
     8
 71
     3
 72
    38
 73
    34
 74
     0
 42
0.00000001
 43
0.00000001
 40
0.0
 40
0.0
 40
0.0
 40
0.0
 40
1.0
 40
1.0
 40
1.0
 40
2.0
 40
2.0
 40
2.0
 40
3.0
 40
3.0
 40
3.0
 40
4.0
 40
4.0
 40
4.0
 40
5.0
 40
5.0
 40
5.0
 40
6.0
 40
6.0
 40
6.0
 40
7.0
 40
7.0
 40
7.0
 40
8.0
 40
8.0
 40
8.0
 40
9.0
 40
9.0
 40
9.0
 40
10.0
 40
10.0
 40
10.0
 40
11.0
 40
11.0
 40
11.0
 40
11.0
 10
172.08596462673609
 20
70.675789388020831
 30
0.0
 10
172.08596462673609
 20
70.0301784939236
 30
0.0
 10
171.87443576388887
 20
69.539252387152771
 30
0.0
 10
171.45172254774303
 20
69.203355577256943
 30
0.0
 10
171.0286648220486
 20
68.867803276909711
 30
0.0
 10
170.40579155815971
 20
68.699682617187491
 30
0.0
 10
169.58275824652776
 20
68.699682617187491
 30
0.0
 10
169.58275824652776
 20
68.699682617187491
 30
0.0
 10
168.02247450086804
 20
68.699682617187491
 30
0.0
 10
168.02247450086804
 20
68.699682617187491
 30
0.0
 10
168.02247450086804
 20
68.699682617187491
 30
0.0
 10
168.02247450086804
 20
75.318055555555546
 30
0.0
 10
168.02247450086804
 20
75.318055555555546
 30
0.0
 10
168.02247450086804
 20
75.318055555555546
 30
0.0
 10
169.4070583767361
 20
75.318055555555546
 30
0.0
 10
169.4070583767361
 20
75.318055555555546
 30
0.0
 10
170.19012858072915
 20
75.318055555555546
 30
0.0
 10
170.76649305555554
 20
75.176462131076377
 30
0.0
 10
171.13649631076387
 20
74.893619791666666
 30
0.0
 10
171.50684407552083
 20
74.61077745225694
 30
0.0
 10
171.69184570312498
 20
74.170494249131934
 30
0.0
 10
171.69184570312498
 20
73.573459201388886
 30
0.0
 10
171.69184570312498
 20
73.213446723090271
 30
0.0
 10
171.59676106770831
 20
72.917857530381937
 30
0.0
 10
171.40659179687498
 20
72.686347113715271
 30
0.0
 10
171.21676703559027
 20
72.454836697048606
 30
0.0
 10
170.95459526909721
 20
72.307386610243043
 30
0.0
 10
170.62007649739581
 20
72.24468587239582
 30
0.0
 10
171.02315266927081
 20
72.207478841145829
 30
0.0
 10
171.36800672743053
 20
72.039358181423609
 30
0.0
 10
171.6553276909722
 20
71.741012912326383
 30
0.0
 10
171.94264865451387
 20
71.442323133680546
 30
0.0
 10
172.08596462673609
 20
71.087133789062491
 30
0.0
 10
172.08596462673609
 20
70.675789388020831
 30
0.0
  0
SPLINE
  5
2C6
100
AcDbEntity
  8
CALQUE_1
 62
     7
100
AcDbSpline
210
0.0
220
0.0
230
1.0
 70
     8
 71
     3
 72
    26
 73
    22
 74
     0
 42
0.00000001
 43
0.00000001
 40
0.0
 40
0.0
 40
0.0
 40
0.0
 40
1.0
 40
1.0
 40
1.0
 40
2.0
 40
2.0
 40
2.0
 40
3.0
 40
3.0
 40
3.0
 40
4.0
 40
4.0
 40
4.0
 40
5.0
 40
5.0
 40
5.0
 40
6.0
 40
6.0
 40
6.0
 40
7.0
 40
7.0
 40
7.0
 40
7.0
 10
170.44437662760416
 20
73.474929470486103
 30
0.0
 10
170.44437662760416
 20
73.743302408854163
 30
0.0
 10
170.36376139322914
 20
73.934849717881931
 30
0.0
 10
170.20218641493054
 20
74.049226888020826
 30
0.0
 10
170.04061143663193
 20
74.16360405815972
 30
0.0
 10
169.77568359374999
 20
74.22079264322916
 30
0.0
 10
169.4070583767361
 20
74.22079264322916
 30
0.0
 10
169.4070583767361
 20
74.22079264322916
 30
0.0
 10
169.33850097656247
 20
74.22079264322916
 30
0.0
 10
169.33850097656247
 20
74.22079264322916
 30
0.0
 10
169.33850097656247
 20
74.22079264322916
 30
0.0
 10
169.33850097656247
 20
72.703572591145829
 30
0.0
 10
169.33850097656247
 20
72.703572591145829
 30
0.0
 10
169.33850097656247
 20
72.703572591145829
 30
0.0
 10
169.4070583767361
 20
72.703572591145829
 30
0.0
 10
169.4070583767361
 20
72.703572591145829
 30
0.0
 10
169.74433322482636
 20
72.703572591145829
 30
0.0
 10
170.00133734809026
 20
72.769718424479166
 30
0.0
 10
170.17875976562499
 20
72.902699110243049
 30
0.0
 10
170.35583767361109
 20
73.035679796006931
 30
0.0
 10
170.44437662760416
 20
73.22619357638888
 30
0.0
 10
170.44437662760416
 20
73.474929470486103
 30
0.0
  0
SPLINE
  5
2C5
100
AcDbEntity
  8
CALQUE_1
 62
     7
100
AcDbSpline
210
0.0
220
0.0
230
1.0
 70
     8
 71
     3
 72
    26
 73
    22
 74
     0
 42
0.00000001
 43
0.00000001
 40
0.0
 40
0.0
 40
0.0
 40
0.0
 40
1.0
 40
1.0
 40
1.0
 40
2.0
 40
2.0
 40
2.0
 40
3.0
 40
3.0
 40
3.0
 40
4.0
 40
4.0
 40
4.0
 40
5.0
 40
5.0
 40
5.0
 40
6.0
 40
6.0
 40
6.0
 40
7.0
 40
7.0
 40
7.0
 40
7.0
 10
170.74444444444444
 20
70.744691297743046
 30
0.0
 10
170.74444444444444
 20
71.036146375868043
 30
0.0
 10
170.65246039496526
 20
71.259388563368049
 30
0.0
 10
170.46814778645833
 20
71.415106879340271
 30
0.0
 10
170.28383517795137
 20
71.570825195312494
 30
0.0
 10
170.01856282552083
 20
71.648684353298606
 30
0.0
 10
169.67301974826387
 20
71.648684353298606
 30
0.0
 10
169.67301974826387
 20
71.648684353298606
 30
0.0
 10
169.33850097656247
 20
71.648684353298606
 30
0.0
 10
169.33850097656247
 20
71.648684353298606
 30
0.0
 10
169.33850097656247
 20
71.648684353298606
 30
0.0
 10
169.33850097656247
 20
69.797290039062489
 30
0.0
 10
169.33850097656247
 20
69.797290039062489
 30
0.0
 10
169.33850097656247
 20
69.797290039062489
 30
0.0
 10
169.67301974826387
 20
69.797290039062489
 30
0.0
 10
169.67301974826387
 20
69.797290039062489
 30
0.0
 10
170.02993164062499
 20
69.797290039062489
 30
0.0
 10
170.29796006944443
 20
69.875838216145823
 30
0.0
 10
170.47641601562498
 20
70.032934570312491
 30
0.0
 10
170.65521647135415
 20
70.19003092447916
 30
0.0
 10
170.74444444444444
 20
70.427053493923609
 30
0.0
 10
170.74444444444444
 20
70.744691297743046
 30
0.0
  0
POLYLINE
  5
2BC
100
AcDbEntity
  8
CALQUE_1
 62
     7
100
AcDb2dPolyline
 66
     1
 10
0.0
 20
0.0
 30
0.0
 70
     1
  0
VERTEX
  5
2BD
100
AcDbEntity
  8
CALQUE_1
 62
     7
100
AcDbVertex
100
AcDb2dVertex
 10
177.778296
 20
75.318056
 30
0.0
  0
VERTEX
  5
2BE
100
AcDbEntity
  8
CALQUE_1
 62
     7
100
AcDbVertex
100
AcDb2dVertex
 10
175.626489
 20
68.699683
 30
0.0
  0
VERTEX
  5
2BF
100
AcDbEntity
  8
CALQUE_1
 62
     7
100
AcDbVertex
100
AcDb2dVertex
 10
174.22468
 20
68.699683
 30
0.0
  0
VERTEX
  5
2C0
100
AcDbEntity
  8
CALQUE_1
 62
     7
100
AcDbVertex
100
AcDb2dVertex
 10
172.073218
 20
75.318056
 30
0.0
  0
VERTEX
  5
2C1
100
AcDbEntity
  8
CALQUE_1
 62
     7
100
AcDbVertex
100
AcDb2dVertex
 10
173.556331
 20
75.318056
 30
0.0
  0
VERTEX
  5
2C2
100
AcDbEntity
  8
CALQUE_1
 62
     7
100
AcDbVertex
100
AcDb2dVertex
 10
174.923345
 20
70.40156
 30
0.0
  0
VERTEX
  5
2C3
100
AcDbEntity
  8
CALQUE_1
 62
     7
100
AcDbVertex
100
AcDb2dVertex
 10
176.295182
 20
75.318056
 30
0.0
  0
SEQEND
  5
2C4
100
AcDbEntity
  8
CALQUE_1
 62
     7
  0
POLYLINE
  5
2B0
100
AcDbEntity
  8
CALQUE_1
 62
     7
100
AcDb2dPolyline
 66
     1
 10
0.0
 20
0.0
 30
0.0
 70
     1
  0
VERTEX
  5
2B1
100
AcDbEntity
  8
CALQUE_1
 62
     7
100
AcDbVertex
100
AcDb2dVertex
 10
181.528971
 20
71.49021
 30
0.0
  0
VERTEX
  5
2B2
100
AcDbEntity
  8
CALQUE_1
 62
     7
100
AcDbVertex
100
AcDb2dVertex
 10
179.587316
 20
71.49021
 30
0.0
  0
VERTEX
  5
2B3
100
AcDbEntity
  8
CALQUE_1
 62
     7
100
AcDbVertex
100
AcDb2dVertex
 10
179.587316
 20
68.699683
 30
0.0
  0
VERTEX
  5
2B4
100
AcDbEntity
  8
CALQUE_1
 62
     7
100
AcDbVertex
100
AcDb2dVertex
 10
178.297127
 20
68.699683
 30
0.0
  0
VERTEX
  5
2B5
100
AcDbEntity
  8
CALQUE_1
 62
     7
100
AcDbVertex
100
AcDb2dVertex
 10
178.297127
 20
75.318056
 30
0.0
  0
VERTEX
  5
2B6
100
AcDbEntity
  8
CALQUE_1
 62
     7
100
AcDbVertex
100
AcDb2dVertex
 10
181.528971
 20
75.318056
 30
0.0
  0
VERTEX
  5
2B7
100
AcDbEntity
  8
CALQUE_1
 62
     7
100
AcDbVertex
100
AcDb2dVertex
 10
181.528971
 20
74.178073
 30
0.0
  0
VERTEX
  5
2B8
100
AcDbEntity
  8
CALQUE_1
 62
     7
100
AcDbVertex
100
AcDb2dVertex
 10
179.587316
 20
74.178073
 30
0.0
  0
VERTEX
  5
2B9
100
AcDbEntity
  8
CALQUE_1
 62
     7
100
AcDbVertex
100
AcDb2dVertex
 10
179.587316
 20
72.634671
 30
0.0
  0
VERTEX
  5
2BA
100
AcDbEntity
  8
CALQUE_1
 62
     7
100
AcDbVertex
100
AcDb2dVertex
 10
181.528971
 20
72.634671
 30
0.0
  0
SEQEND
  5
2BB
100
AcDbEntity
  8
CALQUE_1
 62
     7
  0
POLYLINE
  5
2A6
100
AcDbEntity
  8
CALQUE_1
 62
     7
100
AcDb2dPolyline
 66
     1
 10
0.0
 20
0.0
 30
0.0
 70
     1
  0
VERTEX
  5
2A7
100
AcDbEntity
  8
CALQUE_1
 62
     7
100
AcDbVertex
100
AcDb2dVertex
 10
187.392868
 20
68.699683
 30
0.0
  0
VERTEX
  5
2A8
100
AcDbEntity
  8
CALQUE_1
 62
     7
100
AcDbVertex
100
AcDb2dVertex
 10
185.952474
 20
68.699683
 30
0.0
  0
VERTEX
  5
2A9
100
AcDbEntity
  8
CALQUE_1
 62
     7
100
AcDbVertex
100
AcDb2dVertex
 10
185.519425
 20
70.165915
 30
0.0
  0
VERTEX
  5
2AA
100
AcDbEntity
  8
CALQUE_1
 62
     7
100
AcDbVertex
100
AcDb2dVertex
 10
183.247729
 20
70.165915
 30
0.0
  0
VERTEX
  5
2AB
100
AcDbEntity
  8
CALQUE_1
 62
     7
100
AcDbVertex
100
AcDb2dVertex
 10
182.810547
 20
68.699683
 30
0.0
  0
VERTEX
  5
2AC
100
AcDbEntity
  8
CALQUE_1
 62
     7
100
AcDbVertex
100
AcDb2dVertex
 10
181.370497
 20
68.699683
 30
0.0
  0
VERTEX
  5
2AD
100
AcDbEntity
  8
CALQUE_1
 62
     7
100
AcDbVertex
100
AcDb2dVertex
 10
183.616355
 20
75.318056
 30
0.0
  0
VERTEX
  5
2AE
100
AcDbEntity
  8
CALQUE_1
 62
     7
100
AcDbVertex
100
AcDb2dVertex
 10
185.1508
 20
75.318056
 30
0.0
  0
SEQEND
  5
2AF
100
AcDbEntity
  8
CALQUE_1
 62
     7
  0
POLYLINE
  5
2A1
100
AcDbEntity
  8
CALQUE_1
 62
     7
100
AcDb2dPolyline
 66
     1
 10
0.0
 20
0.0
 30
0.0
 70
     1
  0
VERTEX
  5
2A2
100
AcDbEntity
  8
CALQUE_1
 62
     7
100
AcDbVertex
100
AcDb2dVertex
 10
185.215224
 20
71.220114
 30
0.0
  0
VERTEX
  5
2A3
100
AcDbEntity
  8
CALQUE_1
 62
     7
100
AcDbVertex
100
AcDb2dVertex
 10
184.379443
 20
74.03648
 30
0.0
  0
VERTEX
  5
2A4
100
AcDbEntity
  8
CALQUE_1
 62
     7
100
AcDbVertex
100
AcDb2dVertex
 10
183.547797
 20
71.220114
 30
0.0
  0
SEQEND
  5
2A5
100
AcDbEntity
  8
CALQUE_1
 62
     7
  0
POLYLINE
  5
295
100
AcDbEntity
  8
CALQUE_1
 62
     7
100
AcDb2dPolyline
 66
     1
 10
0.0
 20
0.0
 30
0.0
 70
     1
  0
VERTEX
  5
296
100
AcDbEntity
  8
CALQUE_1
 62
     7
100
AcDbVertex
100
AcDb2dVertex
 10
164.336222
 20
58.176294
 30
0.0
  0
VERTEX
  5
297
100
AcDbEntity
  8
CALQUE_1
 62
     7
100
AcDbVertex
100
AcDb2dVertex
 10
162.394567
 20
58.176294
 30
0.0
  0
VERTEX
  5
298
100
AcDbEntity
  8
CALQUE_1
 62
     7
100
AcDbVertex
100
AcDb2dVertex
 10
162.394567
 20
55.386111
 30
0.0
  0
VERTEX
  5
299
100
AcDbEntity
  8
CALQUE_1
 62
     7
100
AcDbVertex
100
AcDb2dVertex
 10
161.104378
 20
55.386111
 30
0.0
  0
VERTEX
  5
29A
100
AcDbEntity
  8
CALQUE_1
 62
     7
100
AcDbVertex
100
AcDb2dVertex
 10
161.104378
 20
62.004484
 30
0.0
  0
VERTEX
  5
29B
100
AcDbEntity
  8
CALQUE_1
 62
     7
100
AcDbVertex
100
AcDb2dVertex
 10
164.336222
 20
62.004484
 30
0.0
  0
VERTEX
  5
29C
100
AcDbEntity
  8
CALQUE_1
 62
     7
100
AcDbVertex
100
AcDb2dVertex
 10
164.336222
 20
60.864157
 30
0.0
  0
VERTEX
  5
29D
100
AcDbEntity
  8
CALQUE_1
 62
     7
100
AcDbVertex
100
AcDb2dVertex
 10
162.394567
 20
60.864157
 30
0.0
  0
VERTEX
  5
29E
100
AcDbEntity
  8
CALQUE_1
 62
     7
100
AcDbVertex
100
AcDb2dVertex
 10
162.394567
 20
59.320755
 30
0.0
  0
VERTEX
  5
29F
100
AcDbEntity
  8
CALQUE_1
 62
     7
100
AcDbVertex
100
AcDb2dVertex
 10
164.336222
 20
59.320755
 30
0.0
  0
SEQEND
  5
2A0
100
AcDbEntity
  8
CALQUE_1
 62
     7
  0
POLYLINE
  5
28F
100
AcDbEntity
  8
CALQUE_1
 62
     7
100
AcDb2dPolyline
 66
     1
 10
0.0
 20
0.0
 30
0.0
 70
     1
  0
VERTEX
  5
290
100
AcDbEntity
  8
CALQUE_1
 62
     7
100
AcDbVertex
100
AcDb2dVertex
 10
167.246639
 20
57.027699
 30
0.0
  0
VERTEX
  5
291
100
AcDbEntity
  8
CALQUE_1
 62
     7
100
AcDbVertex
100
AcDb2dVertex
 10
164.850575
 20
57.027699
 30
0.0
  0
VERTEX
  5
292
100
AcDbEntity
  8
CALQUE_1
 62
     7
100
AcDbVertex
100
AcDb2dVertex
 10
164.850575
 20
58.168026
 30
0.0
  0
VERTEX
  5
293
100
AcDbEntity
  8
CALQUE_1
 62
     7
100
AcDbVertex
100
AcDb2dVertex
 10
167.246639
 20
58.168026
 30
0.0
  0
SEQEND
  5
294
100
AcDbEntity
  8
CALQUE_1
 62
     7
  0
SPLINE
  5
28E
100
AcDbEntity
  8
CALQUE_1
 62
     7
100
AcDbSpline
210
0.0
220
0.0
230
1.0
 70
     8
 71
     3
 72
    38
 73
    34
 74
     0
 42
0.00000001
 43
0.00000001
 40
0.0
 40
0.0
 40
0.0
 40
0.0
 40
1.0
 40
1.0
 40
1.0
 40
2.0
 40
2.0
 40
2.0
 40
3.0
 40
3.0
 40
3.0
 40
4.0
 40
4.0
 40
4.0
 40
5.0
 40
5.0
 40
5.0
 40
6.0
 40
6.0
 40
6.0
 40
7.0
 40
7.0
 40
7.0
 40
8.0
 40
8.0
 40
8.0
 40
9.0
 40
9.0
 40
9.0
 40
10.0
 40
10.0
 40
10.0
 40
11.0
 40
11.0
 40
11.0
 40
11.0
 10
172.08596462673609
 20
57.362217881944439
 30
0.0
 10
172.08596462673609
 20
56.716262478298603
 30
0.0
 10
171.87443576388887
 20
56.225680881076386
 30
0.0
 10
171.45172254774303
 20
55.88978407118055
 30
0.0
 10
171.0286648220486
 20
55.553887261284714
 30
0.0
 10
170.40579155815971
 20
55.386111111111106
 30
0.0
 10
169.58275824652776
 20
55.386111111111106
 30
0.0
 10
169.58275824652776
 20
55.386111111111106
 30
0.0
 10
168.02247450086804
 20
55.386111111111106
 30
0.0
 10
168.02247450086804
 20
55.386111111111106
 30
0.0
 10
168.02247450086804
 20
55.386111111111106
 30
0.0
 10
168.02247450086804
 20
62.00448404947916
 30
0.0
 10
168.02247450086804
 20
62.00448404947916
 30
0.0
 10
168.02247450086804
 20
62.00448404947916
 30
0.0
 10
169.4070583767361
 20
62.00448404947916
 30
0.0
 10
169.4070583767361
 20
62.00448404947916
 30
0.0
 10
170.19012858072915
 20
62.00448404947916
 30
0.0
 10
170.76649305555554
 20
61.862890624999991
 30
0.0
 10
171.13649631076387
 20
61.580048285590273
 30
0.0
 10
171.50684407552083
 20
61.296861436631936
 30
0.0
 10
171.69184570312498
 20
60.856922743055549
 30
0.0
 10
171.69184570312498
 20
60.259887695312493
 30
0.0
 10
171.69184570312498
 20
59.899530707465274
 30
0.0
 10
171.59676106770831
 20
59.60394151475694
 30
0.0
 10
171.40659179687498
 20
59.372431098090274
 30
0.0
 10
171.21676703559027
 20
59.140920681423609
 30
0.0
 10
170.95459526909721
 20
58.993815104166664
 30
0.0
 10
170.62007649739581
 20
58.93076985677083
 30
0.0
 10
171.02315266927081
 20
58.893562825520831
 30
0.0
 10
171.36800672743053
 20
58.725786675347216
 30
0.0
 10
171.6553276909722
 20
58.427096896701386
 30
0.0
 10
171.94264865451387
 20
58.12875162760416
 30
0.0
 10
172.08596462673609
 20
57.773562282986106
 30
0.0
 10
172.08596462673609
 20
57.362217881944439
 30
0.0
  0
SPLINE
  5
28D
100
AcDbEntity
  8
CALQUE_1
 62
     7
100
AcDbSpline
210
0.0
220
0.0
230
1.0
 70
     8
 71
     3
 72
    26
 73
    22
 74
     0
 42
0.00000001
 43
0.00000001
 40
0.0
 40
0.0
 40
0.0
 40
0.0
 40
1.0
 40
1.0
 40
1.0
 40
2.0
 40
2.0
 40
2.0
 40
3.0
 40
3.0
 40
3.0
 40
4.0
 40
4.0
 40
4.0
 40
5.0
 40
5.0
 40
5.0
 40
6.0
 40
6.0
 40
6.0
 40
7.0
 40
7.0
 40
7.0
 40
7.0
 10
170.44437662760416
 20
60.161357964409717
 30
0.0
 10
170.44437662760416
 20
60.42973090277777
 30
0.0
 10
170.36376139322914
 20
60.620933702256941
 30
0.0
 10
170.20218641493054
 20
60.735310872395829
 30
0.0
 10
170.04061143663193
 20
60.849688042534716
 30
0.0
 10
169.77568359374999
 20
60.906876627604163
 30
0.0
 10
169.4070583767361
 20
60.906876627604163
 30
0.0
 10
169.4070583767361
 20
60.906876627604163
 30
0.0
 10
169.33850097656247
 20
60.906876627604163
 30
0.0
 10
169.33850097656247
 20
60.906876627604163
 30
0.0
 10
169.33850097656247
 20
60.906876627604163
 30
0.0
 10
169.33850097656247
 20
59.389656575520831
 30
0.0
 10
169.33850097656247
 20
59.389656575520831
 30
0.0
 10
169.33850097656247
 20
59.389656575520831
 30
0.0
 10
169.4070583767361
 20
59.389656575520831
 30
0.0
 10
169.4070583767361
 20
59.389656575520831
 30
0.0
 10
169.74433322482636
 20
59.389656575520831
 30
0.0
 10
170.00133734809026
 20
59.455802408854161
 30
0.0
 10
170.17875976562499
 20
59.588783094618051
 30
0.0
 10
170.35583767361109
 20
59.721763780381941
 30
0.0
 10
170.44437662760416
 20
59.912622070312494
 30
0.0
 10
170.44437662760416
 20
60.161357964409717
 30
0.0
  0
SPLINE
  5
28C
100
AcDbEntity
  8
CALQUE_1
 62
     7
100
AcDbSpline
210
0.0
220
0.0
230
1.0
 70
     8
 71
     3
 72
    26
 73
    22
 74
     0
 42
0.00000001
 43
0.00000001
 40
0.0
 40
0.0
 40
0.0
 40
0.0
 40
1.0
 40
1.0
 40
1.0
 40
2.0
 40
2.0
 40
2.0
 40
3.0
 40
3.0
 40
3.0
 40
4.0
 40
4.0
 40
4.0
 40
5.0
 40
5.0
 40
5.0
 40
6.0
 40
6.0
 40
6.0
 40
7.0
 40
7.0
 40
7.0
 40
7.0
 10
170.74444444444444
 20
57.430775282118049
 30
0.0
 10
170.74444444444444
 20
57.722230360243053
 30
0.0
 10
170.65246039496526
 20
57.945817057291663
 30
0.0
 10
170.46814778645833
 20
58.101535373263886
 30
0.0
 10
170.28383517795137
 20
58.257253689236109
 30
0.0
 10
170.01856282552083
 20
58.33511284722222
 30
0.0
 10
169.67301974826387
 20
58.33511284722222
 30
0.0
 10
169.67301974826387
 20
58.33511284722222
 30
0.0
 10
169.33850097656247
 20
58.33511284722222
 30
0.0
 10
169.33850097656247
 20
58.33511284722222
 30
0.0
 10
169.33850097656247
 20
58.33511284722222
 30
0.0
 10
169.33850097656247
 20
56.483374023437491
 30
0.0
 10
169.33850097656247
 20
56.483374023437491
 30
0.0
 10
169.33850097656247
 20
56.483374023437491
 30
0.0
 10
169.67301974826387
 20
56.483374023437491
 30
0.0
 10
169.67301974826387
 20
56.483374023437491
 30
0.0
 10
170.02993164062499
 20
56.483374023437491
 30
0.0
 10
170.29796006944443
 20
56.561922200520826
 30
0.0
 10
170.47641601562498
 20
56.719018554687494
 30
0.0
 10
170.65521647135415
 20
56.876114908854163
 30
0.0
 10
170.74444444444444
 20
57.113481987847216
 30
0.0
 10
170.74444444444444
 20
57.430775282118049
 30
0.0
  0
POLYLINE
  5
283
100
AcDbEntity
  8
CALQUE_1
 62
     7
100
AcDb2dPolyline
 66
     1
 10
0.0
 20
0.0
 30
0.0
 70
     1
  0
VERTEX
  5
284
100
AcDbEntity
  8
CALQUE_1
 62
     7
100
AcDbVertex
100
AcDb2dVertex
 10
177.778296
 20
62.004484
 30
0.0
  0
VERTEX
  5
285
100
AcDbEntity
  8
CALQUE_1
 62
     7
100
AcDbVertex
100
AcDb2dVertex
 10
175.626489
 20
55.386111
 30
0.0
  0
VERTEX
  5
286
100
AcDbEntity
  8
CALQUE_1
 62
     7
100
AcDbVertex
100
AcDb2dVertex
 10
174.22468
 20
55.386111
 30
0.0
  0
VERTEX
  5
287
100
AcDbEntity
  8
CALQUE_1
 62
     7
100
AcDbVertex
100
AcDb2dVertex
 10
172.073218
 20
62.004484
 30
0.0
  0
VERTEX
  5
288
100
AcDbEntity
  8
CALQUE_1
 62
     7
100
AcDbVertex
100
AcDb2dVertex
 10
173.556331
 20
62.004484
 30
0.0
  0
VERTEX
  5
289
100
AcDbEntity
  8
CALQUE_1
 62
     7
100
AcDbVertex
100
AcDb2dVertex
 10
174.923345
 20
57.087644
 30
0.0
  0
VERTEX
  5
28A
100
AcDbEntity
  8
CALQUE_1
 62
     7
100
AcDbVertex
100
AcDb2dVertex
 10
176.295182
 20
62.004484
 30
0.0
  0
SEQEND
  5
28B
100
AcDbEntity
  8
CALQUE_1
 62
     7
  0
POLYLINE
  5
277
100
AcDbEntity
  8
CALQUE_1
 62
     7
100
AcDb2dPolyline
 66
     1
 10
0.0
 20
0.0
 30
0.0
 70
     1
  0
VERTEX
  5
278
100
AcDbEntity
  8
CALQUE_1
 62
     7
100
AcDbVertex
100
AcDb2dVertex
 10
181.528971
 20
58.176294
 30
0.0
  0
VERTEX
  5
279
100
AcDbEntity
  8
CALQUE_1
 62
     7
100
AcDbVertex
100
AcDb2dVertex
 10
179.587316
 20
58.176294
 30
0.0
  0
VERTEX
  5
27A
100
AcDbEntity
  8
CALQUE_1
 62
     7
100
AcDbVertex
100
AcDb2dVertex
 10
179.587316
 20
55.386111
 30
0.0
  0
VERTEX
  5
27B
100
AcDbEntity
  8
CALQUE_1
 62
     7
100
AcDbVertex
100
AcDb2dVertex
 10
178.297127
 20
55.386111
 30
0.0
  0
VERTEX
  5
27C
100
AcDbEntity
  8
CALQUE_1
 62
     7
100
AcDbVertex
100
AcDb2dVertex
 10
178.297127
 20
62.004484
 30
0.0
  0
VERTEX
  5
27D
100
AcDbEntity
  8
CALQUE_1
 62
     7
100
AcDbVertex
100
AcDb2dVertex
 10
181.528971
 20
62.004484
 30
0.0
  0
VERTEX
  5
27E
100
AcDbEntity
  8
CALQUE_1
 62
     7
100
AcDbVertex
100
AcDb2dVertex
 10
181.528971
 20
60.864157
 30
0.0
  0
VERTEX
  5
27F
100
AcDbEntity
  8
CALQUE_1
 62
     7
100
AcDbVertex
100
AcDb2dVertex
 10
179.587316
 20
60.864157
 30
0.0
  0
VERTEX
  5
280
100
AcDbEntity
  8
CALQUE_1
 62
     7
100
AcDbVertex
100
AcDb2dVertex
 10
179.587316
 20
59.320755
 30
0.0
  0
VERTEX
  5
281
100
AcDbEntity
  8
CALQUE_1
 62
     7
100
AcDbVertex
100
AcDb2dVertex
 10
181.528971
 20
59.320755
 30
0.0
  0
SEQEND
  5
282
100
AcDbEntity
  8
CALQUE_1
 62
     7
  0
POLYLINE
  5
26D
100
AcDbEntity
  8
CALQUE_1
 62
     7
100
AcDb2dPolyline
 66
     1
 10
0.0
 20
0.0
 30
0.0
 70
     1
  0
VERTEX
  5
26E
100
AcDbEntity
  8
CALQUE_1
 62
     7
100
AcDbVertex
100
AcDb2dVertex
 10
187.392868
 20
55.386111
 30
0.0
  0
VERTEX
  5
26F
100
AcDbEntity
  8
CALQUE_1
 62
     7
100
AcDbVertex
100
AcDb2dVertex
 10
185.952474
 20
55.386111
 30
0.0
  0
VERTEX
  5
270
100
AcDbEntity
  8
CALQUE_1
 62
     7
100
AcDbVertex
100
AcDb2dVertex
 10
185.519425
 20
56.851999
 30
0.0
  0
VERTEX
  5
271
100
AcDbEntity
  8
CALQUE_1
 62
     7
100
AcDbVertex
100
AcDb2dVertex
 10
183.247729
 20
56.851999
 30
0.0
  0
VERTEX
  5
272
100
AcDbEntity
  8
CALQUE_1
 62
     7
100
AcDbVertex
100
AcDb2dVertex
 10
182.810547
 20
55.386111
 30
0.0
  0
VERTEX
  5
273
100
AcDbEntity
  8
CALQUE_1
 62
     7
100
AcDbVertex
100
AcDb2dVertex
 10
181.370497
 20
55.386111
 30
0.0
  0
VERTEX
  5
274
100
AcDbEntity
  8
CALQUE_1
 62
     7
100
AcDbVertex
100
AcDb2dVertex
 10
183.616355
 20
62.004484
 30
0.0
  0
VERTEX
  5
275
100
AcDbEntity
  8
CALQUE_1
 62
     7
100
AcDbVertex
100
AcDb2dVertex
 10
185.1508
 20
62.004484
 30
0.0
  0
SEQEND
  5
276
100
AcDbEntity
  8
CALQUE_1
 62
     7
  0
POLYLINE
  5
268
100
AcDbEntity
  8
CALQUE_1
 62
     7
100
AcDb2dPolyline
 66
     1
 10
0.0
 20
0.0
 30
0.0
 70
     1
  0
VERTEX
  5
269
100
AcDbEntity
  8
CALQUE_1
 62
     7
100
AcDbVertex
100
AcDb2dVertex
 10
185.215224
 20
57.906543
 30
0.0
  0
VERTEX
  5
26A
100
AcDbEntity
  8
CALQUE_1
 62
     7
100
AcDbVertex
100
AcDb2dVertex
 10
184.379443
 20
60.722909
 30
0.0
  0
VERTEX
  5
26B
100
AcDbEntity
  8
CALQUE_1
 62
     7
100
AcDbVertex
100
AcDb2dVertex
 10
183.547797
 20
57.906543
 30
0.0
  0
SEQEND
  5
26C
100
AcDbEntity
  8
CALQUE_1
 62
     7
  0
POLYLINE
  5
25C
100
AcDbEntity
  8
CALQUE_1
 62
     7
100
AcDb2dPolyline
 66
     1
 10
0.0
 20
0.0
 30
0.0
 70
     1
  0
VERTEX
  5
25D
100
AcDbEntity
  8
CALQUE_1
 62
     7
100
AcDbVertex
100
AcDb2dVertex
 10
164.336222
 20
44.862722
 30
0.0
  0
VERTEX
  5
25E
100
AcDbEntity
  8
CALQUE_1
 62
     7
100
AcDbVertex
100
AcDb2dVertex
 10
162.394567
 20
44.862722
 30
0.0
  0
VERTEX
  5
25F
100
AcDbEntity
  8
CALQUE_1
 62
     7
100
AcDbVertex
100
AcDb2dVertex
 10
162.394567
 20
42.072195
 30
0.0
  0
VERTEX
  5
260
100
AcDbEntity
  8
CALQUE_1
 62
     7
100
AcDbVertex
100
AcDb2dVertex
 10
161.104378
 20
42.072195
 30
0.0
  0
VERTEX
  5
261
100
AcDbEntity
  8
CALQUE_1
 62
     7
100
AcDbVertex
100
AcDb2dVertex
 10
161.104378
 20
48.690568
 30
0.0
  0
VERTEX
  5
262
100
AcDbEntity
  8
CALQUE_1
 62
     7
100
AcDbVertex
100
AcDb2dVertex
 10
164.336222
 20
48.690568
 30
0.0
  0
VERTEX
  5
263
100
AcDbEntity
  8
CALQUE_1
 62
     7
100
AcDbVertex
100
AcDb2dVertex
 10
164.336222
 20
47.550241
 30
0.0
  0
VERTEX
  5
264
100
AcDbEntity
  8
CALQUE_1
 62
     7
100
AcDbVertex
100
AcDb2dVertex
 10
162.394567
 20
47.550241
 30
0.0
  0
VERTEX
  5
265
100
AcDbEntity
  8
CALQUE_1
 62
     7
100
AcDbVertex
100
AcDb2dVertex
 10
162.394567
 20
46.007183
 30
0.0
  0
VERTEX
  5
266
100
AcDbEntity
  8
CALQUE_1
 62
     7
100
AcDbVertex
100
AcDb2dVertex
 10
164.336222
 20
46.007183
 30
0.0
  0
SEQEND
  5
267
100
AcDbEntity
  8
CALQUE_1
 62
     7
  0
POLYLINE
  5
256
100
AcDbEntity
  8
CALQUE_1
 62
     7
100
AcDb2dPolyline
 66
     1
 10
0.0
 20
0.0
 30
0.0
 70
     1
  0
VERTEX
  5
257
100
AcDbEntity
  8
CALQUE_1
 62
     7
100
AcDbVertex
100
AcDb2dVertex
 10
167.246639
 20
43.714128
 30
0.0
  0
VERTEX
  5
258
100
AcDbEntity
  8
CALQUE_1
 62
     7
100
AcDbVertex
100
AcDb2dVertex
 10
164.850575
 20
43.714128
 30
0.0
  0
VERTEX
  5
259
100
AcDbEntity
  8
CALQUE_1
 62
     7
100
AcDbVertex
100
AcDb2dVertex
 10
164.850575
 20
44.854454
 30
0.0
  0
VERTEX
  5
25A
100
AcDbEntity
  8
CALQUE_1
 62
     7
100
AcDbVertex
100
AcDb2dVertex
 10
167.246639
 20
44.854454
 30
0.0
  0
SEQEND
  5
25B
100
AcDbEntity
  8
CALQUE_1
 62
     7
  0
SPLINE
  5
255
100
AcDbEntity
  8
CALQUE_1
 62
     7
100
AcDbSpline
210
0.0
220
0.0
230
1.0
 70
     8
 71
     3
 72
    38
 73
    34
 74
     0
 42
0.00000001
 43
0.00000001
 40
0.0
 40
0.0
 40
0.0
 40
0.0
 40
1.0
 40
1.0
 40
1.0
 40
2.0
 40
2.0
 40
2.0
 40
3.0
 40
3.0
 40
3.0
 40
4.0
 40
4.0
 40
4.0
 40
5.0
 40
5.0
 40
5.0
 40
6.0
 40
6.0
 40
6.0
 40
7.0
 40
7.0
 40
7.0
 40
8.0
 40
8.0
 40
8.0
 40
9.0
 40
9.0
 40
9.0
 40
10.0
 40
10.0
 40
10.0
 40
11.0
 40
11.0
 40
11.0
 40
11.0
 10
172.08596462673609
 20
44.048301866319441
 30
0.0
 10
172.08596462673609
 20
43.402690972222217
 30
0.0
 10
171.87443576388887
 20
42.911764865451381
 30
0.0
 10
171.45172254774303
 20
42.575868055555553
 30
0.0
 10
171.0286648220486
 20
42.240315755208329
 30
0.0
 10
170.40579155815971
 20
42.072195095486109
 30
0.0
 10
169.58275824652776
 20
42.072195095486109
 30
0.0
 10
169.58275824652776
 20
42.072195095486109
 30
0.0
 10
168.02247450086804
 20
42.072195095486109
 30
0.0
 10
168.02247450086804
 20
42.072195095486109
 30
0.0
 10
168.02247450086804
 20
42.072195095486109
 30
0.0
 10
168.02247450086804
 20
48.690568033854163
 30
0.0
 10
168.02247450086804
 20
48.690568033854163
 30
0.0
 10
168.02247450086804
 20
48.690568033854163
 30
0.0
 10
169.4070583767361
 20
48.690568033854163
 30
0.0
 10
169.4070583767361
 20
48.690568033854163
 30
0.0
 10
170.19012858072915
 20
48.690568033854163
 30
0.0
 10
170.76649305555554
 20
48.549319118923606
 30
0.0
 10
171.13649631076387
 20
48.266132269965276
 30
0.0
 10
171.50684407552083
 20
47.98328993055555
 30
0.0
 10
171.69184570312498
 20
47.543351236979163
 30
0.0
 10
171.69184570312498
 20
46.945971679687496
 30
0.0
 10
171.69184570312498
 20
46.585959201388881
 30
0.0
 10
171.59676106770831
 20
46.290025499131943
 30
0.0
 10
171.40659179687498
 20
46.05851508246527
 30
0.0
 10
171.21676703559027
 20
45.827004665798604
 30
0.0
 10
170.95459526909721
 20
45.680243598090271
 30
0.0
 10
170.62007649739581
 20
45.617198350694437
 30
0.0
 10
171.02315266927081
 20
45.579991319444439
 30
0.0
 10
171.36800672743053
 20
45.41221516927083
 30
0.0
 10
171.6553276909722
 20
45.113525390624993
 30
0.0
 10
171.94264865451387
 20
44.814835611979163
 30
0.0
 10
172.08596462673609
 20
44.459646267361109
 30
0.0
 10
172.08596462673609
 20
44.048301866319441
 30
0.0
  0
SPLINE
  5
254
100
AcDbEntity
  8
CALQUE_1
 62
     7
100
AcDbSpline
210
0.0
220
0.0
230
1.0
 70
     8
 71
     3
 72
    26
 73
    22
 74
     0
 42
0.00000001
 43
0.00000001
 40
0.0
 40
0.0
 40
0.0
 40
0.0
 40
1.0
 40
1.0
 40
1.0
 40
2.0
 40
2.0
 40
2.0
 40
3.0
 40
3.0
 40
3.0
 40
4.0
 40
4.0
 40
4.0
 40
5.0
 40
5.0
 40
5.0
 40
6.0
 40
6.0
 40
6.0
 40
7.0
 40
7.0
 40
7.0
 40
7.0
 10
170.44437662760416
 20
46.84744194878472
 30
0.0
 10
170.44437662760416
 20
47.116159396701384
 30
0.0
 10
170.36376139322914
 20
47.307362196180549
 30
0.0
 10
170.20218641493054
 20
47.421739366319443
 30
0.0
 10
170.04061143663193
 20
47.535772026909719
 30
0.0
 10
169.77568359374999
 20
47.59330512152777
 30
0.0
 10
169.4070583767361
 20
47.59330512152777
 30
0.0
 10
169.4070583767361
 20
47.59330512152777
 30
0.0
 10
169.33850097656247
 20
47.59330512152777
 30
0.0
 10
169.33850097656247
 20
47.59330512152777
 30
0.0
 10
169.33850097656247
 20
47.59330512152777
 30
0.0
 10
169.33850097656247
 20
46.075740559895827
 30
0.0
 10
169.33850097656247
 20
46.075740559895827
 30
0.0
 10
169.33850097656247
 20
46.075740559895827
 30
0.0
 10
169.4070583767361
 20
46.075740559895827
 30
0.0
 10
169.4070583767361
 20
46.075740559895827
 30
0.0
 10
169.74433322482636
 20
46.075740559895827
 30
0.0
 10
170.00133734809026
 20
46.142230902777776
 30
0.0
 10
170.17875976562499
 20
46.275211588541666
 30
0.0
 10
170.35583767361109
 20
46.407847764756937
 30
0.0
 10
170.44437662760416
 20
46.598706054687497
 30
0.0
 10
170.44437662760416
 20
46.84744194878472
 30
0.0
  0
SPLINE
  5
253
100
AcDbEntity
  8
CALQUE_1
 62
     7
100
AcDbSpline
210
0.0
220
0.0
230
1.0
 70
     8
 71
     3
 72
    26
 73
    22
 74
     0
 42
0.00000001
 43
0.00000001
 40
0.0
 40
0.0
 40
0.0
 40
0.0
 40
1.0
 40
1.0
 40
1.0
 40
2.0
 40
2.0
 40
2.0
 40
3.0
 40
3.0
 40
3.0
 40
4.0
 40
4.0
 40
4.0
 40
5.0
 40
5.0
 40
5.0
 40
6.0
 40
6.0
 40
6.0
 40
7.0
 40
7.0
 40
7.0
 40
7.0
 10
170.74444444444444
 20
44.117203776041663
 30
0.0
 10
170.74444444444444
 20
44.40865885416666
 30
0.0
 10
170.65246039496526
 20
44.631901041666666
 30
0.0
 10
170.46814778645833
 20
44.787619357638881
 30
0.0
 10
170.28383517795137
 20
44.943337673611104
 30
0.0
 10
170.01856282552083
 20
45.021196831597216
 30
0.0
 10
169.67301974826387
 20
45.021196831597216
 30
0.0
 10
169.67301974826387
 20
45.021196831597216
 30
0.0
 10
169.33850097656247
 20
45.021196831597216
 30
0.0
 10
169.33850097656247
 20
45.021196831597216
 30
0.0
 10
169.33850097656247
 20
45.021196831597216
 30
0.0
 10
169.33850097656247
 20
43.169802517361106
 30
0.0
 10
169.33850097656247
 20
43.169802517361106
 30
0.0
 10
169.33850097656247
 20
43.169802517361106
 30
0.0
 10
169.67301974826387
 20
43.169802517361106
 30
0.0
 10
169.67301974826387
 20
43.169802517361106
 30
0.0
 10
170.02993164062499
 20
43.169802517361106
 30
0.0
 10
170.29796006944443
 20
43.24835069444444
 30
0.0
 10
170.47641601562498
 20
43.405447048611109
 30
0.0
 10
170.65521647135415
 20
43.562543402777777
 30
0.0
 10
170.74444444444444
 20
43.799565972222219
 30
0.0
 10
170.74444444444444
 20
44.117203776041663
 30
0.0
  0
POLYLINE
  5
24A
100
AcDbEntity
  8
CALQUE_1
 62
     7
100
AcDb2dPolyline
 66
     1
 10
0.0
 20
0.0
 30
0.0
 70
     1
  0
VERTEX
  5
24B
100
AcDbEntity
  8
CALQUE_1
 62
     7
100
AcDbVertex
100
AcDb2dVertex
 10
177.778296
 20
48.690568
 30
0.0
  0
VERTEX
  5
24C
100
AcDbEntity
  8
CALQUE_1
 62
     7
100
AcDbVertex
100
AcDb2dVertex
 10
175.626489
 20
42.072195
 30
0.0
  0
VERTEX
  5
24D
100
AcDbEntity
  8
CALQUE_1
 62
     7
100
AcDbVertex
100
AcDb2dVertex
 10
174.22468
 20
42.072195
 30
0.0
  0
VERTEX
  5
24E
100
AcDbEntity
  8
CALQUE_1
 62
     7
100
AcDbVertex
100
AcDb2dVertex
 10
172.073218
 20
48.690568
 30
0.0
  0
VERTEX
  5
24F
100
AcDbEntity
  8
CALQUE_1
 62
     7
100
AcDbVertex
100
AcDb2dVertex
 10
173.556331
 20
48.690568
 30
0.0
  0
VERTEX
  5
250
100
AcDbEntity
  8
CALQUE_1
 62
     7
100
AcDbVertex
100
AcDb2dVertex
 10
174.923345
 20
43.774072
 30
0.0
  0
VERTEX
  5
251
100
AcDbEntity
  8
CALQUE_1
 62
     7
100
AcDbVertex
100
AcDb2dVertex
 10
176.295182
 20
48.690568
 30
0.0
  0
SEQEND
  5
252
100
AcDbEntity
  8
CALQUE_1
 62
     7
  0
POLYLINE
  5
23E
100
AcDbEntity
  8
CALQUE_1
 62
     7
100
AcDb2dPolyline
 66
     1
 10
0.0
 20
0.0
 30
0.0
 70
     1
  0
VERTEX
  5
23F
100
AcDbEntity
  8
CALQUE_1
 62
     7
100
AcDbVertex
100
AcDb2dVertex
 10
181.528971
 20
44.862722
 30
0.0
  0
VERTEX
  5
240
100
AcDbEntity
  8
CALQUE_1
 62
     7
100
AcDbVertex
100
AcDb2dVertex
 10
179.587316
 20
44.862722
 30
0.0
  0
VERTEX
  5
241
100
AcDbEntity
  8
CALQUE_1
 62
     7
100
AcDbVertex
100
AcDb2dVertex
 10
179.587316
 20
42.072195
 30
0.0
  0
VERTEX
  5
242
100
AcDbEntity
  8
CALQUE_1
 62
     7
100
AcDbVertex
100
AcDb2dVertex
 10
178.297127
 20
42.072195
 30
0.0
  0
VERTEX
  5
243
100
AcDbEntity
  8
CALQUE_1
 62
     7
100
AcDbVertex
100
AcDb2dVertex
 10
178.297127
 20
48.690568
 30
0.0
  0
VERTEX
  5
244
100
AcDbEntity
  8
CALQUE_1
 62
     7
100
AcDbVertex
100
AcDb2dVertex
 10
181.528971
 20
48.690568
 30
0.0
  0
VERTEX
  5
245
100
AcDbEntity
  8
CALQUE_1
 62
     7
100
AcDbVertex
100
AcDb2dVertex
 10
181.528971
 20
47.550241
 30
0.0
  0
VERTEX
  5
246
100
AcDbEntity
  8
CALQUE_1
 62
     7
100
AcDbVertex
100
AcDb2dVertex
 10
179.587316
 20
47.550241
 30
0.0
  0
VERTEX
  5
247
100
AcDbEntity
  8
CALQUE_1
 62
     7
100
AcDbVertex
100
AcDb2dVertex
 10
179.587316
 20
46.007183
 30
0.0
  0
VERTEX
  5
248
100
AcDbEntity
  8
CALQUE_1
 62
     7
100
AcDbVertex
100
AcDb2dVertex
 10
181.528971
 20
46.007183
 30
0.0
  0
SEQEND
  5
249
100
AcDbEntity
  8
CALQUE_1
 62
     7
  0
POLYLINE
  5
234
100
AcDbEntity
  8
CALQUE_1
 62
     7
100
AcDb2dPolyline
 66
     1
 10
0.0
 20
0.0
 30
0.0
 70
     1
  0
VERTEX
  5
235
100
AcDbEntity
  8
CALQUE_1
 62
     7
100
AcDbVertex
100
AcDb2dVertex
 10
187.392868
 20
42.072195
 30
0.0
  0
VERTEX
  5
236
100
AcDbEntity
  8
CALQUE_1
 62
     7
100
AcDbVertex
100
AcDb2dVertex
 10
185.952474
 20
42.072195
 30
0.0
  0
VERTEX
  5
237
100
AcDbEntity
  8
CALQUE_1
 62
     7
100
AcDbVertex
100
AcDb2dVertex
 10
185.519425
 20
43.538428
 30
0.0
  0
VERTEX
  5
238
100
AcDbEntity
  8
CALQUE_1
 62
     7
100
AcDbVertex
100
AcDb2dVertex
 10
183.247729
 20
43.538428
 30
0.0
  0
VERTEX
  5
239
100
AcDbEntity
  8
CALQUE_1
 62
     7
100
AcDbVertex
100
AcDb2dVertex
 10
182.810547
 20
42.072195
 30
0.0
  0
VERTEX
  5
23A
100
AcDbEntity
  8
CALQUE_1
 62
     7
100
AcDbVertex
100
AcDb2dVertex
 10
181.370497
 20
42.072195
 30
0.0
  0
VERTEX
  5
23B
100
AcDbEntity
  8
CALQUE_1
 62
     7
100
AcDbVertex
100
AcDb2dVertex
 10
183.616355
 20
48.690568
 30
0.0
  0
VERTEX
  5
23C
100
AcDbEntity
  8
CALQUE_1
 62
     7
100
AcDbVertex
100
AcDb2dVertex
 10
185.1508
 20
48.690568
 30
0.0
  0
SEQEND
  5
23D
100
AcDbEntity
  8
CALQUE_1
 62
     7
  0
POLYLINE
  5
22F
100
AcDbEntity
  8
CALQUE_1
 62
     7
100
AcDb2dPolyline
 66
     1
 10
0.0
 20
0.0
 30
0.0
 70
     1
  0
VERTEX
  5
230
100
AcDbEntity
  8
CALQUE_1
 62
     7
100
AcDbVertex
100
AcDb2dVertex
 10
185.215224
 20
44.592627
 30
0.0
  0
VERTEX
  5
231
100
AcDbEntity
  8
CALQUE_1
 62
     7
100
AcDbVertex
100
AcDb2dVertex
 10
184.379443
 20
47.408993
 30
0.0
  0
VERTEX
  5
232
100
AcDbEntity
  8
CALQUE_1
 62
     7
100
AcDbVertex
100
AcDb2dVertex
 10
183.547797
 20
44.592627
 30
0.0
  0
SEQEND
  5
233
100
AcDbEntity
  8
CALQUE_1
 62
     7
  0
POLYLINE
  5
229
100
AcDbEntity
  8
CALQUE_1
 62
     7
100
AcDb2dPolyline
 66
     1
 10
0.0
 20
0.0
 30
0.0
 70
     1
  0
VERTEX
  5
22A
100
AcDbEntity
  8
CALQUE_1
 62
     7
100
AcDbVertex
100
AcDb2dVertex
 10
19.008142
 20
249.202016
 30
0.0
  0
VERTEX
  5
22B
100
AcDbEntity
  8
CALQUE_1
 62
     7
100
AcDbVertex
100
AcDb2dVertex
 10
19.007798
 20
83.084334
 30
0.0
  0
VERTEX
  5
22C
100
AcDbEntity
  8
CALQUE_1
 62
     7
100
AcDbVertex
100
AcDb2dVertex
 10
16.967095
 20
85.40564
 30
0.0
  0
VERTEX
  5
22D
100
AcDbEntity
  8
CALQUE_1
 62
     7
100
AcDbVertex
100
AcDb2dVertex
 10
16.967095
 20
247.407465
 30
0.0
  0
SEQEND
  5
22E
100
AcDbEntity
  8
CALQUE_1
 62
     7
  0
POLYLINE
  5
223
100
AcDbEntity
  8
CALQUE_1
 62
     7
100
AcDb2dPolyline
 66
     1
 10
0.0
 20
0.0
 30
0.0
 70
     1
  0
VERTEX
  5
224
100
AcDbEntity
  8
CALQUE_1
 62
     7
100
AcDbVertex
100
AcDb2dVertex
 10
33.017278
 20
261.520299
 30
0.0
  0
VERTEX
  5
225
100
AcDbEntity
  8
CALQUE_1
 62
     7
100
AcDbVertex
100
AcDb2dVertex
 10
33.017278
 20
67.151801
 30
0.0
  0
VERTEX
  5
226
100
AcDbEntity
  8
CALQUE_1
 62
     7
100
AcDbVertex
100
AcDb2dVertex
 10
27.079484
 20
73.904533
 30
0.0
  0
VERTEX
  5
227
100
AcDbEntity
  8
CALQUE_1
 62
     7
100
AcDbVertex
100
AcDb2dVertex
 10
27.079829
 20
256.299257
 30
0.0
  0
SEQEND
  5
228
100
AcDbEntity
  8
CALQUE_1
 62
     7
  0
POLYLINE
  5
21D
100
AcDbEntity
  8
CALQUE_1
 62
     7
100
AcDb2dPolyline
 66
     1
 10
0.0
 20
0.0
 30
0.0
 70
     1
  0
VERTEX
  5
21E
100
AcDbEntity
  8
CALQUE_1
 62
     7
100
AcDbVertex
100
AcDb2dVertex
 10
51.100929
 20
277.421137
 30
0.0
  0
VERTEX
  5
21F
100
AcDbEntity
  8
CALQUE_1
 62
     7
100
AcDbVertex
100
AcDb2dVertex
 10
51.100757
 20
46.585615
 30
0.0
  0
VERTEX
  5
220
100
AcDbEntity
  8
CALQUE_1
 62
     7
100
AcDbVertex
100
AcDb2dVertex
 10
39.615325
 20
59.648039
 30
0.0
  0
VERTEX
  5
221
100
AcDbEntity
  8
CALQUE_1
 62
     7
100
AcDbVertex
100
AcDb2dVertex
 10
39.614981
 20
267.321667
 30
0.0
  0
SEQEND
  5
222
100
AcDbEntity
  8
CALQUE_1
 62
     7
  0
POLYLINE
  5
216
100
AcDbEntity
  8
CALQUE_1
 62
     7
100
AcDb2dPolyline
 66
     1
 10
0.0
 20
0.0
 30
0.0
 70
     1
  0
VERTEX
  5
217
100
AcDbEntity
  8
CALQUE_1
 62
     7
100
AcDbVertex
100
AcDb2dVertex
 10
60.380811
 20
285.581018
 30
0.0
  0
VERTEX
  5
218
100
AcDbEntity
  8
CALQUE_1
 62
     7
100
AcDbVertex
100
AcDb2dVertex
 10
79.939479
 20
263.337242
 30
0.0
  0
VERTEX
  5
219
100
AcDbEntity
  8
CALQUE_1
 62
     7
100
AcDbVertex
100
AcDb2dVertex
 10
79.939479
 20
13.787961
 30
0.0
  0
VERTEX
  5
21A
100
AcDbEntity
  8
CALQUE_1
 62
     7
100
AcDbVertex
100
AcDb2dVertex
 10
56.318182
 20
40.651782
 30
0.0
  0
VERTEX
  5
21B
100
AcDbEntity
  8
CALQUE_1
 62
     7
100
AcDbVertex
100
AcDb2dVertex
 10
56.318354
 20
282.008799
 30
0.0
  0
SEQEND
  5
21C
100
AcDbEntity
  8
CALQUE_1
 62
     7
  0
POLYLINE
  5
210
100
AcDbEntity
  8
CALQUE_1
 62
     7
100
AcDb2dPolyline
 66
     1
 10
0.0
 20
0.0
 30
0.0
 70
     1
  0
VERTEX
  5
211
100
AcDbEntity
  8
CALQUE_1
 62
     7
100
AcDbVertex
100
AcDb2dVertex
 10
149.837193
 20
249.202016
 30
0.0
  0
VERTEX
  5
212
100
AcDbEntity
  8
CALQUE_1
 62
     7
100
AcDbVertex
100
AcDb2dVertex
 10
149.837538
 20
83.084334
 30
0.0
  0
VERTEX
  5
213
100
AcDbEntity
  8
CALQUE_1
 62
     7
100
AcDbVertex
100
AcDb2dVertex
 10
151.878413
 20
85.40564
 30
0.0
  0
VERTEX
  5
214
100
AcDbEntity
  8
CALQUE_1
 62
     7
100
AcDbVertex
100
AcDb2dVertex
 10
151.878413
 20
247.407465
 30
0.0
  0
SEQEND
  5
215
100
AcDbEntity
  8
CALQUE_1
 62
     7
  0
POLYLINE
  5
20A
100
AcDbEntity
  8
CALQUE_1
 62
     7
100
AcDb2dPolyline
 66
     1
 10
0.0
 20
0.0
 30
0.0
 70
     1
  0
VERTEX
  5
20B
100
AcDbEntity
  8
CALQUE_1
 62
     7
100
AcDbVertex
100
AcDb2dVertex
 10
135.828057
 20
261.520299
 30
0.0
  0
VERTEX
  5
20C
100
AcDbEntity
  8
CALQUE_1
 62
     7
100
AcDbVertex
100
AcDb2dVertex
 10
135.828057
 20
67.151801
 30
0.0
  0
VERTEX
  5
20D
100
AcDbEntity
  8
CALQUE_1
 62
     7
100
AcDbVertex
100
AcDb2dVertex
 10
141.766024
 20
73.904533
 30
0.0
  0
VERTEX
  5
20E
100
AcDbEntity
  8
CALQUE_1
 62
     7
100
AcDbVertex
100
AcDb2dVertex
 10
141.765679
 20
256.299257
 30
0.0
  0
SEQEND
  5
20F
100
AcDbEntity
  8
CALQUE_1
 62
     7
  0
POLYLINE
  5
204
100
AcDbEntity
  8
CALQUE_1
 62
     7
100
AcDb2dPolyline
 66
     1
 10
0.0
 20
0.0
 30
0.0
 70
     1
  0
VERTEX
  5
205
100
AcDbEntity
  8
CALQUE_1
 62
     7
100
AcDbVertex
100
AcDb2dVertex
 10
117.744406
 20
277.421137
 30
0.0
  0
VERTEX
  5
206
100
AcDbEntity
  8
CALQUE_1
 62
     7
100
AcDbVertex
100
AcDb2dVertex
 10
117.744751
 20
46.585615
 30
0.0
  0
VERTEX
  5
207
100
AcDbEntity
  8
CALQUE_1
 62
     7
100
AcDbVertex
100
AcDb2dVertex
 10
129.23001
 20
59.648039
 30
0.0
  0
VERTEX
  5
208
100
AcDbEntity
  8
CALQUE_1
 62
     7
100
AcDbVertex
100
AcDb2dVertex
 10
129.230355
 20
267.321667
 30
0.0
  0
SEQEND
  5
209
100
AcDbEntity
  8
CALQUE_1
 62
     7
  0
POLYLINE
  5
1FD
100
AcDbEntity
  8
CALQUE_1
 62
     7
100
AcDb2dPolyline
 66
     1
 10
0.0
 20
0.0
 30
0.0
 70
     1
  0
VERTEX
  5
1FE
100
AcDbEntity
  8
CALQUE_1
 62
     7
100
AcDbVertex
100
AcDb2dVertex
 10
108.464697
 20
285.581018
 30
0.0
  0
VERTEX
  5
1FF
100
AcDbEntity
  8
CALQUE_1
 62
     7
100
AcDbVertex
100
AcDb2dVertex
 10
88.90534
 20
263.337242
 30
0.0
  0
VERTEX
  5
200
100
AcDbEntity
  8
CALQUE_1
 62
     7
100
AcDbVertex
100
AcDb2dVertex
 10
88.90534
 20
13.787961
 30
0.0
  0
VERTEX
  5
201
100
AcDbEntity
  8
CALQUE_1
 62
     7
100
AcDbVertex
100
AcDb2dVertex
 10
112.527154
 20
40.651782
 30
0.0
  0
VERTEX
  5
202
100
AcDbEntity
  8
CALQUE_1
 62
     7
100
AcDbVertex
100
AcDb2dVertex
 10
112.527154
 20
282.008799
 30
0.0
  0
SEQEND
  5
203
100
AcDbEntity
  8
CALQUE_1
 62
     7
  0
SPLINE
  5
1FC
100
AcDbEntity
  8
CALQUE_1
 62
     7
100
AcDbSpline
210
0.0
220
0.0
230
1.0
 70
     8
 71
     3
 72
    17
 73
    13
 74
     0
 42
0.00000001
 43
0.00000001
 40
0.0
 40
0.0
 40
0.0
 40
0.0
 40
1.0
 40
1.0
 40
1.0
 40
2.0
 40
2.0
 40
2.0
 40
3.0
 40
3.0
 40
3.0
 40
4.0
 40
4.0
 40
4.0
 40
4.0
 10
129.56142849392359
 20
281.96384006076386
 30
0.0
 10
129.56142849392359
 20
281.96384006076386
 30
0.0
 10
128.73770616319445
 20
282.618408203125
 30
0.0
 10
128.73770616319445
 20
283.19494493272566
 30
0.0
 10
128.73770616319445
 20
283.77148166232638
 30
0.0
 10
128.73770616319445
 20
286.10846218532981
 30
0.0
 10
128.73770616319445
 20
286.10846218532981
 30
0.0
 10
128.73770616319445
 20
286.10846218532981
 30
0.0
 10
129.19073621961803
 20
286.17030164930554
 30
0.0
 10
129.56142849392359
 20
286.03628743489583
 30
0.0
 10
129.56142849392359
 20
286.03628743489583
 30
0.0
 10
129.56142849392359
 20
281.96384006076386
 30
0.0
 10
129.56142849392359
 20
281.96384006076386
 30
0.0
  0
SPLINE
  5
1FB
100
AcDbEntity
  8
CALQUE_1
 62
     7
100
AcDbSpline
210
0.0
220
0.0
230
1.0
 70
     8
 71
     3
 72
    29
 73
    25
 74
     0
 42
0.00000001
 43
0.00000001
 40
0.0
 40
0.0
 40
0.0
 40
0.0
 40
1.0
 40
1.0
 40
1.0
 40
2.0
 40
2.0
 40
2.0
 40
3.0
 40
3.0
 40
3.0
 40
4.0
 40
4.0
 40
4.0
 40
5.0
 40
5.0
 40
5.0
 40
6.0
 40
6.0
 40
6.0
 40
7.0
 40
7.0
 40
7.0
 40
8.0
 40
8.0
 40
8.0
 40
8.0
 10
128.68671874999998
 20
282.71762695312498
 30
0.0
 10
128.57785373263889
 20
282.78446180555551
 30
0.0
 10
128.50481770833332
 20
282.90469563802083
 30
0.0
 10
128.50481770833332
 20
283.04181043836803
 30
0.0
 10
128.50481770833332
 20
283.11674126519097
 30
0.0
 10
128.52686631944442
 20
283.18650444878472
 30
0.0
 10
128.56441786024305
 20
283.24541558159717
 30
0.0
 10
128.56441786024305
 20
283.24541558159717
 30
0.0
 10
128.56441786024305
 20
283.78388400607639
 30
0.0
 10
128.56441786024305
 20
283.78388400607639
 30
0.0
 10
128.27744140624998
 20
283.65934380425347
 30
0.0
 10
128.0762478298611
 20
283.37374538845484
 30
0.0
 10
128.0762478298611
 20
283.04181043836803
 30
0.0
 10
128.0762478298611
 20
282.87954644097221
 30
0.0
 10
128.12482367621527
 20
282.72882351345481
 30
0.0
 10
128.20716145833333
 20
282.60221625434025
 30
0.0
 10
128.20716145833333
 20
282.60221625434025
 30
0.0
 10
128.90754937065972
 20
282.23410780164926
 30
0.0
 10
128.90754937065972
 20
282.23410780164926
 30
0.0
 10
128.93511013454861
 20
282.23496907552078
 30
0.0
 10
128.96232638888887
 20
282.23703613281248
 30
0.0
 10
128.98919813368053
 20
282.24065348307289
 30
0.0
 10
128.87723253038195
 20
282.3837972005208
 30
0.0
 10
128.76698947482637
 20
282.54743923611107
 30
0.0
 10
128.68671874999998
 20
282.71762695312498
 30
0.0
  0
SPLINE
  5
1FA
100
AcDbEntity
  8
CALQUE_1
 62
     7
100
AcDbSpline
210
0.0
220
0.0
230
1.0
 70
     8
 71
     3
 72
    14
 73
    10
 74
     0
 42
0.00000001
 43
0.00000001
 40
0.0
 40
0.0
 40
0.0
 40
0.0
 40
1.0
 40
1.0
 40
1.0
 40
2.0
 40
2.0
 40
2.0
 40
3.0
 40
3.0
 40
3.0
 40
3.0
 10
129.05189887152775
 20
282.15831570095486
 30
0.0
 10
129.05189887152775
 20
282.15831570095486
 30
0.0
 10
129.05810004340276
 20
282.15521511501731
 30
0.0
 10
129.05810004340276
 20
282.15521511501731
 30
0.0
 10
129.05672200520831
 20
282.15642089843749
 30
0.0
 10
129.05568847656249
 20
282.15779893663193
 30
0.0
 10
129.05465494791665
 20
282.15900472005205
 30
0.0
 10
129.05396592881942
 20
282.15883246527773
 30
0.0
 10
129.0529324001736
 20
282.15866021050346
 30
0.0
 10
129.05189887152775
 20
282.15831570095486
 30
0.0
  0
SPLINE
  5
1F9
100
AcDbEntity
  8
CALQUE_1
 62
     7
100
AcDbSpline
210
0.0
220
0.0
230
1.0
 70
     8
 71
     3
 72
    23
 73
    19
 74
     0
 42
0.00000001
 43
0.00000001
 40
0.0
 40
0.0
 40
0.0
 40
0.0
 40
1.0
 40
1.0
 40
1.0
 40
2.0
 40
2.0
 40
2.0
 40
3.0
 40
3.0
 40
3.0
 40
4.0
 40
4.0
 40
4.0
 40
5.0
 40
5.0
 40
5.0
 40
6.0
 40
6.0
 40
6.0
 40
6.0
 10
127.55741644965276
 20
283.04181043836803
 30
0.0
 10
127.55741644965276
 20
283.00804850260414
 30
0.0
 10
127.55913899739582
 20
282.97463107638885
 30
0.0
 10
127.5615505642361
 20
282.94155815972221
 30
0.0
 10
127.5615505642361
 20
282.94155815972221
 30
0.0
 10
128.06315646701387
 20
282.67783610026038
 30
0.0
 10
128.06315646701387
 20
282.67783610026038
 30
0.0
 10
128.01354709201388
 20
282.7892849392361
 30
0.0
 10
127.98564181857638
 20
282.91210259331592
 30
0.0
 10
127.98564181857638
 20
283.04181043836803
 30
0.0
 10
127.98564181857638
 20
283.424560546875
 30
0.0
 10
128.22645399305554
 20
283.75150010850695
 30
0.0
 10
128.56441786024305
 20
283.88103569878467
 30
0.0
 10
128.56441786024305
 20
283.88103569878467
 30
0.0
 10
128.56441786024305
 20
284.3301038953993
 30
0.0
 10
128.56441786024305
 20
284.3301038953993
 30
0.0
 10
127.98667534722222
 20
284.18627115885414
 30
0.0
 10
127.55741644965276
 20
283.66330566406248
 30
0.0
 10
127.55741644965276
 20
283.04181043836803
 30
0.0
  0
SPLINE
  5
1F8
100
AcDbEntity
  8
CALQUE_1
 62
     7
100
AcDbSpline
210
0.0
220
0.0
230
1.0
 70
     8
 71
     3
 72
    20
 73
    16
 74
     0
 42
0.00000001
 43
0.00000001
 40
0.0
 40
0.0
 40
0.0
 40
0.0
 40
1.0
 40
1.0
 40
1.0
 40
2.0
 40
2.0
 40
2.0
 40
3.0
 40
3.0
 40
3.0
 40
4.0
 40
4.0
 40
4.0
 40
5.0
 40
5.0
 40
5.0
 40
5.0
 10
127.02549370659722
 20
283.2233669704861
 30
0.0
 10
127.02549370659722
 20
283.2233669704861
 30
0.0
 10
127.44303927951388
 20
283.00374213324648
 30
0.0
 10
127.44303927951388
 20
283.00374213324648
 30
0.0
 10
127.44303927951388
 20
283.00959879557291
 30
0.0
 10
127.44269476996527
 20
283.01545545789929
 30
0.0
 10
127.44269476996527
 20
283.02113986545135
 30
0.0
 10
127.44269476996527
 20
283.71050347222217
 30
0.0
 10
127.92190755208333
 20
284.28945176866318
 30
0.0
 10
128.56441786024305
 20
284.44379204644093
 30
0.0
 10
128.56441786024305
 20
284.44379204644093
 30
0.0
 10
128.56441786024305
 20
284.88149142795135
 30
0.0
 10
128.56441786024305
 20
284.88149142795135
 30
0.0
 10
127.74861924913193
 20
284.73197428385413
 30
0.0
 10
127.11437717013888
 20
284.0581136067708
 30
0.0
 10
127.02549370659722
 20
283.2233669704861
 30
0.0
  0
SPLINE
  5
1F7
100
AcDbEntity
  8
CALQUE_1
 62
     7
100
AcDbSpline
210
0.0
220
0.0
230
1.0
 70
     8
 71
     3
 72
    17
 73
    13
 74
     0
 42
0.00000001
 43
0.00000001
 40
0.0
 40
0.0
 40
0.0
 40
0.0
 40
1.0
 40
1.0
 40
1.0
 40
2.0
 40
2.0
 40
2.0
 40
3.0
 40
3.0
 40
3.0
 40
4.0
 40
4.0
 40
4.0
 40
4.0
 10
126.5259548611111
 20
283.48571099175342
 30
0.0
 10
126.5259548611111
 20
283.48571099175342
 30
0.0
 10
126.92834201388888
 20
283.2741821289062
 30
0.0
 10
126.92834201388888
 20
283.2741821289062
 30
0.0
 10
127.01550292968749
 20
284.1535427517361
 30
0.0
 10
127.69728732638887
 20
284.86082085503472
 30
0.0
 10
128.56441786024305
 20
284.98760036892361
 30
0.0
 10
128.56441786024305
 20
284.98760036892361
 30
0.0
 10
128.56441786024305
 20
285.41909857855899
 30
0.0
 10
128.56441786024305
 20
285.41909857855899
 30
0.0
 10
127.53123372395832
 20
285.29628092447916
 30
0.0
 10
126.70165473090276
 20
284.50184190538192
 30
0.0
 10
126.5259548611111
 20
283.48571099175342
 30
0.0
  0
SPLINE
  5
1F6
100
AcDbEntity
  8
CALQUE_1
 62
     7
100
AcDbSpline
210
0.0
220
0.0
230
1.0
 70
     8
 71
     3
 72
    17
 73
    13
 74
     0
 42
0.00000001
 43
0.00000001
 40
0.0
 40
0.0
 40
0.0
 40
0.0
 40
1.0
 40
1.0
 40
1.0
 40
2.0
 40
2.0
 40
2.0
 40
3.0
 40
3.0
 40
3.0
 40
4.0
 40
4.0
 40
4.0
 40
4.0
 10
126.01194661458332
 20
283.75563422309023
 30
0.0
 10
126.01194661458332
 20
283.75563422309023
 30
0.0
 10
126.41088867187499
 20
283.54582790798611
 30
0.0
 10
126.41088867187499
 20
283.54582790798611
 30
0.0
 10
126.56109483506944
 20
284.62586534288192
 30
0.0
 10
127.45957573784722
 20
285.46956922743055
 30
0.0
 10
128.56441786024305
 20
285.53382025824652
 30
0.0
 10
128.56441786024305
 20
285.53382025824652
 30
0.0
 10
128.56441786024305
 20
285.96290690104166
 30
0.0
 10
128.56441786024305
 20
285.96290690104166
 30
0.0
 10
127.29524468315971
 20
285.90072292751734
 30
0.0
 10
126.25069173177083
 20
284.97106391059026
 30
0.0
 10
126.01194661458332
 20
283.75563422309023
 30
0.0
  0
SPLINE
  5
1F5
100
AcDbEntity
  8
CALQUE_1
 62
     7
100
AcDbSpline
210
0.0
220
0.0
230
1.0
 70
     8
 71
     3
 72
    71
 73
    67
 74
     0
 42
0.00000001
 43
0.00000001
 40
0.0
 40
0.0
 40
0.0
 40
0.0
 40
1.0
 40
1.0
 40
1.0
 40
2.0
 40
2.0
 40
2.0
 40
3.0
 40
3.0
 40
3.0
 40
4.0
 40
4.0
 40
4.0
 40
5.0
 40
5.0
 40
5.0
 40
6.0
 40
6.0
 40
6.0
 40
7.0
 40
7.0
 40
7.0
 40
8.0
 40
8.0
 40
8.0
 40
9.0
 40
9.0
 40
9.0
 40
10.0
 40
10.0
 40
10.0
 40
11.0
 40
11.0
 40
11.0
 40
12.0
 40
12.0
 40
12.0
 40
13.0
 40
13.0
 40
13.0
 40
14.0
 40
14.0
 40
14.0
 40
15.0
 40
15.0
 40
15.0
 40
16.0
 40
16.0
 40
16.0
 40
17.0
 40
17.0
 40
17.0
 40
18.0
 40
18.0
 40
18.0
 40
19.0
 40
19.0
 40
19.0
 40
20.0
 40
20.0
 40
20.0
 40
21.0
 40
21.0
 40
21.0
 40
22.0
 40
22.0
 40
22.0
 40
22.0
 10
129.70577799479165
 20
281.88270806206594
 30
0.0
 10
129.70577799479165
 20
281.88270806206594
 30
0.0
 10
129.70577799479165
 20
283.97267523871523
 30
0.0
 10
129.70577799479165
 20
283.97267523871523
 30
0.0
 10
129.70577799479165
 20
283.97267523871523
 30
0.0
 10
130.17913411458332
 20
284.51837836371527
 30
0.0
 10
130.99217664930555
 20
284.58004557291662
 30
0.0
 10
131.03351779513886
 20
284.65222032335066
 30
0.0
 10
131.05418836805555
 20
284.73455810546875
 30
0.0
 10
131.05418836805555
 20
284.73455810546875
 30
0.0
 10
131.05418836805555
 20
284.73455810546875
 30
0.0
 10
131.3008572048611
 20
284.49770779079859
 30
0.0
 10
131.3008572048611
 20
284.49770779079859
 30
0.0
 10
131.3008572048611
 20
284.49770779079859
 30
0.0
 10
131.19819335937498
 20
283.12845458984373
 30
0.0
 10
131.19819335937498
 20
283.12845458984373
 30
0.0
 10
131.19819335937498
 20
283.12845458984373
 30
0.0
 10
130.93085394965277
 20
283.09762098524305
 30
0.0
 10
130.93085394965277
 20
283.09762098524305
 30
0.0
 10
130.93085394965277
 20
283.09762098524305
 30
0.0
 10
130.64215494791665
 20
283.58148464626731
 30
0.0
 10
130.64215494791665
 20
283.58148464626731
 30
0.0
 10
130.64215494791665
 20
283.58148464626731
 30
0.0
 10
130.57015245225693
 20
283.58148464626731
 30
0.0
 10
130.59082302517359
 20
283.40647379557288
 30
0.0
 10
130.61114908854165
 20
283.23146294487844
 30
0.0
 10
130.64215494791665
 20
283.01528320312497
 30
0.0
 10
130.87917751736109
 20
282.73726399739581
 30
0.0
 10
130.87917751736109
 20
282.73726399739581
 30
0.0
 10
130.44647352430553
 20
282.08872477213538
 30
0.0
 10
130.44647352430553
 20
282.08872477213538
 30
0.0
 10
130.44647352430553
 20
282.08872477213538
 30
0.0
 10
130.43648274739581
 20
282.00638699001735
 30
0.0
 10
130.52915581597222
 20
282.03722059461802
 30
0.0
 10
130.52915581597222
 20
282.03722059461802
 30
0.0
 10
131.23505588107636
 20
282.99099527994787
 30
0.0
 10
131.23505588107636
 20
282.99099527994787
 30
0.0
 10
131.23505588107636
 20
282.99099527994787
 30
0.0
 10
131.54545898437499
 20
282.85611979166663
 30
0.0
 10
131.54545898437499
 20
282.85611979166663
 30
0.0
 10
131.54545898437499
 20
282.85611979166663
 30
0.0
 10
131.56027289496527
 20
281.79089626736106
 30
0.0
 10
131.56027289496527
 20
281.79089626736106
 30
0.0
 10
131.56027289496527
 20
281.79089626736106
 30
0.0
 10
130.96806098090278
 20
281.24639892578125
 30
0.0
 10
130.96806098090278
 20
281.24639892578125
 30
0.0
 10
130.96806098090278
 20
281.24639892578125
 30
0.0
 10
130.96806098090278
 20
281.60933973524305
 30
0.0
 10
130.96806098090278
 20
281.60933973524305
 30
0.0
 10
130.96806098090278
 20
281.60933973524305
 30
0.0
 10
131.13790418836805
 20
281.6153686523437
 30
0.0
 10
131.13790418836805
 20
281.6153686523437
 30
0.0
 10
131.13790418836805
 20
281.6153686523437
 30
0.0
 10
131.3318630642361
 20
281.8260362413194
 30
0.0
 10
131.3318630642361
 20
281.8260362413194
 30
0.0
 10
131.3318630642361
 20
281.8260362413194
 30
0.0
 10
131.31601562499998
 20
282.51074896918402
 30
0.0
 10
131.31601562499998
 20
282.51074896918402
 30
0.0
 10
131.31601562499998
 20
282.51074896918402
 30
0.0
 10
131.26433919270832
 20
282.51074896918402
 30
0.0
 10
131.26433919270832
 20
282.51074896918402
 30
0.0
 10
131.26433919270832
 20
282.51074896918402
 30
0.0
 10
130.6655815972222
 20
281.3855807834201
 30
0.0
 10
130.6655815972222
 20
281.3855807834201
 30
0.0
 10
130.6655815972222
 20
281.3855807834201
 30
0.0
 10
129.70577799479165
 20
281.88270806206594
 30
0.0
 10
129.70577799479165
 20
281.88270806206594
 30
0.0
  0
SPLINE
  5
1F4
100
AcDbEntity
  8
CALQUE_1
 62
     7
100
AcDbSpline
210
0.0
220
0.0
230
1.0
 70
     8
 71
     3
 72
    17
 73
    13
 74
     0
 42
0.00000001
 43
0.00000001
 40
0.0
 40
0.0
 40
0.0
 40
0.0
 40
1.0
 40
1.0
 40
1.0
 40
2.0
 40
2.0
 40
2.0
 40
3.0
 40
3.0
 40
3.0
 40
4.0
 40
4.0
 40
4.0
 40
4.0
 10
129.90662706163192
 20
284.77951660156248
 30
0.0
 10
129.90662706163192
 20
284.77951660156248
 30
0.0
 10
130.0916286892361
 20
284.42329372829857
 30
0.0
 10
130.0916286892361
 20
284.42329372829857
 30
0.0
 10
130.14606119791665
 20
284.4541273328993
 30
0.0
 10
130.20531684027776
 20
284.48375515407986
 30
0.0
 10
130.26732855902776
 20
284.51217719184024
 30
0.0
 10
130.26732855902776
 20
284.51217719184024
 30
0.0
 10
130.19739312065971
 20
284.96141764322914
 30
0.0
 10
130.19739312065971
 20
284.96141764322914
 30
0.0
 10
130.08887261284721
 20
284.90664062499997
 30
0.0
 10
129.99103190104165
 20
284.84290635850692
 30
0.0
 10
129.90662706163192
 20
284.77951660156248
 30
0.0
  0
SPLINE
  5
1F3
100
AcDbEntity
  8
CALQUE_1
 62
     7
100
AcDbSpline
210
0.0
220
0.0
230
1.0
 70
     8
 71
     3
 72
    17
 73
    13
 74
     0
 42
0.00000001
 43
0.00000001
 40
0.0
 40
0.0
 40
0.0
 40
0.0
 40
1.0
 40
1.0
 40
1.0
 40
2.0
 40
2.0
 40
2.0
 40
3.0
 40
3.0
 40
3.0
 40
4.0
 40
4.0
 40
4.0
 40
4.0
 10
129.70577799479165
 20
284.6091566297743
 30
0.0
 10
129.70577799479165
 20
284.6091566297743
 30
0.0
 10
129.70577799479165
 20
284.14389648437498
 30
0.0
 10
129.70577799479165
 20
284.14389648437498
 30
0.0
 10
129.77157931857639
 20
284.20487467447913
 30
0.0
 10
129.87320963541666
 20
284.28824598524301
 30
0.0
 10
130.00619032118055
 20
284.37213406032981
 30
0.0
 10
130.00619032118055
 20
284.37213406032981
 30
0.0
 10
129.82704535590275
 20
284.71681586371523
 30
0.0
 10
129.82704535590275
 20
284.71681586371523
 30
0.0
 10
129.7815700954861
 20
284.67891981336805
 30
0.0
 10
129.74022894965276
 20
284.64222954644094
 30
0.0
 10
129.70577799479165
 20
284.6091566297743
 30
0.0
  0
SPLINE
  5
1F2
100
AcDbEntity
  8
CALQUE_1
 62
     7
100
AcDbSpline
210
0.0
220
0.0
230
1.0
 70
     8
 71
     3
 72
    20
 73
    16
 74
     0
 42
0.00000001
 43
0.00000001
 40
0.0
 40
0.0
 40
0.0
 40
0.0
 40
1.0
 40
1.0
 40
1.0
 40
2.0
 40
2.0
 40
2.0
 40
3.0
 40
3.0
 40
3.0
 40
4.0
 40
4.0
 40
4.0
 40
5.0
 40
5.0
 40
5.0
 40
5.0
 10
130.36172417534721
 20
284.55248480902776
 30
0.0
 10
130.42476942274305
 20
284.57780626085065
 30
0.0
 10
130.49022623697917
 20
284.60157741970482
 30
0.0
 10
130.56050618489581
 20
284.62207573784718
 30
0.0
 10
130.57876519097221
 20
284.63086073133678
 30
0.0
 10
130.59599066840278
 20
284.63878445095486
 30
0.0
 10
130.61390516493054
 20
284.6472249348958
 30
0.0
 10
130.61390516493054
 20
284.6472249348958
 30
0.0
 10
130.62492947048611
 20
285.10111626519097
 30
0.0
 10
130.62492947048611
 20
285.10111626519097
 30
0.0
 10
130.50641818576386
 20
285.0833740234375
 30
0.0
 10
130.39479709201387
 20
285.04892306857636
 30
0.0
 10
130.29109971788193
 20
285.00465359157982
 30
0.0
 10
130.29109971788193
 20
285.00465359157982
 30
0.0
 10
130.36172417534721
 20
284.55248480902776
 30
0.0
 10
130.36172417534721
 20
284.55248480902776
 30
0.0
  0
SPLINE
  5
1F1
100
AcDbEntity
  8
CALQUE_1
 62
     7
100
AcDbSpline
210
0.0
220
0.0
230
1.0
 70
     8
 71
     3
 72
    17
 73
    13
 74
     0
 42
0.00000001
 43
0.00000001
 40
0.0
 40
0.0
 40
0.0
 40
0.0
 40
1.0
 40
1.0
 40
1.0
 40
2.0
 40
2.0
 40
2.0
 40
3.0
 40
3.0
 40
3.0
 40
4.0
 40
4.0
 40
4.0
 40
4.0
 10
130.72483723958331
 20
285.11179606119788
 30
0.0
 10
130.72483723958331
 20
285.11179606119788
 30
0.0
 10
130.71450195312499
 20
284.69304470486111
 30
0.0
 10
130.71450195312499
 20
284.69304470486111
 30
0.0
 10
130.79063856336805
 20
284.726806640625
 30
0.0
 10
130.8602294921875
 20
284.75505642361111
 30
0.0
 10
130.91914062499998
 20
284.77572699652774
 30
0.0
 10
130.91914062499998
 20
284.77572699652774
 30
0.0
 10
131.00182291666667
 20
285.09594862196178
 30
0.0
 10
131.00182291666667
 20
285.09594862196178
 30
0.0
 10
130.90639377170137
 20
285.11334635416665
 30
0.0
 10
130.813720703125
 20
285.11765272352426
 30
0.0
 10
130.72483723958331
 20
285.11179606119788
 30
0.0
  0
SPLINE
  5
1F0
100
AcDbEntity
  8
CALQUE_1
 62
     7
100
AcDbSpline
210
0.0
220
0.0
230
1.0
 70
     8
 71
     3
 72
    17
 73
    13
 74
     0
 42
0.00000001
 43
0.00000001
 40
0.0
 40
0.0
 40
0.0
 40
0.0
 40
1.0
 40
1.0
 40
1.0
 40
2.0
 40
2.0
 40
2.0
 40
3.0
 40
3.0
 40
3.0
 40
4.0
 40
4.0
 40
4.0
 40
4.0
 10
131.09828559027775
 20
285.07372775607638
 30
0.0
 10
131.09828559027775
 20
285.07372775607638
 30
0.0
 10
131.05453287760415
 20
284.90216200086803
 30
0.0
 10
131.05453287760415
 20
284.90216200086803
 30
0.0
 10
131.05453287760415
 20
284.90216200086803
 30
0.0
 10
131.247802734375
 20
284.71681586371523
 30
0.0
 10
131.247802734375
 20
284.71681586371523
 30
0.0
 10
131.247802734375
 20
284.71681586371523
 30
0.0
 10
131.39731987847222
 20
284.92541639539928
 30
0.0
 10
131.39731987847222
 20
284.92541639539928
 30
0.0
 10
131.31601562499998
 20
284.98777262369788
 30
0.0
 10
131.21817491319445
 20
285.03996582031249
 30
0.0
 10
131.09828559027775
 20
285.07372775607638
 30
0.0
  0
SPLINE
  5
1EF
100
AcDbEntity
  8
CALQUE_1
 62
     7
100
AcDbSpline
210
0.0
220
0.0
230
1.0
 70
     8
 71
     3
 72
    20
 73
    16
 74
     0
 42
0.00000001
 43
0.00000001
 40
0.0
 40
0.0
 40
0.0
 40
0.0
 40
1.0
 40
1.0
 40
1.0
 40
2.0
 40
2.0
 40
2.0
 40
3.0
 40
3.0
 40
3.0
 40
4.0
 40
4.0
 40
4.0
 40
5.0
 40
5.0
 40
5.0
 40
5.0
 10
131.42143554687499
 20
284.47445339626734
 30
0.0
 10
131.42143554687499
 20
284.47445339626734
 30
0.0
 10
131.67086046006943
 20
284.56747097439234
 30
0.0
 10
131.67086046006943
 20
284.56747097439234
 30
0.0
 10
131.6264187282986
 20
284.66737874348956
 30
0.0
 10
131.56337348090275
 20
284.77038709852428
 30
0.0
 10
131.47242296006942
 20
284.85978732638887
 30
0.0
 10
131.47242296006942
 20
284.85978732638887
 30
0.0
 10
131.32049424913194
 20
284.64739718967013
 30
0.0
 10
131.32049424913194
 20
284.64739718967013
 30
0.0
 10
131.32049424913194
 20
284.64739718967013
 30
0.0
 10
131.42625868055555
 20
284.54576687282986
 30
0.0
 10
131.42625868055555
 20
284.54576687282986
 30
0.0
 10
131.42625868055555
 20
284.54576687282986
 30
0.0
 10
131.4248806423611
 20
284.51958414713539
 30
0.0
 10
131.42143554687499
 20
284.47445339626734
 30
0.0
  0
SPLINE
  5
1EE
100
AcDbEntity
  8
CALQUE_1
 62
     7
100
AcDbSpline
210
0.0
220
0.0
230
1.0
 70
     8
 71
     3
 72
    17
 73
    13
 74
     0
 42
0.00000001
 43
0.00000001
 40
0.0
 40
0.0
 40
0.0
 40
0.0
 40
1.0
 40
1.0
 40
1.0
 40
2.0
 40
2.0
 40
2.0
 40
3.0
 40
3.0
 40
3.0
 40
4.0
 40
4.0
 40
4.0
 40
4.0
 10
131.70737847222222
 20
284.47497016059026
 30
0.0
 10
131.70737847222222
 20
284.47497016059026
 30
0.0
 10
131.41316731770831
 20
284.36524386935764
 30
0.0
 10
131.41316731770831
 20
284.36524386935764
 30
0.0
 10
131.40834418402775
 20
284.30116509331594
 30
0.0
 10
131.40214301215278
 20
284.22365044487844
 30
0.0
 10
131.39594184027777
 20
284.13872884114579
 30
0.0
 10
131.39594184027777
 20
284.13872884114579
 30
0.0
 10
131.77421332465278
 20
284.13872884114579
 30
0.0
 10
131.77421332465278
 20
284.13872884114579
 30
0.0
 10
131.77214626736111
 20
284.1824815538194
 30
0.0
 10
131.76146647135417
 20
284.31839057074649
 30
0.0
 10
131.70737847222222
 20
284.47497016059026
 30
0.0
  0
CIRCLE
  5
1ED
100
AcDbEntity
  8
CALQUE_1
 62
     7
100
AcDbCircle
 10
131.132048
 20
284.024007
 30
0.0
 40
0.064768
  0
SPLINE
  5
1EC
100
AcDbEntity
  8
CALQUE_1
 62
     7
100
AcDbSpline
210
0.0
220
0.0
230
1.0
 70
     8
 71
     3
 72
    68
 73
    64
 74
     0
 42
0.00000001
 43
0.00000001
 40
0.0
 40
0.0
 40
0.0
 40
0.0
 40
1.0
 40
1.0
 40
1.0
 40
2.0
 40
2.0
 40
2.0
 40
3.0
 40
3.0
 40
3.0
 40
4.0
 40
4.0
 40
4.0
 40
5.0
 40
5.0
 40
5.0
 40
6.0
 40
6.0
 40
6.0
 40
7.0
 40
7.0
 40
7.0
 40
8.0
 40
8.0
 40
8.0
 40
9.0
 40
9.0
 40
9.0
 40
10.0
 40
10.0
 40
10.0
 40
11.0
 40
11.0
 40
11.0
 40
12.0
 40
12.0
 40
12.0
 40
13.0
 40
13.0
 40
13.0
 40
14.0
 40
14.0
 40
14.0
 40
15.0
 40
15.0
 40
15.0
 40
16.0
 40
16.0
 40
16.0
 40
17.0
 40
17.0
 40
17.0
 40
18.0
 40
18.0
 40
18.0
 40
19.0
 40
19.0
 40
19.0
 40
20.0
 40
20.0
 40
20.0
 40
21.0
 40
21.0
 40
21.0
 40
21.0
 10
134.66189236111109
 20
284.52957492404511
 30
0.0
 10
134.66189236111109
 20
284.29530843098956
 30
0.0
 10
134.56818576388886
 20
284.11754150390624
 30
0.0
 10
134.38111707899304
 20
283.99627414279513
 30
0.0
 10
134.1937038845486
 20
283.87500678168402
 30
0.0
 10
133.91947428385416
 20
283.81437310112847
 30
0.0
 10
133.55842827690972
 20
283.81437310112847
 30
0.0
 10
133.22115342881943
 20
283.81437310112847
 30
0.0
 10
132.94382324218748
 20
283.87845187717011
 30
0.0
 10
132.7271267361111
 20
284.00695393880204
 30
0.0
 10
132.5104302300347
 20
284.13511149088538
 30
0.0
 10
132.4019097222222
 20
284.30047607421875
 30
0.0
 10
132.4019097222222
 20
284.50270317925344
 30
0.0
 10
132.4019097222222
 20
284.7025187174479
 30
0.0
 10
132.51284179687499
 20
284.86857231987847
 30
0.0
 10
132.73470594618055
 20
285.00017496744789
 30
0.0
 10
132.95657009548609
 20
285.13212212456597
 30
0.0
 10
133.23562282986109
 20
285.19792344835065
 30
0.0
 10
133.57186414930555
 20
285.19792344835065
 30
0.0
 10
133.78408203124999
 20
285.19792344835065
 30
0.0
 10
133.97321777343748
 20
285.17242974175343
 30
0.0
 10
134.13927137586805
 20
285.12127007378467
 30
0.0
 10
134.30566948784721
 20
285.07011040581597
 30
0.0
 10
134.44485134548609
 20
284.99466281467011
 30
0.0
 10
134.55716145833333
 20
284.89475504557288
 30
0.0
 10
134.55716145833333
 20
284.89475504557288
 30
0.0
 10
134.04280870225693
 20
284.74385986328122
 30
0.0
 10
134.04280870225693
 20
284.74385986328122
 30
0.0
 10
133.98079698350693
 20
284.79484727647565
 30
0.0
 10
133.91120605468748
 20
284.83257107204861
 30
0.0
 10
133.83369140624998
 20
284.8575480143229
 30
0.0
 10
133.75652126736111
 20
284.88235270182287
 30
0.0
 10
133.66936035156249
 20
284.89475504557288
 30
0.0
 10
133.57289767795137
 20
284.89475504557288
 30
0.0
 10
133.39650878906249
 20
284.89475504557288
 30
0.0
 10
133.25629340277777
 20
284.85858154296875
 30
0.0
 10
133.15259602864583
 20
284.78623453776038
 30
0.0
 10
133.04889865451386
 20
284.71405978732639
 30
0.0
 10
132.99722222222221
 20
284.61570231119788
 30
0.0
 10
132.99722222222221
 20
284.49133436414928
 30
0.0
 10
132.99722222222221
 20
284.37351209852426
 30
0.0
 10
133.04820963541667
 20
284.27997775607639
 30
0.0
 10
133.14983995225694
 20
284.21055908203124
 30
0.0
 10
133.25147026909721
 20
284.14114040798609
 30
0.0
 10
133.38789605034722
 20
284.10651719835067
 30
0.0
 10
133.55877278645832
 20
284.10651719835067
 30
0.0
 10
133.70794542100694
 20
284.10651719835067
 30
0.0
 10
133.82886827256942
 20
284.1268432617187
 30
0.0
 10
133.92188585069442
 20
284.16766764322915
 30
0.0
 10
134.01524793836805
 20
284.20849202473954
 30
0.0
 10
134.06899142795137
 20
284.26344129774304
 30
0.0
 10
134.08311631944443
 20
284.33251546223954
 30
0.0
 10
134.08311631944443
 20
284.33251546223954
 30
0.0
 10
133.53190104166666
 20
284.33251546223954
 30
0.0
 10
133.53190104166666
 20
284.33251546223954
 30
0.0
 10
133.53190104166666
 20
284.33251546223954
 30
0.0
 10
133.53190104166666
 20
284.61363525390624
 30
0.0
 10
133.53190104166666
 20
284.61363525390624
 30
0.0
 10
133.53190104166666
 20
284.61363525390624
 30
0.0
 10
134.66189236111109
 20
284.61363525390624
 30
0.0
 10
134.66189236111109
 20
284.61363525390624
 30
0.0
 10
134.66189236111109
 20
284.61363525390624
 30
0.0
 10
134.66189236111109
 20
284.52957492404511
 30
0.0
 10
134.66189236111109
 20
284.52957492404511
 30
0.0
  0
SPLINE
  5
1EB
100
AcDbEntity
  8
CALQUE_1
 62
     7
100
AcDbSpline
210
0.0
220
0.0
230
1.0
 70
     8
 71
     3
 72
    38
 73
    34
 74
     0
 42
0.00000001
 43
0.00000001
 40
0.0
 40
0.0
 40
0.0
 40
0.0
 40
1.0
 40
1.0
 40
1.0
 40
2.0
 40
2.0
 40
2.0
 40
3.0
 40
3.0
 40
3.0
 40
4.0
 40
4.0
 40
4.0
 40
5.0
 40
5.0
 40
5.0
 40
6.0
 40
6.0
 40
6.0
 40
7.0
 40
7.0
 40
7.0
 40
8.0
 40
8.0
 40
8.0
 40
9.0
 40
9.0
 40
9.0
 40
10.0
 40
10.0
 40
10.0
 40
11.0
 40
11.0
 40
11.0
 40
11.0
 10
136.75582139756943
 20
283.84193386501732
 30
0.0
 10
136.75582139756943
 20
283.84193386501732
 30
0.0
 10
136.07817111545137
 20
283.84193386501732
 30
0.0
 10
136.07817111545137
 20
283.84193386501732
 30
0.0
 10
136.07817111545137
 20
283.84193386501732
 30
0.0
 10
135.57070855034721
 20
284.35456407335067
 30
0.0
 10
135.57070855034721
 20
284.35456407335067
 30
0.0
 10
135.57070855034721
 20
284.35456407335067
 30
0.0
 10
135.57070855034721
 20
283.84193386501732
 30
0.0
 10
135.57070855034721
 20
283.84193386501732
 30
0.0
 10
135.57070855034721
 20
283.84193386501732
 30
0.0
 10
134.99744466145833
 20
283.84193386501732
 30
0.0
 10
134.99744466145833
 20
283.84193386501732
 30
0.0
 10
134.99744466145833
 20
283.84193386501732
 30
0.0
 10
134.99744466145833
 20
285.17036268446179
 30
0.0
 10
134.99744466145833
 20
285.17036268446179
 30
0.0
 10
134.99744466145833
 20
285.17036268446179
 30
0.0
 10
135.67027180989581
 20
285.17036268446179
 30
0.0
 10
135.67027180989581
 20
285.17036268446179
 30
0.0
 10
136.02993977864583
 20
285.17036268446179
 30
0.0
 10
136.28212076822916
 20
285.13642849392357
 30
0.0
 10
136.42750379774304
 20
285.06873236762152
 30
0.0
 10
136.57288682725692
 20
285.00103624131941
 30
0.0
 10
136.64557834201386
 20
284.89406602647568
 30
0.0
 10
136.64557834201386
 20
284.74764946831596
 30
0.0
 10
136.64557834201386
 20
284.64498562282984
 30
0.0
 10
136.60354817708333
 20
284.56126980251736
 30
0.0
 10
136.51983235677082
 20
284.49650200737847
 30
0.0
 10
136.43611653645831
 20
284.43173421223958
 30
0.0
 10
136.31450466579861
 20
284.38884277343749
 30
0.0
 10
136.15465223524305
 20
284.3681722005208
 30
0.0
 10
136.15465223524305
 20
284.3681722005208
 30
0.0
 10
136.75582139756943
 20
283.84193386501732
 30
0.0
 10
136.75582139756943
 20
283.84193386501732
 30
0.0
  0
SPLINE
  5
1EA
100
AcDbEntity
  8
CALQUE_1
 62
     7
100
AcDbSpline
210
0.0
220
0.0
230
1.0
 70
     8
 71
     3
 72
    26
 73
    22
 74
     0
 42
0.00000001
 43
0.00000001
 40
0.0
 40
0.0
 40
0.0
 40
0.0
 40
1.0
 40
1.0
 40
1.0
 40
2.0
 40
2.0
 40
2.0
 40
3.0
 40
3.0
 40
3.0
 40
4.0
 40
4.0
 40
4.0
 40
5.0
 40
5.0
 40
5.0
 40
6.0
 40
6.0
 40
6.0
 40
7.0
 40
7.0
 40
7.0
 40
7.0
 10
136.05026584201389
 20
284.7032077365451
 30
0.0
 10
136.05026584201389
 20
284.76952582465276
 30
0.0
 10
136.022705078125
 20
284.81724039713538
 30
0.0
 10
135.9672390407986
 20
284.84600694444441
 30
0.0
 10
135.91177300347221
 20
284.87477349175344
 30
0.0
 10
135.81806640624998
 20
284.8892428927951
 30
0.0
 10
135.68646375868053
 20
284.8892428927951
 30
0.0
 10
135.68646375868053
 20
284.8892428927951
 30
0.0
 10
135.57070855034721
 20
284.8892428927951
 30
0.0
 10
135.57070855034721
 20
284.8892428927951
 30
0.0
 10
135.57070855034721
 20
284.8892428927951
 30
0.0
 10
135.57070855034721
 20
284.53095296223955
 30
0.0
 10
135.57070855034721
 20
284.53095296223955
 30
0.0
 10
135.57070855034721
 20
284.53095296223955
 30
0.0
 10
135.67612847222222
 20
284.53095296223955
 30
0.0
 10
135.67612847222222
 20
284.53095296223955
 30
0.0
 10
135.80428602430555
 20
284.53095296223955
 30
0.0
 10
135.898681640625
 20
284.54490559895828
 30
0.0
 10
135.95931532118055
 20
284.57298312717012
 30
0.0
 10
136.01994900173611
 20
284.60088840060763
 30
0.0
 10
136.05026584201389
 20
284.64429660373264
 30
0.0
 10
136.05026584201389
 20
284.7032077365451
 30
0.0
  0
SPLINE
  5
1E9
100
AcDbEntity
  8
CALQUE_1
 62
     7
100
AcDbSpline
210
0.0
220
0.0
230
1.0
 70
     8
 71
     3
 72
    29
 73
    25
 74
     0
 42
0.00000001
 43
0.00000001
 40
0.0
 40
0.0
 40
0.0
 40
0.0
 40
1.0
 40
1.0
 40
1.0
 40
2.0
 40
2.0
 40
2.0
 40
3.0
 40
3.0
 40
3.0
 40
4.0
 40
4.0
 40
4.0
 40
5.0
 40
5.0
 40
5.0
 40
6.0
 40
6.0
 40
6.0
 40
7.0
 40
7.0
 40
7.0
 40
8.0
 40
8.0
 40
8.0
 40
8.0
 10
139.25937228732639
 20
284.50442572699649
 30
0.0
 10
139.25937228732639
 20
284.30908881293402
 30
0.0
 10
139.14465060763888
 20
284.1451022677951
 30
0.0
 10
138.91520724826387
 20
284.01281060112842
 30
0.0
 10
138.68610839843748
 20
283.8805189344618
 30
0.0
 10
138.40223253038192
 20
283.81437310112847
 30
0.0
 10
138.06392415364581
 20
283.81437310112847
 30
0.0
 10
137.72458224826389
 20
283.81437310112847
 30
0.0
 10
137.4400173611111
 20
283.8805189344618
 30
0.0
 10
137.21091851128472
 20
284.01281060112842
 30
0.0
 10
136.98147515190971
 20
284.1451022677951
 30
0.0
 10
136.86709798177083
 20
284.30908881293402
 30
0.0
 10
136.86709798177083
 20
284.50442572699649
 30
0.0
 10
136.86709798177083
 20
284.69907362196176
 30
0.0
 10
136.98216417100693
 20
284.86340467664928
 30
0.0
 10
137.21229654947916
 20
284.99724663628467
 30
0.0
 10
137.44242892795137
 20
285.13108859592012
 30
0.0
 10
137.72630479600693
 20
285.19792344835065
 30
0.0
 10
138.06392415364581
 20
285.19792344835065
 30
0.0
 10
138.40223253038192
 20
285.19792344835065
 30
0.0
 10
138.68610839843748
 20
285.13108859592012
 30
0.0
 10
138.91520724826387
 20
284.9977634006076
 30
0.0
 10
139.14465060763888
 20
284.86409369574648
 30
0.0
 10
139.25937228732639
 20
284.69976264105901
 30
0.0
 10
139.25937228732639
 20
284.50442572699649
 30
0.0
  0
SPLINE
  5
1E8
100
AcDbEntity
  8
CALQUE_1
 62
     7
100
AcDbSpline
210
0.0
220
0.0
230
1.0
 70
     8
 71
     3
 72
    29
 73
    25
 74
     0
 42
0.00000001
 43
0.00000001
 40
0.0
 40
0.0
 40
0.0
 40
0.0
 40
1.0
 40
1.0
 40
1.0
 40
2.0
 40
2.0
 40
2.0
 40
3.0
 40
3.0
 40
3.0
 40
4.0
 40
4.0
 40
4.0
 40
5.0
 40
5.0
 40
5.0
 40
6.0
 40
6.0
 40
6.0
 40
7.0
 40
7.0
 40
7.0
 40
8.0
 40
8.0
 40
8.0
 40
8.0
 10
138.66405978732638
 20
284.50442572699649
 30
0.0
 10
138.66405978732638
 20
284.60571153428816
 30
0.0
 10
138.60721571180554
 20
284.69080539279514
 30
0.0
 10
138.49387207031248
 20
284.75901828342012
 30
0.0
 10
138.38052842881945
 20
284.82757568359375
 30
0.0
 10
138.23755696614583
 20
284.86168212890624
 30
0.0
 10
138.06461317274304
 20
284.86168212890624
 30
0.0
 10
137.88753526475693
 20
284.86168212890624
 30
0.0
 10
137.74318576388887
 20
284.82792019314235
 30
0.0
 10
137.63087565104166
 20
284.76039632161456
 30
0.0
 10
137.51856553819442
 20
284.69287245008678
 30
0.0
 10
137.46241048177083
 20
284.6074340820312
 30
0.0
 10
137.46241048177083
 20
284.50442572699649
 30
0.0
 10
137.46241048177083
 20
284.40296766493054
 30
0.0
 10
137.51891004774305
 20
284.31873508029514
 30
0.0
 10
137.63225368923611
 20
284.25155571831596
 30
0.0
 10
137.74559733072914
 20
284.1842041015625
 30
0.0
 10
137.8896023220486
 20
284.15061442057288
 30
0.0
 10
138.06461317274304
 20
284.15061442057288
 30
0.0
 10
138.23859049479165
 20
284.15061442057288
 30
0.0
 10
138.38190646701386
 20
284.18437635633677
 30
0.0
 10
138.4945610894097
 20
284.25190022786455
 30
0.0
 10
138.60756022135416
 20
284.31942409939234
 30
0.0
 10
138.66405978732638
 20
284.40348442925347
 30
0.0
 10
138.66405978732638
 20
284.50442572699649
 30
0.0
  0
SPLINE
  5
1E7
100
AcDbEntity
  8
CALQUE_1
 62
     7
100
AcDbSpline
210
0.0
220
0.0
230
1.0
 70
     8
 71
     3
 72
    47
 73
    43
 74
     0
 42
0.00000001
 43
0.00000001
 40
0.0
 40
0.0
 40
0.0
 40
0.0
 40
1.0
 40
1.0
 40
1.0
 40
2.0
 40
2.0
 40
2.0
 40
3.0
 40
3.0
 40
3.0
 40
4.0
 40
4.0
 40
4.0
 40
5.0
 40
5.0
 40
5.0
 40
6.0
 40
6.0
 40
6.0
 40
7.0
 40
7.0
 40
7.0
 40
8.0
 40
8.0
 40
8.0
 40
9.0
 40
9.0
 40
9.0
 40
10.0
 40
10.0
 40
10.0
 40
11.0
 40
11.0
 40
11.0
 40
12.0
 40
12.0
 40
12.0
 40
13.0
 40
13.0
 40
13.0
 40
14.0
 40
14.0
 40
14.0
 40
14.0
 10
141.4490749782986
 20
284.4544718424479
 30
0.0
 10
141.4490749782986
 20
284.20849202473954
 30
0.0
 10
141.37845052083333
 20
284.04037136501734
 30
0.0
 10
141.23685709635416
 20
283.9499376085069
 30
0.0
 10
141.09560818142359
 20
283.85950385199652
 30
0.0
 10
140.85031738281248
 20
283.81437310112847
 30
0.0
 10
140.50167371961805
 20
283.81437310112847
 30
0.0
 10
140.15199652777775
 20
283.81437310112847
 30
0.0
 10
139.90636121961805
 20
283.85950385199652
 30
0.0
 10
139.76511230468748
 20
283.9499376085069
 30
0.0
 10
139.62351888020831
 20
284.04037136501734
 30
0.0
 10
139.55289442274304
 20
284.20849202473954
 30
0.0
 10
139.55289442274304
 20
284.4544718424479
 30
0.0
 10
139.55289442274304
 20
284.4544718424479
 30
0.0
 10
139.55289442274304
 20
285.17036268446179
 30
0.0
 10
139.55289442274304
 20
285.17036268446179
 30
0.0
 10
139.55289442274304
 20
285.17036268446179
 30
0.0
 10
140.12615831163194
 20
285.17036268446179
 30
0.0
 10
140.12615831163194
 20
285.17036268446179
 30
0.0
 10
140.12615831163194
 20
285.17036268446179
 30
0.0
 10
140.12615831163194
 20
284.45102674696176
 30
0.0
 10
140.12615831163194
 20
284.45102674696176
 30
0.0
 10
140.12615831163194
 20
284.31994086371526
 30
0.0
 10
140.1533745659722
 20
284.23157416449652
 30
0.0
 10
140.20780707465278
 20
284.18609890407981
 30
0.0
 10
140.26223958333333
 20
284.14027913411456
 30
0.0
 10
140.35973578559026
 20
284.11754150390624
 30
0.0
 10
140.50098470052083
 20
284.11754150390624
 30
0.0
 10
140.64120008680555
 20
284.11754150390624
 30
0.0
 10
140.73869628906249
 20
284.14027913411456
 30
0.0
 10
140.79347330729166
 20
284.18609890407981
 30
0.0
 10
140.84825032552081
 20
284.23157416449652
 30
0.0
 10
140.87581108940972
 20
284.31994086371526
 30
0.0
 10
140.87581108940972
 20
284.45102674696176
 30
0.0
 10
140.87581108940972
 20
284.45102674696176
 30
0.0
 10
140.87581108940972
 20
285.17036268446179
 30
0.0
 10
140.87581108940972
 20
285.17036268446179
 30
0.0
 10
140.87581108940972
 20
285.17036268446179
 30
0.0
 10
141.4490749782986
 20
285.17036268446179
 30
0.0
 10
141.4490749782986
 20
285.17036268446179
 30
0.0
 10
141.4490749782986
 20
285.17036268446179
 30
0.0
 10
141.4490749782986
 20
284.4544718424479
 30
0.0
 10
141.4490749782986
 20
284.4544718424479
 30
0.0
  0
SPLINE
  5
1E6
100
AcDbEntity
  8
CALQUE_1
 62
     7
100
AcDbSpline
210
0.0
220
0.0
230
1.0
 70
     8
 71
     3
 72
    32
 73
    28
 74
     0
 42
0.00000001
 43
0.00000001
 40
0.0
 40
0.0
 40
0.0
 40
0.0
 40
1.0
 40
1.0
 40
1.0
 40
2.0
 40
2.0
 40
2.0
 40
3.0
 40
3.0
 40
3.0
 40
4.0
 40
4.0
 40
4.0
 40
5.0
 40
5.0
 40
5.0
 40
6.0
 40
6.0
 40
6.0
 40
7.0
 40
7.0
 40
7.0
 40
8.0
 40
8.0
 40
8.0
 40
9.0
 40
9.0
 40
9.0
 40
9.0
 10
143.46755642361109
 20
284.71784939236107
 30
0.0
 10
143.46755642361109
 20
284.5721218532986
 30
0.0
 10
143.3865966796875
 20
284.46239556206592
 30
0.0
 10
143.22467719184027
 20
284.38832600911456
 30
0.0
 10
143.06310221354164
 20
284.31425645616315
 30
0.0
 10
142.82401258680554
 20
284.27739393446177
 30
0.0
 10
142.50809733072916
 20
284.27739393446177
 30
0.0
 10
142.50809733072916
 20
284.27739393446177
 30
0.0
 10
142.41473524305553
 20
284.27739393446177
 30
0.0
 10
142.41473524305553
 20
284.27739393446177
 30
0.0
 10
142.41473524305553
 20
284.27739393446177
 30
0.0
 10
142.41473524305553
 20
283.84193386501732
 30
0.0
 10
142.41473524305553
 20
283.84193386501732
 30
0.0
 10
142.41473524305553
 20
283.84193386501732
 30
0.0
 10
141.84147135416666
 20
283.84193386501732
 30
0.0
 10
141.84147135416666
 20
283.84193386501732
 30
0.0
 10
141.84147135416666
 20
283.84193386501732
 30
0.0
 10
141.84147135416666
 20
285.17036268446179
 30
0.0
 10
141.84147135416666
 20
285.17036268446179
 30
0.0
 10
141.84147135416666
 20
285.17036268446179
 30
0.0
 10
142.48225911458331
 20
285.17036268446179
 30
0.0
 10
142.48225911458331
 20
285.17036268446179
 30
0.0
 10
142.82194552951387
 20
285.17036268446179
 30
0.0
 10
143.07137044270831
 20
285.13315565321176
 30
0.0
 10
143.22984483506943
 20
285.05891384548607
 30
0.0
 10
143.38831922743054
 20
284.98467203776039
 30
0.0
 10
143.46755642361109
 20
284.8709838867187
 30
0.0
 10
143.46755642361109
 20
284.71784939236107
 30
0.0
  0
SPLINE
  5
1E5
100
AcDbEntity
  8
CALQUE_1
 62
     7
100
AcDbSpline
210
0.0
220
0.0
230
1.0
 70
     8
 71
     3
 72
    26
 73
    22
 74
     0
 42
0.00000001
 43
0.00000001
 40
0.0
 40
0.0
 40
0.0
 40
0.0
 40
1.0
 40
1.0
 40
1.0
 40
2.0
 40
2.0
 40
2.0
 40
3.0
 40
3.0
 40
3.0
 40
4.0
 40
4.0
 40
4.0
 40
5.0
 40
5.0
 40
5.0
 40
6.0
 40
6.0
 40
6.0
 40
7.0
 40
7.0
 40
7.0
 40
7.0
 10
142.87224392361111
 20
284.72250027126734
 30
0.0
 10
142.87224392361111
 20
284.7807223849826
 30
0.0
 10
142.84296061197915
 20
284.82309705946176
 30
0.0
 10
142.78404947916664
 20
284.84962429470482
 30
0.0
 10
142.72513834635416
 20
284.87597927517356
 30
0.0
 10
142.62833116319442
 20
284.8892428927951
 30
0.0
 10
142.49362792968748
 20
284.8892428927951
 30
0.0
 10
142.49362792968748
 20
284.8892428927951
 30
0.0
 10
142.41473524305553
 20
284.8892428927951
 30
0.0
 10
142.41473524305553
 20
284.8892428927951
 30
0.0
 10
142.41473524305553
 20
284.8892428927951
 30
0.0
 10
142.41473524305553
 20
284.55851372612847
 30
0.0
 10
142.41473524305553
 20
284.55851372612847
 30
0.0
 10
142.41473524305553
 20
284.55851372612847
 30
0.0
 10
142.4877712673611
 20
284.55851372612847
 30
0.0
 10
142.4877712673611
 20
284.55851372612847
 30
0.0
 10
142.6272976345486
 20
284.55851372612847
 30
0.0
 10
142.7265163845486
 20
284.57126057942708
 30
0.0
 10
142.78473849826386
 20
284.5964097764757
 30
0.0
 10
142.84296061197915
 20
284.62190348307291
 30
0.0
 10
142.87224392361111
 20
284.66393364800342
 30
0.0
 10
142.87224392361111
 20
284.72250027126734
 30
0.0
  0
POLYLINE
  5
1D7
100
AcDbEntity
  8
CALQUE_1
 62
     7
100
AcDb2dPolyline
 66
     1
 10
0.0
 20
0.0
 30
0.0
 70
     1
  0
VERTEX
  5
1D8
100
AcDbEntity
  8
CALQUE_1
 62
     7
100
AcDbVertex
100
AcDb2dVertex
 10
145.016816
 20
283.841934
 30
0.0
  0
VERTEX
  5
1D9
100
AcDbEntity
  8
CALQUE_1
 62
     7
100
AcDbVertex
100
AcDb2dVertex
 10
143.754533
 20
283.841934
 30
0.0
  0
VERTEX
  5
1DA
100
AcDbEntity
  8
CALQUE_1
 62
     7
100
AcDbVertex
100
AcDb2dVertex
 10
143.754533
 20
285.170363
 30
0.0
  0
VERTEX
  5
1DB
100
AcDbEntity
  8
CALQUE_1
 62
     7
100
AcDbVertex
100
AcDb2dVertex
 10
145.016816
 20
285.170363
 30
0.0
  0
VERTEX
  5
1DC
100
AcDbEntity
  8
CALQUE_1
 62
     7
100
AcDbVertex
100
AcDb2dVertex
 10
145.016816
 20
284.878219
 30
0.0
  0
VERTEX
  5
1DD
100
AcDbEntity
  8
CALQUE_1
 62
     7
100
AcDbVertex
100
AcDb2dVertex
 10
144.327797
 20
284.878219
 30
0.0
  0
VERTEX
  5
1DE
100
AcDbEntity
  8
CALQUE_1
 62
     7
100
AcDbVertex
100
AcDb2dVertex
 10
144.327797
 20
284.657732
 30
0.0
  0
VERTEX
  5
1DF
100
AcDbEntity
  8
CALQUE_1
 62
     7
100
AcDbVertex
100
AcDb2dVertex
 10
144.989255
 20
284.657732
 30
0.0
  0
VERTEX
  5
1E0
100
AcDbEntity
  8
CALQUE_1
 62
     7
100
AcDbVertex
100
AcDb2dVertex
 10
144.989255
 20
284.376613
 30
0.0
  0
VERTEX
  5
1E1
100
AcDbEntity
  8
CALQUE_1
 62
     7
100
AcDbVertex
100
AcDb2dVertex
 10
144.327797
 20
284.376613
 30
0.0
  0
VERTEX
  5
1E2
100
AcDbEntity
  8
CALQUE_1
 62
     7
100
AcDbVertex
100
AcDb2dVertex
 10
144.327797
 20
284.134078
 30
0.0
  0
VERTEX
  5
1E3
100
AcDbEntity
  8
CALQUE_1
 62
     7
100
AcDbVertex
100
AcDb2dVertex
 10
145.016816
 20
284.134078
 30
0.0
  0
SEQEND
  5
1E4
100
AcDbEntity
  8
CALQUE_1
 62
     7
  0
POLYLINE
  5
1CD
100
AcDbEntity
  8
CALQUE_1
 62
     7
100
AcDb2dPolyline
 66
     1
 10
0.0
 20
0.0
 30
0.0
 70
     1
  0
VERTEX
  5
1CE
100
AcDbEntity
  8
CALQUE_1
 62
     7
100
AcDbVertex
100
AcDb2dVertex
 10
134.595747
 20
281.725267
 30
0.0
  0
VERTEX
  5
1CF
100
AcDbEntity
  8
CALQUE_1
 62
     7
100
AcDbVertex
100
AcDb2dVertex
 10
133.981831
 20
281.725267
 30
0.0
  0
VERTEX
  5
1D0
100
AcDbEntity
  8
CALQUE_1
 62
     7
100
AcDbVertex
100
AcDb2dVertex
 10
133.861941
 20
281.96229
 30
0.0
  0
VERTEX
  5
1D1
100
AcDbEntity
  8
CALQUE_1
 62
     7
100
AcDbVertex
100
AcDb2dVertex
 10
133.019615
 20
281.96229
 30
0.0
  0
VERTEX
  5
1D2
100
AcDbEntity
  8
CALQUE_1
 62
     7
100
AcDbVertex
100
AcDb2dVertex
 10
132.89697
 20
281.725267
 30
0.0
  0
VERTEX
  5
1D3
100
AcDbEntity
  8
CALQUE_1
 62
     7
100
AcDbVertex
100
AcDb2dVertex
 10
132.280642
 20
281.725267
 30
0.0
  0
VERTEX
  5
1D4
100
AcDbEntity
  8
CALQUE_1
 62
     7
100
AcDbVertex
100
AcDb2dVertex
 10
133.066813
 20
283.053696
 30
0.0
  0
VERTEX
  5
1D5
100
AcDbEntity
  8
CALQUE_1
 62
     7
100
AcDbVertex
100
AcDb2dVertex
 10
133.811987
 20
283.053696
 30
0.0
  0
SEQEND
  5
1D6
100
AcDbEntity
  8
CALQUE_1
 62
     7
  0
POLYLINE
  5
1C8
100
AcDbEntity
  8
CALQUE_1
 62
     7
100
AcDb2dPolyline
 66
     1
 10
0.0
 20
0.0
 30
0.0
 70
     1
  0
VERTEX
  5
1C9
100
AcDbEntity
  8
CALQUE_1
 62
     7
100
AcDbVertex
100
AcDb2dVertex
 10
133.736195
 20
282.215849
 30
0.0
  0
VERTEX
  5
1CA
100
AcDbEntity
  8
CALQUE_1
 62
     7
100
AcDbVertex
100
AcDb2dVertex
 10
133.443707
 20
282.780844
 30
0.0
  0
VERTEX
  5
1CB
100
AcDbEntity
  8
CALQUE_1
 62
     7
100
AcDbVertex
100
AcDb2dVertex
 10
133.148117
 20
282.215849
 30
0.0
  0
SEQEND
  5
1CC
100
AcDbEntity
  8
CALQUE_1
 62
     7
  0
POLYLINE
  5
1C2
100
AcDbEntity
  8
CALQUE_1
 62
     7
100
AcDb2dPolyline
 66
     1
 10
0.0
 20
0.0
 30
0.0
 70
     1
  0
VERTEX
  5
1C3
100
AcDbEntity
  8
CALQUE_1
 62
     7
100
AcDbVertex
100
AcDb2dVertex
 10
135.344021
 20
281.725267
 30
0.0
  0
VERTEX
  5
1C4
100
AcDbEntity
  8
CALQUE_1
 62
     7
100
AcDbVertex
100
AcDb2dVertex
 10
134.770757
 20
281.725267
 30
0.0
  0
VERTEX
  5
1C5
100
AcDbEntity
  8
CALQUE_1
 62
     7
100
AcDbVertex
100
AcDb2dVertex
 10
134.770757
 20
283.053696
 30
0.0
  0
VERTEX
  5
1C6
100
AcDbEntity
  8
CALQUE_1
 62
     7
100
AcDbVertex
100
AcDb2dVertex
 10
135.344021
 20
283.053696
 30
0.0
  0
SEQEND
  5
1C7
100
AcDbEntity
  8
CALQUE_1
 62
     7
  0
SPLINE
  5
1C1
100
AcDbEntity
  8
CALQUE_1
 62
     7
100
AcDbSpline
210
0.0
220
0.0
230
1.0
 70
     8
 71
     3
 72
    38
 73
    34
 74
     0
 42
0.00000001
 43
0.00000001
 40
0.0
 40
0.0
 40
0.0
 40
0.0
 40
1.0
 40
1.0
 40
1.0
 40
2.0
 40
2.0
 40
2.0
 40
3.0
 40
3.0
 40
3.0
 40
4.0
 40
4.0
 40
4.0
 40
5.0
 40
5.0
 40
5.0
 40
6.0
 40
6.0
 40
6.0
 40
7.0
 40
7.0
 40
7.0
 40
8.0
 40
8.0
 40
8.0
 40
9.0
 40
9.0
 40
9.0
 40
10.0
 40
10.0
 40
10.0
 40
11.0
 40
11.0
 40
11.0
 40
11.0
 10
137.54061414930555
 20
281.72526719835065
 30
0.0
 10
137.54061414930555
 20
281.72526719835065
 30
0.0
 10
136.86296386718749
 20
281.72526719835065
 30
0.0
 10
136.86296386718749
 20
281.72526719835065
 30
0.0
 10
136.86296386718749
 20
281.72526719835065
 30
0.0
 10
136.35550130208333
 20
282.237897406684
 30
0.0
 10
136.35550130208333
 20
282.237897406684
 30
0.0
 10
136.35550130208333
 20
282.237897406684
 30
0.0
 10
136.35550130208333
 20
281.72526719835065
 30
0.0
 10
136.35550130208333
 20
281.72526719835065
 30
0.0
 10
136.35550130208333
 20
281.72526719835065
 30
0.0
 10
135.78223741319442
 20
281.72526719835065
 30
0.0
 10
135.78223741319442
 20
281.72526719835065
 30
0.0
 10
135.78223741319442
 20
281.72526719835065
 30
0.0
 10
135.78223741319442
 20
283.05369601779512
 30
0.0
 10
135.78223741319442
 20
283.05369601779512
 30
0.0
 10
135.78223741319442
 20
283.05369601779512
 30
0.0
 10
136.45506456163193
 20
283.05369601779512
 30
0.0
 10
136.45506456163193
 20
283.05369601779512
 30
0.0
 10
136.81473253038195
 20
283.05369601779512
 30
0.0
 10
137.06691351996525
 20
283.0197618272569
 30
0.0
 10
137.21229654947916
 20
282.95206570095485
 30
0.0
 10
137.35767957899304
 20
282.88436957465274
 30
0.0
 10
137.43037109374998
 20
282.77739935980901
 30
0.0
 10
137.43037109374998
 20
282.63098280164928
 30
0.0
 10
137.43037109374998
 20
282.52831895616316
 30
0.0
 10
137.38834092881945
 20
282.44460313585068
 30
0.0
 10
137.30462510850694
 20
282.37983534071179
 30
0.0
 10
137.22090928819443
 20
282.3150675455729
 30
0.0
 10
137.0992974175347
 20
282.27217610677081
 30
0.0
 10
136.93944498697914
 20
282.25150553385413
 30
0.0
 10
136.93944498697914
 20
282.25150553385413
 30
0.0
 10
137.54061414930555
 20
281.72526719835065
 30
0.0
 10
137.54061414930555
 20
281.72526719835065
 30
0.0
  0
SPLINE
  5
1C0
100
AcDbEntity
  8
CALQUE_1
 62
     7
100
AcDbSpline
210
0.0
220
0.0
230
1.0
 70
     8
 71
     3
 72
    26
 73
    22
 74
     0
 42
0.00000001
 43
0.00000001
 40
0.0
 40
0.0
 40
0.0
 40
0.0
 40
1.0
 40
1.0
 40
1.0
 40
2.0
 40
2.0
 40
2.0
 40
3.0
 40
3.0
 40
3.0
 40
4.0
 40
4.0
 40
4.0
 40
5.0
 40
5.0
 40
5.0
 40
6.0
 40
6.0
 40
6.0
 40
7.0
 40
7.0
 40
7.0
 40
7.0
 10
136.83505859374998
 20
282.58654106987842
 30
0.0
 10
136.83505859374998
 20
282.65285915798609
 30
0.0
 10
136.80749782986109
 20
282.7005737304687
 30
0.0
 10
136.75203179253472
 20
282.72934027777774
 30
0.0
 10
136.69656575520833
 20
282.75810682508677
 30
0.0
 10
136.6028591579861
 20
282.77257622612842
 30
0.0
 10
136.47125651041665
 20
282.77257622612842
 30
0.0
 10
136.47125651041665
 20
282.77257622612842
 30
0.0
 10
136.35550130208333
 20
282.77257622612842
 30
0.0
 10
136.35550130208333
 20
282.77257622612842
 30
0.0
 10
136.35550130208333
 20
282.77257622612842
 30
0.0
 10
136.35550130208333
 20
282.41428629557288
 30
0.0
 10
136.35550130208333
 20
282.41428629557288
 30
0.0
 10
136.35550130208333
 20
282.41428629557288
 30
0.0
 10
136.46092122395831
 20
282.41428629557288
 30
0.0
 10
136.46092122395831
 20
282.41428629557288
 30
0.0
 10
136.58907877604165
 20
282.41428629557288
 30
0.0
 10
136.68347439236109
 20
282.42823893229166
 30
0.0
 10
136.74410807291665
 20
282.45631646050344
 30
0.0
 10
136.8047417534722
 20
282.48422173394096
 30
0.0
 10
136.83505859374998
 20
282.52762993706597
 30
0.0
 10
136.83505859374998
 20
282.58654106987842
 30
0.0
  0
POLYLINE
  5
1B4
100
AcDbEntity
  8
CALQUE_1
 62
     7
100
AcDb2dPolyline
 66
     1
 10
0.0
 20
0.0
 30
0.0
 70
     1
  0
VERTEX
  5
1B5
100
AcDbEntity
  8
CALQUE_1
 62
     7
100
AcDbVertex
100
AcDb2dVertex
 10
140.066214
 20
282.772576
 30
0.0
  0
VERTEX
  5
1B6
100
AcDbEntity
  8
CALQUE_1
 62
     7
100
AcDbVertex
100
AcDb2dVertex
 10
139.355146
 20
282.772576
 30
0.0
  0
VERTEX
  5
1B7
100
AcDbEntity
  8
CALQUE_1
 62
     7
100
AcDbVertex
100
AcDb2dVertex
 10
139.355146
 20
282.541066
 30
0.0
  0
VERTEX
  5
1B8
100
AcDbEntity
  8
CALQUE_1
 62
     7
100
AcDbVertex
100
AcDb2dVertex
 10
140.022116
 20
282.541066
 30
0.0
  0
VERTEX
  5
1B9
100
AcDbEntity
  8
CALQUE_1
 62
     7
100
AcDbVertex
100
AcDb2dVertex
 10
140.022116
 20
282.259946
 30
0.0
  0
VERTEX
  5
1BA
100
AcDbEntity
  8
CALQUE_1
 62
     7
100
AcDbVertex
100
AcDb2dVertex
 10
139.355146
 20
282.259946
 30
0.0
  0
VERTEX
  5
1BB
100
AcDbEntity
  8
CALQUE_1
 62
     7
100
AcDbVertex
100
AcDb2dVertex
 10
139.355146
 20
281.725267
 30
0.0
  0
VERTEX
  5
1BC
100
AcDbEntity
  8
CALQUE_1
 62
     7
100
AcDbVertex
100
AcDb2dVertex
 10
138.781882
 20
281.725267
 30
0.0
  0
VERTEX
  5
1BD
100
AcDbEntity
  8
CALQUE_1
 62
     7
100
AcDbVertex
100
AcDb2dVertex
 10
138.781882
 20
283.053696
 30
0.0
  0
VERTEX
  5
1BE
100
AcDbEntity
  8
CALQUE_1
 62
     7
100
AcDbVertex
100
AcDb2dVertex
 10
140.066214
 20
283.053696
 30
0.0
  0
SEQEND
  5
1BF
100
AcDbEntity
  8
CALQUE_1
 62
     7
  0
SPLINE
  5
1B3
100
AcDbEntity
  8
CALQUE_1
 62
     7
100
AcDbSpline
210
0.0
220
0.0
230
1.0
 70
     8
 71
     3
 72
    38
 73
    34
 74
     0
 42
0.00000001
 43
0.00000001
 40
0.0
 40
0.0
 40
0.0
 40
0.0
 40
1.0
 40
1.0
 40
1.0
 40
2.0
 40
2.0
 40
2.0
 40
3.0
 40
3.0
 40
3.0
 40
4.0
 40
4.0
 40
4.0
 40
5.0
 40
5.0
 40
5.0
 40
6.0
 40
6.0
 40
6.0
 40
7.0
 40
7.0
 40
7.0
 40
8.0
 40
8.0
 40
8.0
 40
9.0
 40
9.0
 40
9.0
 40
10.0
 40
10.0
 40
10.0
 40
11.0
 40
11.0
 40
11.0
 40
11.0
 10
142.12741427951389
 20
281.72526719835065
 30
0.0
 10
142.12741427951389
 20
281.72526719835065
 30
0.0
 10
141.44941948784722
 20
281.72526719835065
 30
0.0
 10
141.44941948784722
 20
281.72526719835065
 30
0.0
 10
141.44941948784722
 20
281.72526719835065
 30
0.0
 10
140.94230143229166
 20
282.237897406684
 30
0.0
 10
140.94230143229166
 20
282.237897406684
 30
0.0
 10
140.94230143229166
 20
282.237897406684
 30
0.0
 10
140.94230143229166
 20
281.72526719835065
 30
0.0
 10
140.94230143229166
 20
281.72526719835065
 30
0.0
 10
140.94230143229166
 20
281.72526719835065
 30
0.0
 10
140.36903754340275
 20
281.72526719835065
 30
0.0
 10
140.36903754340275
 20
281.72526719835065
 30
0.0
 10
140.36903754340275
 20
281.72526719835065
 30
0.0
 10
140.36903754340275
 20
283.05369601779512
 30
0.0
 10
140.36903754340275
 20
283.05369601779512
 30
0.0
 10
140.36903754340275
 20
283.05369601779512
 30
0.0
 10
141.04186469184026
 20
283.05369601779512
 30
0.0
 10
141.04186469184026
 20
283.05369601779512
 30
0.0
 10
141.40118815104165
 20
283.05369601779512
 30
0.0
 10
141.65371365017359
 20
283.0197618272569
 30
0.0
 10
141.79909667968749
 20
282.95206570095485
 30
0.0
 10
141.94447970920137
 20
282.88436957465274
 30
0.0
 10
142.01717122395831
 20
282.77739935980901
 30
0.0
 10
142.01717122395831
 20
282.63098280164928
 30
0.0
 10
142.01717122395831
 20
282.52831895616316
 30
0.0
 10
141.97514105902778
 20
282.44460313585068
 30
0.0
 10
141.89142523871527
 20
282.37983534071179
 30
0.0
 10
141.80770941840277
 20
282.3150675455729
 30
0.0
 10
141.68575303819443
 20
282.27217610677081
 30
0.0
 10
141.52590060763887
 20
282.25150553385413
 30
0.0
 10
141.52590060763887
 20
282.25150553385413
 30
0.0
 10
142.12741427951389
 20
281.72526719835065
 30
0.0
 10
142.12741427951389
 20
281.72526719835065
 30
0.0
  0
SPLINE
  5
1B2
100
AcDbEntity
  8
CALQUE_1
 62
     7
100
AcDbSpline
210
0.0
220
0.0
230
1.0
 70
     8
 71
     3
 72
    26
 73
    22
 74
     0
 42
0.00000001
 43
0.00000001
 40
0.0
 40
0.0
 40
0.0
 40
0.0
 40
1.0
 40
1.0
 40
1.0
 40
2.0
 40
2.0
 40
2.0
 40
3.0
 40
3.0
 40
3.0
 40
4.0
 40
4.0
 40
4.0
 40
5.0
 40
5.0
 40
5.0
 40
6.0
 40
6.0
 40
6.0
 40
7.0
 40
7.0
 40
7.0
 40
7.0
 10
141.42185872395831
 20
282.58654106987842
 30
0.0
 10
141.42185872395831
 20
282.65285915798609
 30
0.0
 10
141.39395345052083
 20
282.7005737304687
 30
0.0
 10
141.33848741319443
 20
282.72934027777774
 30
0.0
 10
141.28336588541666
 20
282.75810682508677
 30
0.0
 10
141.18965928819443
 20
282.77257622612842
 30
0.0
 10
141.05771213107639
 20
282.77257622612842
 30
0.0
 10
141.05771213107639
 20
282.77257622612842
 30
0.0
 10
140.94230143229166
 20
282.77257622612842
 30
0.0
 10
140.94230143229166
 20
282.77257622612842
 30
0.0
 10
140.94230143229166
 20
282.77257622612842
 30
0.0
 10
140.94230143229166
 20
282.41428629557288
 30
0.0
 10
140.94230143229166
 20
282.41428629557288
 30
0.0
 10
140.94230143229166
 20
282.41428629557288
 30
0.0
 10
141.04772135416664
 20
282.41428629557288
 30
0.0
 10
141.04772135416664
 20
282.41428629557288
 30
0.0
 10
141.17553439670138
 20
282.41428629557288
 30
0.0
 10
141.26993001302083
 20
282.42823893229166
 30
0.0
 10
141.33056369357638
 20
282.45631646050344
 30
0.0
 10
141.39119737413193
 20
282.48422173394096
 30
0.0
 10
141.42185872395831
 20
282.52762993706597
 30
0.0
 10
141.42185872395831
 20
282.58654106987842
 30
0.0
  0
POLYLINE
  5
1A8
100
AcDbEntity
  8
CALQUE_1
 62
     7
100
AcDb2dPolyline
 66
     1
 10
0.0
 20
0.0
 30
0.0
 70
     1
  0
VERTEX
  5
1A9
100
AcDbEntity
  8
CALQUE_1
 62
     7
100
AcDbVertex
100
AcDb2dVertex
 10
144.503841
 20
281.725267
 30
0.0
  0
VERTEX
  5
1AA
100
AcDbEntity
  8
CALQUE_1
 62
     7
100
AcDbVertex
100
AcDb2dVertex
 10
143.889925
 20
281.725267
 30
0.0
  0
VERTEX
  5
1AB
100
AcDbEntity
  8
CALQUE_1
 62
     7
100
AcDbVertex
100
AcDb2dVertex
 10
143.770036
 20
281.96229
 30
0.0
  0
VERTEX
  5
1AC
100
AcDbEntity
  8
CALQUE_1
 62
     7
100
AcDbVertex
100
AcDb2dVertex
 10
142.92771
 20
281.96229
 30
0.0
  0
VERTEX
  5
1AD
100
AcDbEntity
  8
CALQUE_1
 62
     7
100
AcDbVertex
100
AcDb2dVertex
 10
142.80472
 20
281.725267
 30
0.0
  0
VERTEX
  5
1AE
100
AcDbEntity
  8
CALQUE_1
 62
     7
100
AcDbVertex
100
AcDb2dVertex
 10
142.188737
 20
281.725267
 30
0.0
  0
VERTEX
  5
1AF
100
AcDbEntity
  8
CALQUE_1
 62
     7
100
AcDbVertex
100
AcDb2dVertex
 10
142.974563
 20
283.053696
 30
0.0
  0
VERTEX
  5
1B0
100
AcDbEntity
  8
CALQUE_1
 62
     7
100
AcDbVertex
100
AcDb2dVertex
 10
143.720082
 20
283.053696
 30
0.0
  0
SEQEND
  5
1B1
100
AcDbEntity
  8
CALQUE_1
 62
     7
  0
POLYLINE
  5
1A3
100
AcDbEntity
  8
CALQUE_1
 62
     7
100
AcDb2dPolyline
 66
     1
 10
0.0
 20
0.0
 30
0.0
 70
     1
  0
VERTEX
  5
1A4
100
AcDbEntity
  8
CALQUE_1
 62
     7
100
AcDbVertex
100
AcDb2dVertex
 10
143.64429
 20
282.215849
 30
0.0
  0
VERTEX
  5
1A5
100
AcDbEntity
  8
CALQUE_1
 62
     7
100
AcDbVertex
100
AcDb2dVertex
 10
143.351457
 20
282.780844
 30
0.0
  0
VERTEX
  5
1A6
100
AcDbEntity
  8
CALQUE_1
 62
     7
100
AcDbVertex
100
AcDb2dVertex
 10
143.056212
 20
282.215849
 30
0.0
  0
SEQEND
  5
1A7
100
AcDbEntity
  8
CALQUE_1
 62
     7
  0
POLYLINE
  5
197
100
AcDbEntity
  8
CALQUE_1
 62
     7
100
AcDb2dPolyline
 66
     1
 10
0.0
 20
0.0
 30
0.0
 70
     1
  0
VERTEX
  5
198
100
AcDbEntity
  8
CALQUE_1
 62
     7
100
AcDbVertex
100
AcDb2dVertex
 10
146.866832
 20
281.725267
 30
0.0
  0
VERTEX
  5
199
100
AcDbEntity
  8
CALQUE_1
 62
     7
100
AcDbVertex
100
AcDb2dVertex
 10
146.293568
 20
281.725267
 30
0.0
  0
VERTEX
  5
19A
100
AcDbEntity
  8
CALQUE_1
 62
     7
100
AcDbVertex
100
AcDb2dVertex
 10
145.268308
 20
282.549506
 30
0.0
  0
VERTEX
  5
19B
100
AcDbEntity
  8
CALQUE_1
 62
     7
100
AcDbVertex
100
AcDb2dVertex
 10
145.268308
 20
281.725267
 30
0.0
  0
VERTEX
  5
19C
100
AcDbEntity
  8
CALQUE_1
 62
     7
100
AcDbVertex
100
AcDb2dVertex
 10
144.695044
 20
281.725267
 30
0.0
  0
VERTEX
  5
19D
100
AcDbEntity
  8
CALQUE_1
 62
     7
100
AcDbVertex
100
AcDb2dVertex
 10
144.695044
 20
283.053696
 30
0.0
  0
VERTEX
  5
19E
100
AcDbEntity
  8
CALQUE_1
 62
     7
100
AcDbVertex
100
AcDb2dVertex
 10
145.273131
 20
283.053696
 30
0.0
  0
VERTEX
  5
19F
100
AcDbEntity
  8
CALQUE_1
 62
     7
100
AcDbVertex
100
AcDb2dVertex
 10
146.293568
 20
282.227734
 30
0.0
  0
VERTEX
  5
1A0
100
AcDbEntity
  8
CALQUE_1
 62
     7
100
AcDbVertex
100
AcDb2dVertex
 10
146.293568
 20
283.053696
 30
0.0
  0
VERTEX
  5
1A1
100
AcDbEntity
  8
CALQUE_1
 62
     7
100
AcDbVertex
100
AcDb2dVertex
 10
146.866832
 20
283.053696
 30
0.0
  0
SEQEND
  5
1A2
100
AcDbEntity
  8
CALQUE_1
 62
     7
  0
SPLINE
  5
196
100
AcDbEntity
  8
CALQUE_1
 62
     7
100
AcDbSpline
210
0.0
220
0.0
230
1.0
 70
     8
 71
     3
 72
    59
 73
    55
 74
     0
 42
0.00000001
 43
0.00000001
 40
0.0
 40
0.0
 40
0.0
 40
0.0
 40
1.0
 40
1.0
 40
1.0
 40
2.0
 40
2.0
 40
2.0
 40
3.0
 40
3.0
 40
3.0
 40
4.0
 40
4.0
 40
4.0
 40
5.0
 40
5.0
 40
5.0
 40
6.0
 40
6.0
 40
6.0
 40
7.0
 40
7.0
 40
7.0
 40
8.0
 40
8.0
 40
8.0
 40
9.0
 40
9.0
 40
9.0
 40
10.0
 40
10.0
 40
10.0
 40
11.0
 40
11.0
 40
11.0
 40
12.0
 40
12.0
 40
12.0
 40
13.0
 40
13.0
 40
13.0
 40
14.0
 40
14.0
 40
14.0
 40
15.0
 40
15.0
 40
15.0
 40
16.0
 40
16.0
 40
16.0
 40
17.0
 40
17.0
 40
17.0
 40
18.0
 40
18.0
 40
18.0
 40
18.0
 10
148.91528591579859
 20
281.78073323567708
 30
0.0
 10
148.84466145833332
 20
281.75351698133676
 30
0.0
 10
148.75956759982637
 20
281.7330186631944
 30
0.0
 10
148.65965983072914
 20
281.71889377170135
 30
0.0
 10
148.56009657118054
 20
281.70476888020829
 30
0.0
 10
148.44950900607637
 20
281.69770643446179
 30
0.0
 10
148.32858615451389
 20
281.69770643446179
 30
0.0
 10
148.00405815972221
 20
281.69770643446179
 30
0.0
 10
147.73499620225692
 20
281.76299099392361
 30
0.0
 10
147.52140028211804
 20
281.89373236762151
 30
0.0
 10
147.30780436197915
 20
282.02430148654514
 30
0.0
 10
147.20100640190972
 20
282.1889770507812
 30
0.0
 10
147.20100640190972
 20
282.38775906032981
 30
0.0
 10
147.20100640190972
 20
282.58654106987842
 30
0.0
 10
147.30780436197915
 20
282.75190565321179
 30
0.0
 10
147.52208930121526
 20
282.88350830078122
 30
0.0
 10
147.73637424045137
 20
283.01545545789929
 30
0.0
 10
148.00509168836805
 20
283.08125678168398
 30
0.0
 10
148.32858615451389
 20
283.08125678168398
 30
0.0
 10
148.45260959201389
 20
283.08125678168398
 30
0.0
 10
148.56354166666665
 20
283.0743665907118
 30
0.0
 10
148.66172688802081
 20
283.06058620876735
 30
0.0
 10
148.76025661892359
 20
283.04680582682289
 30
0.0
 10
148.84466145833332
 20
283.02596299913193
 30
0.0
 10
148.91528591579859
 20
282.99822998046875
 30
0.0
 10
148.91528591579859
 20
282.99822998046875
 30
0.0
 10
148.91528591579859
 20
282.60721164279511
 30
0.0
 10
148.91528591579859
 20
282.60721164279511
 30
0.0
 10
148.84845106336803
 20
282.65096435546872
 30
0.0
 10
148.76886935763886
 20
282.68472629123261
 30
0.0
 10
148.67654079861109
 20
282.70884195963538
 30
0.0
 10
148.58455674913193
 20
282.73295762803815
 30
0.0
 10
148.48878309461804
 20
282.74501546223956
 30
0.0
 10
148.38921983506944
 20
282.74501546223956
 30
0.0
 10
148.21248643663193
 20
282.74501546223956
 30
0.0
 10
148.06951497395832
 20
282.71159803602427
 30
0.0
 10
147.9603054470486
 20
282.64459092881941
 30
0.0
 10
147.85075141059028
 20
282.57758382161455
 30
0.0
 10
147.7963189019097
 20
282.48973388671874
 30
0.0
 10
147.7963189019097
 20
282.38086886935764
 30
0.0
 10
147.7963189019097
 20
282.27958306206597
 30
0.0
 10
147.8514404296875
 20
282.19621175130203
 30
0.0
 10
147.96237250434027
 20
282.1314439561632
 30
0.0
 10
148.07296006944443
 20
282.06633165147565
 30
0.0
 10
148.21558702256942
 20
282.0339477539062
 30
0.0
 10
148.38921983506944
 20
282.0339477539062
 30
0.0
 10
148.48568250868055
 20
282.0339477539062
 30
0.0
 10
148.58111165364582
 20
282.04600558810762
 30
0.0
 10
148.67516276041664
 20
282.07046576605899
 30
0.0
 10
148.76921386718749
 20
282.09492594401041
 30
0.0
 10
148.84914008246525
 20
282.1286878797743
 30
0.0
 10
148.91528591579859
 20
282.17175157335066
 30
0.0
 10
148.91528591579859
 20
282.17175157335066
 30
0.0
 10
148.91528591579859
 20
281.78073323567708
 30
0.0
 10
148.91528591579859
 20
281.78073323567708
 30
0.0
  0
POLYLINE
  5
188
100
AcDbEntity
  8
CALQUE_1
 62
     7
100
AcDb2dPolyline
 66
     1
 10
0.0
 20
0.0
 30
0.0
 70
     1
  0
VERTEX
  5
189
100
AcDbEntity
  8
CALQUE_1
 62
     7
100
AcDbVertex
100
AcDb2dVertex
 10
150.495551
 20
281.725267
 30
0.0
  0
VERTEX
  5
18A
100
AcDbEntity
  8
CALQUE_1
 62
     7
100
AcDbVertex
100
AcDb2dVertex
 10
149.233268
 20
281.725267
 30
0.0
  0
VERTEX
  5
18B
100
AcDbEntity
  8
CALQUE_1
 62
     7
100
AcDbVertex
100
AcDb2dVertex
 10
149.233268
 20
283.053696
 30
0.0
  0
VERTEX
  5
18C
100
AcDbEntity
  8
CALQUE_1
 62
     7
100
AcDbVertex
100
AcDb2dVertex
 10
150.495551
 20
283.053696
 30
0.0
  0
VERTEX
  5
18D
100
AcDbEntity
  8
CALQUE_1
 62
     7
100
AcDbVertex
100
AcDb2dVertex
 10
150.495551
 20
282.761552
 30
0.0
  0
VERTEX
  5
18E
100
AcDbEntity
  8
CALQUE_1
 62
     7
100
AcDbVertex
100
AcDb2dVertex
 10
149.806532
 20
282.761552
 30
0.0
  0
VERTEX
  5
18F
100
AcDbEntity
  8
CALQUE_1
 62
     7
100
AcDbVertex
100
AcDb2dVertex
 10
149.806532
 20
282.541066
 30
0.0
  0
VERTEX
  5
190
100
AcDbEntity
  8
CALQUE_1
 62
     7
100
AcDbVertex
100
AcDb2dVertex
 10
150.46799
 20
282.541066
 30
0.0
  0
VERTEX
  5
191
100
AcDbEntity
  8
CALQUE_1
 62
     7
100
AcDbVertex
100
AcDb2dVertex
 10
150.46799
 20
282.259946
 30
0.0
  0
VERTEX
  5
192
100
AcDbEntity
  8
CALQUE_1
 62
     7
100
AcDbVertex
100
AcDb2dVertex
 10
149.806532
 20
282.259946
 30
0.0
  0
VERTEX
  5
193
100
AcDbEntity
  8
CALQUE_1
 62
     7
100
AcDbVertex
100
AcDb2dVertex
 10
149.806532
 20
282.017411
 30
0.0
  0
VERTEX
  5
194
100
AcDbEntity
  8
CALQUE_1
 62
     7
100
AcDbVertex
100
AcDb2dVertex
 10
150.495551
 20
282.017411
 30
0.0
  0
SEQEND
  5
195
100
AcDbEntity
  8
CALQUE_1
 62
     7
  0
SPLINE
  5
187
100
AcDbEntity
  8
CALQUE_1
 62
     7
100
AcDbSpline
210
0.0
220
0.0
230
1.0
 70
     8
 71
     3
 72
    17
 73
    13
 74
     0
 42
0.00000001
 43
0.00000001
 40
0.0
 40
0.0
 40
0.0
 40
0.0
 40
1.0
 40
1.0
 40
1.0
 40
2.0
 40
2.0
 40
2.0
 40
3.0
 40
3.0
 40
3.0
 40
4.0
 40
4.0
 40
4.0
 40
4.0
 10
129.56142849392359
 20
275.71943223741317
 30
0.0
 10
129.56142849392359
 20
275.71943223741317
 30
0.0
 10
128.73770616319445
 20
276.37400037977426
 30
0.0
 10
128.73770616319445
 20
276.95053710937498
 30
0.0
 10
128.73770616319445
 20
277.5270738389757
 30
0.0
 10
128.73770616319445
 20
279.86405436197913
 30
0.0
 10
128.73770616319445
 20
279.86405436197913
 30
0.0
 10
128.73770616319445
 20
279.86405436197913
 30
0.0
 10
129.19073621961803
 20
279.92589382595486
 30
0.0
 10
129.56142849392359
 20
279.79187961154514
 30
0.0
 10
129.56142849392359
 20
279.79187961154514
 30
0.0
 10
129.56142849392359
 20
275.71943223741317
 30
0.0
 10
129.56142849392359
 20
275.71943223741317
 30
0.0
  0
SPLINE
  5
186
100
AcDbEntity
  8
CALQUE_1
 62
     7
100
AcDbSpline
210
0.0
220
0.0
230
1.0
 70
     8
 71
     3
 72
    29
 73
    25
 74
     0
 42
0.00000001
 43
0.00000001
 40
0.0
 40
0.0
 40
0.0
 40
0.0
 40
1.0
 40
1.0
 40
1.0
 40
2.0
 40
2.0
 40
2.0
 40
3.0
 40
3.0
 40
3.0
 40
4.0
 40
4.0
 40
4.0
 40
5.0
 40
5.0
 40
5.0
 40
6.0
 40
6.0
 40
6.0
 40
7.0
 40
7.0
 40
7.0
 40
8.0
 40
8.0
 40
8.0
 40
8.0
 10
128.68671874999998
 20
276.47321912977429
 30
0.0
 10
128.57785373263889
 20
276.54005398220482
 30
0.0
 10
128.50481770833332
 20
276.66028781467014
 30
0.0
 10
128.50481770833332
 20
276.79740261501735
 30
0.0
 10
128.50481770833332
 20
276.87233344184023
 30
0.0
 10
128.52686631944442
 20
276.94209662543398
 30
0.0
 10
128.56441786024305
 20
277.00100775824649
 30
0.0
 10
128.56441786024305
 20
277.00100775824649
 30
0.0
 10
128.56441786024305
 20
277.53947618272565
 30
0.0
 10
128.56441786024305
 20
277.53947618272565
 30
0.0
 10
128.27744140624998
 20
277.41493598090273
 30
0.0
 10
128.0762478298611
 20
277.12933756510415
 30
0.0
 10
128.0762478298611
 20
276.79740261501735
 30
0.0
 10
128.0762478298611
 20
276.63513861762152
 30
0.0
 10
128.12482367621527
 20
276.48441569010413
 30
0.0
 10
128.20716145833333
 20
276.35780843098956
 30
0.0
 10
128.20716145833333
 20
276.35780843098956
 30
0.0
 10
128.90754937065972
 20
275.98969997829857
 30
0.0
 10
128.90754937065972
 20
275.98969997829857
 30
0.0
 10
128.93511013454861
 20
275.9905612521701
 30
0.0
 10
128.96232638888887
 20
275.99262830946179
 30
0.0
 10
128.98919813368053
 20
275.99624565972221
 30
0.0
 10
128.87723253038195
 20
276.13938937717012
 30
0.0
 10
128.76698947482637
 20
276.30303141276039
 30
0.0
 10
128.68671874999998
 20
276.47321912977429
 30
0.0
  0
SPLINE
  5
185
100
AcDbEntity
  8
CALQUE_1
 62
     7
100
AcDbSpline
210
0.0
220
0.0
230
1.0
 70
     8
 71
     3
 72
    14
 73
    10
 74
     0
 42
0.00000001
 43
0.00000001
 40
0.0
 40
0.0
 40
0.0
 40
0.0
 40
1.0
 40
1.0
 40
1.0
 40
2.0
 40
2.0
 40
2.0
 40
3.0
 40
3.0
 40
3.0
 40
3.0
 10
129.05189887152775
 20
275.91390787760412
 30
0.0
 10
129.05189887152775
 20
275.91390787760412
 30
0.0
 10
129.05810004340276
 20
275.91080729166663
 30
0.0
 10
129.05810004340276
 20
275.91080729166663
 30
0.0
 10
129.05672200520831
 20
275.9120130750868
 30
0.0
 10
129.05568847656249
 20
275.91339111328125
 30
0.0
 10
129.05465494791665
 20
275.91459689670137
 30
0.0
 10
129.05396592881942
 20
275.91442464192704
 30
0.0
 10
129.0529324001736
 20
275.91425238715277
 30
0.0
 10
129.05189887152775
 20
275.91390787760412
 30
0.0
  0
SPLINE
  5
184
100
AcDbEntity
  8
CALQUE_1
 62
     7
100
AcDbSpline
210
0.0
220
0.0
230
1.0
 70
     8
 71
     3
 72
    23
 73
    19
 74
     0
 42
0.00000001
 43
0.00000001
 40
0.0
 40
0.0
 40
0.0
 40
0.0
 40
1.0
 40
1.0
 40
1.0
 40
2.0
 40
2.0
 40
2.0
 40
3.0
 40
3.0
 40
3.0
 40
4.0
 40
4.0
 40
4.0
 40
5.0
 40
5.0
 40
5.0
 40
6.0
 40
6.0
 40
6.0
 40
6.0
 10
127.55741644965276
 20
276.79740261501735
 30
0.0
 10
127.55741644965276
 20
276.76364067925346
 30
0.0
 10
127.55913899739582
 20
276.73022325303816
 30
0.0
 10
127.5615505642361
 20
276.69715033637152
 30
0.0
 10
127.5615505642361
 20
276.69715033637152
 30
0.0
 10
128.06315646701387
 20
276.43342827690969
 30
0.0
 10
128.06315646701387
 20
276.43342827690969
 30
0.0
 10
128.01354709201388
 20
276.54487711588541
 30
0.0
 10
127.98564181857638
 20
276.66769476996524
 30
0.0
 10
127.98564181857638
 20
276.79740261501735
 30
0.0
 10
127.98564181857638
 20
277.18015272352426
 30
0.0
 10
128.22645399305554
 20
277.5070922851562
 30
0.0
 10
128.56441786024305
 20
277.63662787543399
 30
0.0
 10
128.56441786024305
 20
277.63662787543399
 30
0.0
 10
128.56441786024305
 20
278.08569607204856
 30
0.0
 10
128.56441786024305
 20
278.08569607204856
 30
0.0
 10
127.98667534722222
 20
277.94186333550346
 30
0.0
 10
127.55741644965276
 20
277.41889784071179
 30
0.0
 10
127.55741644965276
 20
276.79740261501735
 30
0.0
  0
SPLINE
  5
183
100
AcDbEntity
  8
CALQUE_1
 62
     7
100
AcDbSpline
210
0.0
220
0.0
230
1.0
 70
     8
 71
     3
 72
    20
 73
    16
 74
     0
 42
0.00000001
 43
0.00000001
 40
0.0
 40
0.0
 40
0.0
 40
0.0
 40
1.0
 40
1.0
 40
1.0
 40
2.0
 40
2.0
 40
2.0
 40
3.0
 40
3.0
 40
3.0
 40
4.0
 40
4.0
 40
4.0
 40
5.0
 40
5.0
 40
5.0
 40
5.0
 10
127.02549370659722
 20
276.97895914713541
 30
0.0
 10
127.02549370659722
 20
276.97895914713541
 30
0.0
 10
127.44303927951388
 20
276.75933430989579
 30
0.0
 10
127.44303927951388
 20
276.75933430989579
 30
0.0
 10
127.44303927951388
 20
276.76519097222217
 30
0.0
 10
127.44269476996527
 20
276.77104763454861
 30
0.0
 10
127.44269476996527
 20
276.77673204210066
 30
0.0
 10
127.44269476996527
 20
277.46609564887149
 30
0.0
 10
127.92190755208333
 20
278.0450439453125
 30
0.0
 10
128.56441786024305
 20
278.19938422309025
 30
0.0
 10
128.56441786024305
 20
278.19938422309025
 30
0.0
 10
128.56441786024305
 20
278.63708360460066
 30
0.0
 10
128.56441786024305
 20
278.63708360460066
 30
0.0
 10
127.74861924913193
 20
278.48756646050344
 30
0.0
 10
127.11437717013888
 20
277.81370578342012
 30
0.0
 10
127.02549370659722
 20
276.97895914713541
 30
0.0
  0
SPLINE
  5
182
100
AcDbEntity
  8
CALQUE_1
 62
     7
100
AcDbSpline
210
0.0
220
0.0
230
1.0
 70
     8
 71
     3
 72
    17
 73
    13
 74
     0
 42
0.00000001
 43
0.00000001
 40
0.0
 40
0.0
 40
0.0
 40
0.0
 40
1.0
 40
1.0
 40
1.0
 40
2.0
 40
2.0
 40
2.0
 40
3.0
 40
3.0
 40
3.0
 40
4.0
 40
4.0
 40
4.0
 40
4.0
 10
126.5259548611111
 20
277.24130316840274
 30
0.0
 10
126.5259548611111
 20
277.24130316840274
 30
0.0
 10
126.92834201388888
 20
277.02977430555552
 30
0.0
 10
126.92834201388888
 20
277.02977430555552
 30
0.0
 10
127.01550292968749
 20
277.90913492838541
 30
0.0
 10
127.69728732638887
 20
278.61641303168398
 30
0.0
 10
128.56441786024305
 20
278.74319254557287
 30
0.0
 10
128.56441786024305
 20
278.74319254557287
 30
0.0
 10
128.56441786024305
 20
279.1746907552083
 30
0.0
 10
128.56441786024305
 20
279.1746907552083
 30
0.0
 10
127.53123372395832
 20
279.05187310112842
 30
0.0
 10
126.70165473090276
 20
278.25743408203124
 30
0.0
 10
126.5259548611111
 20
277.24130316840274
 30
0.0
  0
SPLINE
  5
181
100
AcDbEntity
  8
CALQUE_1
 62
     7
100
AcDbSpline
210
0.0
220
0.0
230
1.0
 70
     8
 71
     3
 72
    17
 73
    13
 74
     0
 42
0.00000001
 43
0.00000001
 40
0.0
 40
0.0
 40
0.0
 40
0.0
 40
1.0
 40
1.0
 40
1.0
 40
2.0
 40
2.0
 40
2.0
 40
3.0
 40
3.0
 40
3.0
 40
4.0
 40
4.0
 40
4.0
 40
4.0
 10
126.01194661458332
 20
277.51122639973954
 30
0.0
 10
126.01194661458332
 20
277.51122639973954
 30
0.0
 10
126.41088867187499
 20
277.30142008463537
 30
0.0
 10
126.41088867187499
 20
277.30142008463537
 30
0.0
 10
126.56109483506944
 20
278.38145751953124
 30
0.0
 10
127.45957573784722
 20
279.22516140407981
 30
0.0
 10
128.56441786024305
 20
279.28941243489578
 30
0.0
 10
128.56441786024305
 20
279.28941243489578
 30
0.0
 10
128.56441786024305
 20
279.71849907769092
 30
0.0
 10
128.56441786024305
 20
279.71849907769092
 30
0.0
 10
127.29524468315971
 20
279.65631510416665
 30
0.0
 10
126.25069173177083
 20
278.72665608723958
 30
0.0
 10
126.01194661458332
 20
277.51122639973954
 30
0.0
  0
SPLINE
  5
180
100
AcDbEntity
  8
CALQUE_1
 62
     7
100
AcDbSpline
210
0.0
220
0.0
230
1.0
 70
     8
 71
     3
 72
    71
 73
    67
 74
     0
 42
0.00000001
 43
0.00000001
 40
0.0
 40
0.0
 40
0.0
 40
0.0
 40
1.0
 40
1.0
 40
1.0
 40
2.0
 40
2.0
 40
2.0
 40
3.0
 40
3.0
 40
3.0
 40
4.0
 40
4.0
 40
4.0
 40
5.0
 40
5.0
 40
5.0
 40
6.0
 40
6.0
 40
6.0
 40
7.0
 40
7.0
 40
7.0
 40
8.0
 40
8.0
 40
8.0
 40
9.0
 40
9.0
 40
9.0
 40
10.0
 40
10.0
 40
10.0
 40
11.0
 40
11.0
 40
11.0
 40
12.0
 40
12.0
 40
12.0
 40
13.0
 40
13.0
 40
13.0
 40
14.0
 40
14.0
 40
14.0
 40
15.0
 40
15.0
 40
15.0
 40
16.0
 40
16.0
 40
16.0
 40
17.0
 40
17.0
 40
17.0
 40
18.0
 40
18.0
 40
18.0
 40
19.0
 40
19.0
 40
19.0
 40
20.0
 40
20.0
 40
20.0
 40
21.0
 40
21.0
 40
21.0
 40
22.0
 40
22.0
 40
22.0
 40
22.0
 10
129.70577799479165
 20
275.63830023871526
 30
0.0
 10
129.70577799479165
 20
275.63830023871526
 30
0.0
 10
129.70577799479165
 20
277.72826741536454
 30
0.0
 10
129.70577799479165
 20
277.72826741536454
 30
0.0
 10
129.70577799479165
 20
277.72826741536454
 30
0.0
 10
130.17913411458332
 20
278.27397054036453
 30
0.0
 10
130.99217664930555
 20
278.33563774956593
 30
0.0
 10
131.03351779513886
 20
278.40781249999998
 30
0.0
 10
131.05418836805555
 20
278.49015028211801
 30
0.0
 10
131.05418836805555
 20
278.49015028211801
 30
0.0
 10
131.05418836805555
 20
278.49015028211801
 30
0.0
 10
131.3008572048611
 20
278.2532999674479
 30
0.0
 10
131.3008572048611
 20
278.2532999674479
 30
0.0
 10
131.3008572048611
 20
278.2532999674479
 30
0.0
 10
131.19819335937498
 20
276.88404676649304
 30
0.0
 10
131.19819335937498
 20
276.88404676649304
 30
0.0
 10
131.19819335937498
 20
276.88404676649304
 30
0.0
 10
130.93085394965277
 20
276.85321316189231
 30
0.0
 10
130.93085394965277
 20
276.85321316189231
 30
0.0
 10
130.93085394965277
 20
276.85321316189231
 30
0.0
 10
130.64215494791665
 20
277.33707682291663
 30
0.0
 10
130.64215494791665
 20
277.33707682291663
 30
0.0
 10
130.64215494791665
 20
277.33707682291663
 30
0.0
 10
130.57015245225693
 20
277.33707682291663
 30
0.0
 10
130.59082302517359
 20
277.16206597222219
 30
0.0
 10
130.61114908854165
 20
276.98705512152776
 30
0.0
 10
130.64215494791665
 20
276.77087537977428
 30
0.0
 10
130.87917751736109
 20
276.49285617404513
 30
0.0
 10
130.87917751736109
 20
276.49285617404513
 30
0.0
 10
130.44647352430553
 20
275.84431694878469
 30
0.0
 10
130.44647352430553
 20
275.84431694878469
 30
0.0
 10
130.44647352430553
 20
275.84431694878469
 30
0.0
 10
130.43648274739581
 20
275.76197916666666
 30
0.0
 10
130.52915581597222
 20
275.79281277126734
 30
0.0
 10
130.52915581597222
 20
275.79281277126734
 30
0.0
 10
131.23505588107636
 20
276.74658745659718
 30
0.0
 10
131.23505588107636
 20
276.74658745659718
 30
0.0
 10
131.23505588107636
 20
276.74658745659718
 30
0.0
 10
131.54545898437499
 20
276.61171196831594
 30
0.0
 10
131.54545898437499
 20
276.61171196831594
 30
0.0
 10
131.54545898437499
 20
276.61171196831594
 30
0.0
 10
131.56027289496527
 20
275.54648844401038
 30
0.0
 10
131.56027289496527
 20
275.54648844401038
 30
0.0
 10
131.56027289496527
 20
275.54648844401038
 30
0.0
 10
130.96806098090278
 20
275.00199110243051
 30
0.0
 10
130.96806098090278
 20
275.00199110243051
 30
0.0
 10
130.96806098090278
 20
275.00199110243051
 30
0.0
 10
130.96806098090278
 20
275.36493191189231
 30
0.0
 10
130.96806098090278
 20
275.36493191189231
 30
0.0
 10
130.96806098090278
 20
275.36493191189231
 30
0.0
 10
131.13790418836805
 20
275.37096082899302
 30
0.0
 10
131.13790418836805
 20
275.37096082899302
 30
0.0
 10
131.13790418836805
 20
275.37096082899302
 30
0.0
 10
131.3318630642361
 20
275.58162841796872
 30
0.0
 10
131.3318630642361
 20
275.58162841796872
 30
0.0
 10
131.3318630642361
 20
275.58162841796872
 30
0.0
 10
131.31601562499998
 20
276.26634114583328
 30
0.0
 10
131.31601562499998
 20
276.26634114583328
 30
0.0
 10
131.31601562499998
 20
276.26634114583328
 30
0.0
 10
131.26433919270832
 20
276.26634114583328
 30
0.0
 10
131.26433919270832
 20
276.26634114583328
 30
0.0
 10
131.26433919270832
 20
276.26634114583328
 30
0.0
 10
130.6655815972222
 20
275.14117296006941
 30
0.0
 10
130.6655815972222
 20
275.14117296006941
 30
0.0
 10
130.6655815972222
 20
275.14117296006941
 30
0.0
 10
129.70577799479165
 20
275.63830023871526
 30
0.0
 10
129.70577799479165
 20
275.63830023871526
 30
0.0
  0
SPLINE
  5
17F
100
AcDbEntity
  8
CALQUE_1
 62
     7
100
AcDbSpline
210
0.0
220
0.0
230
1.0
 70
     8
 71
     3
 72
    17
 73
    13
 74
     0
 42
0.00000001
 43
0.00000001
 40
0.0
 40
0.0
 40
0.0
 40
0.0
 40
1.0
 40
1.0
 40
1.0
 40
2.0
 40
2.0
 40
2.0
 40
3.0
 40
3.0
 40
3.0
 40
4.0
 40
4.0
 40
4.0
 40
4.0
 10
129.90662706163192
 20
278.53510877821179
 30
0.0
 10
129.90662706163192
 20
278.53510877821179
 30
0.0
 10
130.0916286892361
 20
278.17888590494789
 30
0.0
 10
130.0916286892361
 20
278.17888590494789
 30
0.0
 10
130.14606119791665
 20
278.20971950954856
 30
0.0
 10
130.20531684027776
 20
278.23934733072912
 30
0.0
 10
130.26732855902776
 20
278.26776936848955
 30
0.0
 10
130.26732855902776
 20
278.26776936848955
 30
0.0
 10
130.19739312065971
 20
278.71700981987846
 30
0.0
 10
130.19739312065971
 20
278.71700981987846
 30
0.0
 10
130.08887261284721
 20
278.66223280164928
 30
0.0
 10
129.99103190104165
 20
278.59849853515624
 30
0.0
 10
129.90662706163192
 20
278.53510877821179
 30
0.0
  0
SPLINE
  5
17E
100
AcDbEntity
  8
CALQUE_1
 62
     7
100
AcDbSpline
210
0.0
220
0.0
230
1.0
 70
     8
 71
     3
 72
    17
 73
    13
 74
     0
 42
0.00000001
 43
0.00000001
 40
0.0
 40
0.0
 40
0.0
 40
0.0
 40
1.0
 40
1.0
 40
1.0
 40
2.0
 40
2.0
 40
2.0
 40
3.0
 40
3.0
 40
3.0
 40
4.0
 40
4.0
 40
4.0
 40
4.0
 10
129.70577799479165
 20
278.36474880642356
 30
0.0
 10
129.70577799479165
 20
278.36474880642356
 30
0.0
 10
129.70577799479165
 20
277.89948866102429
 30
0.0
 10
129.70577799479165
 20
277.89948866102429
 30
0.0
 10
129.77157931857639
 20
277.96046685112844
 30
0.0
 10
129.87320963541666
 20
278.04383816189232
 30
0.0
 10
130.00619032118055
 20
278.12772623697913
 30
0.0
 10
130.00619032118055
 20
278.12772623697913
 30
0.0
 10
129.82704535590275
 20
278.47240804036454
 30
0.0
 10
129.82704535590275
 20
278.47240804036454
 30
0.0
 10
129.7815700954861
 20
278.43451199001731
 30
0.0
 10
129.74022894965276
 20
278.39782172309026
 30
0.0
 10
129.70577799479165
 20
278.36474880642356
 30
0.0
  0
SPLINE
  5
17D
100
AcDbEntity
  8
CALQUE_1
 62
     7
100
AcDbSpline
210
0.0
220
0.0
230
1.0
 70
     8
 71
     3
 72
    20
 73
    16
 74
     0
 42
0.00000001
 43
0.00000001
 40
0.0
 40
0.0
 40
0.0
 40
0.0
 40
1.0
 40
1.0
 40
1.0
 40
2.0
 40
2.0
 40
2.0
 40
3.0
 40
3.0
 40
3.0
 40
4.0
 40
4.0
 40
4.0
 40
5.0
 40
5.0
 40
5.0
 40
5.0
 10
130.36172417534721
 20
278.30807698567708
 30
0.0
 10
130.42476942274305
 20
278.33339843749997
 30
0.0
 10
130.49022623697917
 20
278.35716959635414
 30
0.0
 10
130.56050618489581
 20
278.3776679144965
 30
0.0
 10
130.57876519097221
 20
278.3864529079861
 30
0.0
 10
130.59599066840278
 20
278.39437662760412
 30
0.0
 10
130.61390516493054
 20
278.40281711154512
 30
0.0
 10
130.61390516493054
 20
278.40281711154512
 30
0.0
 10
130.62492947048611
 20
278.85670844184023
 30
0.0
 10
130.62492947048611
 20
278.85670844184023
 30
0.0
 10
130.50641818576386
 20
278.83896620008676
 30
0.0
 10
130.39479709201387
 20
278.80451524522567
 30
0.0
 10
130.29109971788193
 20
278.76024576822914
 30
0.0
 10
130.29109971788193
 20
278.76024576822914
 30
0.0
 10
130.36172417534721
 20
278.30807698567708
 30
0.0
 10
130.36172417534721
 20
278.30807698567708
 30
0.0
  0
SPLINE
  5
17C
100
AcDbEntity
  8
CALQUE_1
 62
     7
100
AcDbSpline
210
0.0
220
0.0
230
1.0
 70
     8
 71
     3
 72
    17
 73
    13
 74
     0
 42
0.00000001
 43
0.00000001
 40
0.0
 40
0.0
 40
0.0
 40
0.0
 40
1.0
 40
1.0
 40
1.0
 40
2.0
 40
2.0
 40
2.0
 40
3.0
 40
3.0
 40
3.0
 40
4.0
 40
4.0
 40
4.0
 40
4.0
 10
130.72483723958331
 20
278.86738823784719
 30
0.0
 10
130.72483723958331
 20
278.86738823784719
 30
0.0
 10
130.71450195312499
 20
278.44863688151037
 30
0.0
 10
130.71450195312499
 20
278.44863688151037
 30
0.0
 10
130.79063856336805
 20
278.48239881727426
 30
0.0
 10
130.8602294921875
 20
278.51064860026037
 30
0.0
 10
130.91914062499998
 20
278.53131917317705
 30
0.0
 10
130.91914062499998
 20
278.53131917317705
 30
0.0
 10
131.00182291666667
 20
278.8515407986111
 30
0.0
 10
131.00182291666667
 20
278.8515407986111
 30
0.0
 10
130.90639377170137
 20
278.86893853081597
 30
0.0
 10
130.813720703125
 20
278.87324490017357
 30
0.0
 10
130.72483723958331
 20
278.86738823784719
 30
0.0
  0
SPLINE
  5
17B
100
AcDbEntity
  8
CALQUE_1
 62
     7
100
AcDbSpline
210
0.0
220
0.0
230
1.0
 70
     8
 71
     3
 72
    17
 73
    13
 74
     0
 42
0.00000001
 43
0.00000001
 40
0.0
 40
0.0
 40
0.0
 40
0.0
 40
1.0
 40
1.0
 40
1.0
 40
2.0
 40
2.0
 40
2.0
 40
3.0
 40
3.0
 40
3.0
 40
4.0
 40
4.0
 40
4.0
 40
4.0
 10
131.09828559027775
 20
278.8293199327257
 30
0.0
 10
131.09828559027775
 20
278.8293199327257
 30
0.0
 10
131.05453287760415
 20
278.65775417751735
 30
0.0
 10
131.05453287760415
 20
278.65775417751735
 30
0.0
 10
131.05453287760415
 20
278.65775417751735
 30
0.0
 10
131.247802734375
 20
278.47240804036454
 30
0.0
 10
131.247802734375
 20
278.47240804036454
 30
0.0
 10
131.247802734375
 20
278.47240804036454
 30
0.0
 10
131.39731987847222
 20
278.6810085720486
 30
0.0
 10
131.39731987847222
 20
278.6810085720486
 30
0.0
 10
131.31601562499998
 20
278.74336480034719
 30
0.0
 10
131.21817491319445
 20
278.7955579969618
 30
0.0
 10
131.09828559027775
 20
278.8293199327257
 30
0.0
  0
SPLINE
  5
17A
100
AcDbEntity
  8
CALQUE_1
 62
     7
100
AcDbSpline
210
0.0
220
0.0
230
1.0
 70
     8
 71
     3
 72
    20
 73
    16
 74
     0
 42
0.00000001
 43
0.00000001
 40
0.0
 40
0.0
 40
0.0
 40
0.0
 40
1.0
 40
1.0
 40
1.0
 40
2.0
 40
2.0
 40
2.0
 40
3.0
 40
3.0
 40
3.0
 40
4.0
 40
4.0
 40
4.0
 40
5.0
 40
5.0
 40
5.0
 40
5.0
 10
131.42143554687499
 20
278.23004557291665
 30
0.0
 10
131.42143554687499
 20
278.23004557291665
 30
0.0
 10
131.67086046006943
 20
278.32306315104165
 30
0.0
 10
131.67086046006943
 20
278.32306315104165
 30
0.0
 10
131.6264187282986
 20
278.42297092013888
 30
0.0
 10
131.56337348090275
 20
278.5259792751736
 30
0.0
 10
131.47242296006942
 20
278.61537950303818
 30
0.0
 10
131.47242296006942
 20
278.61537950303818
 30
0.0
 10
131.32049424913194
 20
278.40298936631945
 30
0.0
 10
131.32049424913194
 20
278.40298936631945
 30
0.0
 10
131.32049424913194
 20
278.40298936631945
 30
0.0
 10
131.42625868055555
 20
278.30135904947912
 30
0.0
 10
131.42625868055555
 20
278.30135904947912
 30
0.0
 10
131.42625868055555
 20
278.30135904947912
 30
0.0
 10
131.4248806423611
 20
278.27517632378471
 30
0.0
 10
131.42143554687499
 20
278.23004557291665
 30
0.0
  0
SPLINE
  5
179
100
AcDbEntity
  8
CALQUE_1
 62
     7
100
AcDbSpline
210
0.0
220
0.0
230
1.0
 70
     8
 71
     3
 72
    17
 73
    13
 74
     0
 42
0.00000001
 43
0.00000001
 40
0.0
 40
0.0
 40
0.0
 40
0.0
 40
1.0
 40
1.0
 40
1.0
 40
2.0
 40
2.0
 40
2.0
 40
3.0
 40
3.0
 40
3.0
 40
4.0
 40
4.0
 40
4.0
 40
4.0
 10
131.70737847222222
 20
278.23056233723958
 30
0.0
 10
131.70737847222222
 20
278.23056233723958
 30
0.0
 10
131.41316731770831
 20
278.1208360460069
 30
0.0
 10
131.41316731770831
 20
278.1208360460069
 30
0.0
 10
131.40834418402775
 20
278.05675726996526
 30
0.0
 10
131.40214301215278
 20
277.97924262152776
 30
0.0
 10
131.39594184027777
 20
277.89432101779511
 30
0.0
 10
131.39594184027777
 20
277.89432101779511
 30
0.0
 10
131.77421332465278
 20
277.89432101779511
 30
0.0
 10
131.77421332465278
 20
277.89432101779511
 30
0.0
 10
131.77214626736111
 20
277.93807373046872
 30
0.0
 10
131.76146647135417
 20
278.0739827473958
 30
0.0
 10
131.70737847222222
 20
278.23056233723958
 30
0.0
  0
CIRCLE
  5
178
100
AcDbEntity
  8
CALQUE_1
 62
     7
100
AcDbCircle
 10
131.132048
 20
277.779599
 30
0.0
 40
0.064768
  0
SPLINE
  5
177
100
AcDbEntity
  8
CALQUE_1
 62
     7
100
AcDbSpline
210
0.0
220
0.0
230
1.0
 70
     8
 71
     3
 72
    68
 73
    64
 74
     0
 42
0.00000001
 43
0.00000001
 40
0.0
 40
0.0
 40
0.0
 40
0.0
 40
1.0
 40
1.0
 40
1.0
 40
2.0
 40
2.0
 40
2.0
 40
3.0
 40
3.0
 40
3.0
 40
4.0
 40
4.0
 40
4.0
 40
5.0
 40
5.0
 40
5.0
 40
6.0
 40
6.0
 40
6.0
 40
7.0
 40
7.0
 40
7.0
 40
8.0
 40
8.0
 40
8.0
 40
9.0
 40
9.0
 40
9.0
 40
10.0
 40
10.0
 40
10.0
 40
11.0
 40
11.0
 40
11.0
 40
12.0
 40
12.0
 40
12.0
 40
13.0
 40
13.0
 40
13.0
 40
14.0
 40
14.0
 40
14.0
 40
15.0
 40
15.0
 40
15.0
 40
16.0
 40
16.0
 40
16.0
 40
17.0
 40
17.0
 40
17.0
 40
18.0
 40
18.0
 40
18.0
 40
19.0
 40
19.0
 40
19.0
 40
20.0
 40
20.0
 40
20.0
 40
21.0
 40
21.0
 40
21.0
 40
21.0
 10
134.66189236111109
 20
278.28516710069442
 30
0.0
 10
134.66189236111109
 20
278.05090060763888
 30
0.0
 10
134.56818576388886
 20
277.87313368055555
 30
0.0
 10
134.38111707899304
 20
277.75186631944445
 30
0.0
 10
134.1937038845486
 20
277.63059895833328
 30
0.0
 10
133.91947428385416
 20
277.56996527777773
 30
0.0
 10
133.55842827690972
 20
277.56996527777773
 30
0.0
 10
133.22115342881943
 20
277.56996527777773
 30
0.0
 10
132.94382324218748
 20
277.63404405381942
 30
0.0
 10
132.7271267361111
 20
277.76254611545136
 30
0.0
 10
132.5104302300347
 20
277.89070366753469
 30
0.0
 10
132.4019097222222
 20
278.05606825086801
 30
0.0
 10
132.4019097222222
 20
278.25829535590276
 30
0.0
 10
132.4019097222222
 20
278.45811089409722
 30
0.0
 10
132.51284179687499
 20
278.62416449652773
 30
0.0
 10
132.73470594618055
 20
278.75576714409721
 30
0.0
 10
132.95657009548609
 20
278.88771430121523
 30
0.0
 10
133.23562282986109
 20
278.95351562499997
 30
0.0
 10
133.57186414930555
 20
278.95351562499997
 30
0.0
 10
133.78408203124999
 20
278.95351562499997
 30
0.0
 10
133.97321777343748
 20
278.92802191840275
 30
0.0
 10
134.13927137586805
 20
278.87686225043399
 30
0.0
 10
134.30566948784721
 20
278.82570258246523
 30
0.0
 10
134.44485134548609
 20
278.75025499131942
 30
0.0
 10
134.55716145833333
 20
278.65034722222219
 30
0.0
 10
134.55716145833333
 20
278.65034722222219
 30
0.0
 10
134.04280870225693
 20
278.49945203993053
 30
0.0
 10
134.04280870225693
 20
278.49945203993053
 30
0.0
 10
133.98079698350693
 20
278.55043945312497
 30
0.0
 10
133.91120605468748
 20
278.58816324869787
 30
0.0
 10
133.83369140624998
 20
278.61314019097222
 30
0.0
 10
133.75652126736111
 20
278.63794487847218
 30
0.0
 10
133.66936035156249
 20
278.65034722222219
 30
0.0
 10
133.57289767795137
 20
278.65034722222219
 30
0.0
 10
133.39650878906249
 20
278.65034722222219
 30
0.0
 10
133.25629340277777
 20
278.61417371961801
 30
0.0
 10
133.15259602864583
 20
278.54182671440969
 30
0.0
 10
133.04889865451386
 20
278.46965196397565
 30
0.0
 10
132.99722222222221
 20
278.37129448784719
 30
0.0
 10
132.99722222222221
 20
278.2469265407986
 30
0.0
 10
132.99722222222221
 20
278.12910427517357
 30
0.0
 10
133.04820963541667
 20
278.03556993272565
 30
0.0
 10
133.14983995225694
 20
277.96615125868055
 30
0.0
 10
133.25147026909721
 20
277.8967325846354
 30
0.0
 10
133.38789605034722
 20
277.86210937499999
 30
0.0
 10
133.55877278645832
 20
277.86210937499999
 30
0.0
 10
133.70794542100694
 20
277.86210937499999
 30
0.0
 10
133.82886827256942
 20
277.88243543836802
 30
0.0
 10
133.92188585069442
 20
277.92325981987847
 30
0.0
 10
134.01524793836805
 20
277.96408420138886
 30
0.0
 10
134.06899142795137
 20
278.01903347439236
 30
0.0
 10
134.08311631944443
 20
278.08810763888886
 30
0.0
 10
134.08311631944443
 20
278.08810763888886
 30
0.0
 10
133.53190104166666
 20
278.08810763888886
 30
0.0
 10
133.53190104166666
 20
278.08810763888886
 30
0.0
 10
133.53190104166666
 20
278.08810763888886
 30
0.0
 10
133.53190104166666
 20
278.36922743055555
 30
0.0
 10
133.53190104166666
 20
278.36922743055555
 30
0.0
 10
133.53190104166666
 20
278.36922743055555
 30
0.0
 10
134.66189236111109
 20
278.36922743055555
 30
0.0
 10
134.66189236111109
 20
278.36922743055555
 30
0.0
 10
134.66189236111109
 20
278.36922743055555
 30
0.0
 10
134.66189236111109
 20
278.28516710069442
 30
0.0
 10
134.66189236111109
 20
278.28516710069442
 30
0.0
  0
SPLINE
  5
176
100
AcDbEntity
  8
CALQUE_1
 62
     7
100
AcDbSpline
210
0.0
220
0.0
230
1.0
 70
     8
 71
     3
 72
    38
 73
    34
 74
     0
 42
0.00000001
 43
0.00000001
 40
0.0
 40
0.0
 40
0.0
 40
0.0
 40
1.0
 40
1.0
 40
1.0
 40
2.0
 40
2.0
 40
2.0
 40
3.0
 40
3.0
 40
3.0
 40
4.0
 40
4.0
 40
4.0
 40
5.0
 40
5.0
 40
5.0
 40
6.0
 40
6.0
 40
6.0
 40
7.0
 40
7.0
 40
7.0
 40
8.0
 40
8.0
 40
8.0
 40
9.0
 40
9.0
 40
9.0
 40
10.0
 40
10.0
 40
10.0
 40
11.0
 40
11.0
 40
11.0
 40
11.0
 10
136.75582139756943
 20
277.59752604166664
 30
0.0
 10
136.75582139756943
 20
277.59752604166664
 30
0.0
 10
136.07817111545137
 20
277.59752604166664
 30
0.0
 10
136.07817111545137
 20
277.59752604166664
 30
0.0
 10
136.07817111545137
 20
277.59752604166664
 30
0.0
 10
135.57070855034721
 20
278.11015624999999
 30
0.0
 10
135.57070855034721
 20
278.11015624999999
 30
0.0
 10
135.57070855034721
 20
278.11015624999999
 30
0.0
 10
135.57070855034721
 20
277.59752604166664
 30
0.0
 10
135.57070855034721
 20
277.59752604166664
 30
0.0
 10
135.57070855034721
 20
277.59752604166664
 30
0.0
 10
134.99744466145833
 20
277.59752604166664
 30
0.0
 10
134.99744466145833
 20
277.59752604166664
 30
0.0
 10
134.99744466145833
 20
277.59752604166664
 30
0.0
 10
134.99744466145833
 20
278.92595486111111
 30
0.0
 10
134.99744466145833
 20
278.92595486111111
 30
0.0
 10
134.99744466145833
 20
278.92595486111111
 30
0.0
 10
135.67027180989581
 20
278.92595486111111
 30
0.0
 10
135.67027180989581
 20
278.92595486111111
 30
0.0
 10
136.02993977864583
 20
278.92595486111111
 30
0.0
 10
136.28212076822916
 20
278.89202067057289
 30
0.0
 10
136.42750379774304
 20
278.82432454427078
 30
0.0
 10
136.57288682725692
 20
278.75662841796873
 30
0.0
 10
136.64557834201386
 20
278.649658203125
 30
0.0
 10
136.64557834201386
 20
278.50324164496527
 30
0.0
 10
136.64557834201386
 20
278.40057779947915
 30
0.0
 10
136.60354817708333
 20
278.31686197916662
 30
0.0
 10
136.51983235677082
 20
278.25209418402773
 30
0.0
 10
136.43611653645831
 20
278.18732638888889
 30
0.0
 10
136.31450466579861
 20
278.1444349500868
 30
0.0
 10
136.15465223524305
 20
278.12376437717012
 30
0.0
 10
136.15465223524305
 20
278.12376437717012
 30
0.0
 10
136.75582139756943
 20
277.59752604166664
 30
0.0
 10
136.75582139756943
 20
277.59752604166664
 30
0.0
  0
SPLINE
  5
175
100
AcDbEntity
  8
CALQUE_1
 62
     7
100
AcDbSpline
210
0.0
220
0.0
230
1.0
 70
     8
 71
     3
 72
    26
 73
    22
 74
     0
 42
0.00000001
 43
0.00000001
 40
0.0
 40
0.0
 40
0.0
 40
0.0
 40
1.0
 40
1.0
 40
1.0
 40
2.0
 40
2.0
 40
2.0
 40
3.0
 40
3.0
 40
3.0
 40
4.0
 40
4.0
 40
4.0
 40
5.0
 40
5.0
 40
5.0
 40
6.0
 40
6.0
 40
6.0
 40
7.0
 40
7.0
 40
7.0
 40
7.0
 10
136.05026584201389
 20
278.45879991319441
 30
0.0
 10
136.05026584201389
 20
278.52511800130208
 30
0.0
 10
136.022705078125
 20
278.57283257378469
 30
0.0
 10
135.9672390407986
 20
278.60159912109373
 30
0.0
 10
135.91177300347221
 20
278.63036566840276
 30
0.0
 10
135.81806640624998
 20
278.64483506944441
 30
0.0
 10
135.68646375868053
 20
278.64483506944441
 30
0.0
 10
135.68646375868053
 20
278.64483506944441
 30
0.0
 10
135.57070855034721
 20
278.64483506944441
 30
0.0
 10
135.57070855034721
 20
278.64483506944441
 30
0.0
 10
135.57070855034721
 20
278.64483506944441
 30
0.0
 10
135.57070855034721
 20
278.28654513888887
 30
0.0
 10
135.57070855034721
 20
278.28654513888887
 30
0.0
 10
135.57070855034721
 20
278.28654513888887
 30
0.0
 10
135.67612847222222
 20
278.28654513888887
 30
0.0
 10
135.67612847222222
 20
278.28654513888887
 30
0.0
 10
135.80428602430555
 20
278.28654513888887
 30
0.0
 10
135.898681640625
 20
278.3004977756076
 30
0.0
 10
135.95931532118055
 20
278.32857530381943
 30
0.0
 10
136.01994900173611
 20
278.35648057725695
 30
0.0
 10
136.05026584201389
 20
278.3998887803819
 30
0.0
 10
136.05026584201389
 20
278.45879991319441
 30
0.0
  0
SPLINE
  5
174
100
AcDbEntity
  8
CALQUE_1
 62
     7
100
AcDbSpline
210
0.0
220
0.0
230
1.0
 70
     8
 71
     3
 72
    29
 73
    25
 74
     0
 42
0.00000001
 43
0.00000001
 40
0.0
 40
0.0
 40
0.0
 40
0.0
 40
1.0
 40
1.0
 40
1.0
 40
2.0
 40
2.0
 40
2.0
 40
3.0
 40
3.0
 40
3.0
 40
4.0
 40
4.0
 40
4.0
 40
5.0
 40
5.0
 40
5.0
 40
6.0
 40
6.0
 40
6.0
 40
7.0
 40
7.0
 40
7.0
 40
8.0
 40
8.0
 40
8.0
 40
8.0
 10
139.25937228732639
 20
278.2600179036458
 30
0.0
 10
139.25937228732639
 20
278.06468098958328
 30
0.0
 10
139.14465060763888
 20
277.90069444444441
 30
0.0
 10
138.91520724826387
 20
277.76840277777774
 30
0.0
 10
138.68610839843748
 20
277.63611111111106
 30
0.0
 10
138.40223253038192
 20
277.56996527777773
 30
0.0
 10
138.06392415364581
 20
277.56996527777773
 30
0.0
 10
137.72458224826389
 20
277.56996527777773
 30
0.0
 10
137.4400173611111
 20
277.63611111111106
 30
0.0
 10
137.21091851128472
 20
277.76840277777774
 30
0.0
 10
136.98147515190971
 20
277.90069444444441
 30
0.0
 10
136.86709798177083
 20
278.06468098958328
 30
0.0
 10
136.86709798177083
 20
278.2600179036458
 30
0.0
 10
136.86709798177083
 20
278.45466579861107
 30
0.0
 10
136.98216417100693
 20
278.6189968532986
 30
0.0
 10
137.21229654947916
 20
278.75283881293399
 30
0.0
 10
137.44242892795137
 20
278.88668077256943
 30
0.0
 10
137.72630479600693
 20
278.95351562499997
 30
0.0
 10
138.06392415364581
 20
278.95351562499997
 30
0.0
 10
138.40223253038192
 20
278.95351562499997
 30
0.0
 10
138.68610839843748
 20
278.88668077256943
 30
0.0
 10
138.91520724826387
 20
278.75335557725691
 30
0.0
 10
139.14465060763888
 20
278.61968587239579
 30
0.0
 10
139.25937228732639
 20
278.45535481770833
 30
0.0
 10
139.25937228732639
 20
278.2600179036458
 30
0.0
  0
SPLINE
  5
173
100
AcDbEntity
  8
CALQUE_1
 62
     7
100
AcDbSpline
210
0.0
220
0.0
230
1.0
 70
     8
 71
     3
 72
    29
 73
    25
 74
     0
 42
0.00000001
 43
0.00000001
 40
0.0
 40
0.0
 40
0.0
 40
0.0
 40
1.0
 40
1.0
 40
1.0
 40
2.0
 40
2.0
 40
2.0
 40
3.0
 40
3.0
 40
3.0
 40
4.0
 40
4.0
 40
4.0
 40
5.0
 40
5.0
 40
5.0
 40
6.0
 40
6.0
 40
6.0
 40
7.0
 40
7.0
 40
7.0
 40
8.0
 40
8.0
 40
8.0
 40
8.0
 10
138.66405978732638
 20
278.2600179036458
 30
0.0
 10
138.66405978732638
 20
278.36130371093748
 30
0.0
 10
138.60721571180554
 20
278.4463975694444
 30
0.0
 10
138.49387207031248
 20
278.51461046006943
 30
0.0
 10
138.38052842881945
 20
278.58316786024301
 30
0.0
 10
138.23755696614583
 20
278.61727430555555
 30
0.0
 10
138.06461317274304
 20
278.61727430555555
 30
0.0
 10
137.88753526475693
 20
278.61727430555555
 30
0.0
 10
137.74318576388887
 20
278.58351236979166
 30
0.0
 10
137.63087565104166
 20
278.51598849826388
 30
0.0
 10
137.51856553819442
 20
278.4484646267361
 30
0.0
 10
137.46241048177083
 20
278.36302625868052
 30
0.0
 10
137.46241048177083
 20
278.2600179036458
 30
0.0
 10
137.46241048177083
 20
278.15855984157986
 30
0.0
 10
137.51891004774305
 20
278.0743272569444
 30
0.0
 10
137.63225368923611
 20
278.00714789496527
 30
0.0
 10
137.74559733072914
 20
277.93979627821176
 30
0.0
 10
137.8896023220486
 20
277.90620659722219
 30
0.0
 10
138.06461317274304
 20
277.90620659722219
 30
0.0
 10
138.23859049479165
 20
277.90620659722219
 30
0.0
 10
138.38190646701386
 20
277.93996853298609
 30
0.0
 10
138.4945610894097
 20
278.00749240451387
 30
0.0
 10
138.60756022135416
 20
278.07501627604165
 30
0.0
 10
138.66405978732638
 20
278.15907660590273
 30
0.0
 10
138.66405978732638
 20
278.2600179036458
 30
0.0
  0
SPLINE
  5
172
100
AcDbEntity
  8
CALQUE_1
 62
     7
100
AcDbSpline
210
0.0
220
0.0
230
1.0
 70
     8
 71
     3
 72
    47
 73
    43
 74
     0
 42
0.00000001
 43
0.00000001
 40
0.0
 40
0.0
 40
0.0
 40
0.0
 40
1.0
 40
1.0
 40
1.0
 40
2.0
 40
2.0
 40
2.0
 40
3.0
 40
3.0
 40
3.0
 40
4.0
 40
4.0
 40
4.0
 40
5.0
 40
5.0
 40
5.0
 40
6.0
 40
6.0
 40
6.0
 40
7.0
 40
7.0
 40
7.0
 40
8.0
 40
8.0
 40
8.0
 40
9.0
 40
9.0
 40
9.0
 40
10.0
 40
10.0
 40
10.0
 40
11.0
 40
11.0
 40
11.0
 40
12.0
 40
12.0
 40
12.0
 40
13.0
 40
13.0
 40
13.0
 40
14.0
 40
14.0
 40
14.0
 40
14.0
 10
141.4490749782986
 20
278.21006401909722
 30
0.0
 10
141.4490749782986
 20
277.96408420138886
 30
0.0
 10
141.37845052083333
 20
277.79596354166665
 30
0.0
 10
141.23685709635416
 20
277.70552978515622
 30
0.0
 10
141.09560818142359
 20
277.61509602864578
 30
0.0
 10
140.85031738281248
 20
277.56996527777773
 30
0.0
 10
140.50167371961805
 20
277.56996527777773
 30
0.0
 10
140.15199652777775
 20
277.56996527777773
 30
0.0
 10
139.90636121961805
 20
277.61509602864578
 30
0.0
 10
139.76511230468748
 20
277.70552978515622
 30
0.0
 10
139.62351888020831
 20
277.79596354166665
 30
0.0
 10
139.55289442274304
 20
277.96408420138886
 30
0.0
 10
139.55289442274304
 20
278.21006401909722
 30
0.0
 10
139.55289442274304
 20
278.21006401909722
 30
0.0
 10
139.55289442274304
 20
278.92595486111111
 30
0.0
 10
139.55289442274304
 20
278.92595486111111
 30
0.0
 10
139.55289442274304
 20
278.92595486111111
 30
0.0
 10
140.12615831163194
 20
278.92595486111111
 30
0.0
 10
140.12615831163194
 20
278.92595486111111
 30
0.0
 10
140.12615831163194
 20
278.92595486111111
 30
0.0
 10
140.12615831163194
 20
278.20661892361107
 30
0.0
 10
140.12615831163194
 20
278.20661892361107
 30
0.0
 10
140.12615831163194
 20
278.07553304036458
 30
0.0
 10
140.1533745659722
 20
277.98716634114578
 30
0.0
 10
140.20780707465278
 20
277.94169108072913
 30
0.0
 10
140.26223958333333
 20
277.89587131076388
 30
0.0
 10
140.35973578559026
 20
277.87313368055555
 30
0.0
 10
140.50098470052083
 20
277.87313368055555
 30
0.0
 10
140.64120008680555
 20
277.87313368055555
 30
0.0
 10
140.73869628906249
 20
277.89587131076388
 30
0.0
 10
140.79347330729166
 20
277.94169108072913
 30
0.0
 10
140.84825032552081
 20
277.98716634114578
 30
0.0
 10
140.87581108940972
 20
278.07553304036458
 30
0.0
 10
140.87581108940972
 20
278.20661892361107
 30
0.0
 10
140.87581108940972
 20
278.20661892361107
 30
0.0
 10
140.87581108940972
 20
278.92595486111111
 30
0.0
 10
140.87581108940972
 20
278.92595486111111
 30
0.0
 10
140.87581108940972
 20
278.92595486111111
 30
0.0
 10
141.4490749782986
 20
278.92595486111111
 30
0.0
 10
141.4490749782986
 20
278.92595486111111
 30
0.0
 10
141.4490749782986
 20
278.92595486111111
 30
0.0
 10
141.4490749782986
 20
278.21006401909722
 30
0.0
 10
141.4490749782986
 20
278.21006401909722
 30
0.0
  0
SPLINE
  5
171
100
AcDbEntity
  8
CALQUE_1
 62
     7
100
AcDbSpline
210
0.0
220
0.0
230
1.0
 70
     8
 71
     3
 72
    32
 73
    28
 74
     0
 42
0.00000001
 43
0.00000001
 40
0.0
 40
0.0
 40
0.0
 40
0.0
 40
1.0
 40
1.0
 40
1.0
 40
2.0
 40
2.0
 40
2.0
 40
3.0
 40
3.0
 40
3.0
 40
4.0
 40
4.0
 40
4.0
 40
5.0
 40
5.0
 40
5.0
 40
6.0
 40
6.0
 40
6.0
 40
7.0
 40
7.0
 40
7.0
 40
8.0
 40
8.0
 40
8.0
 40
9.0
 40
9.0
 40
9.0
 40
9.0
 10
143.46755642361109
 20
278.47344156901039
 30
0.0
 10
143.46755642361109
 20
278.32771402994791
 30
0.0
 10
143.3865966796875
 20
278.21798773871524
 30
0.0
 10
143.22467719184027
 20
278.14391818576388
 30
0.0
 10
143.06310221354164
 20
278.06984863281247
 30
0.0
 10
142.82401258680554
 20
278.03298611111109
 30
0.0
 10
142.50809733072916
 20
278.03298611111109
 30
0.0
 10
142.50809733072916
 20
278.03298611111109
 30
0.0
 10
142.41473524305553
 20
278.03298611111109
 30
0.0
 10
142.41473524305553
 20
278.03298611111109
 30
0.0
 10
142.41473524305553
 20
278.03298611111109
 30
0.0
 10
142.41473524305553
 20
277.59752604166664
 30
0.0
 10
142.41473524305553
 20
277.59752604166664
 30
0.0
 10
142.41473524305553
 20
277.59752604166664
 30
0.0
 10
141.84147135416666
 20
277.59752604166664
 30
0.0
 10
141.84147135416666
 20
277.59752604166664
 30
0.0
 10
141.84147135416666
 20
277.59752604166664
 30
0.0
 10
141.84147135416666
 20
278.92595486111111
 30
0.0
 10
141.84147135416666
 20
278.92595486111111
 30
0.0
 10
141.84147135416666
 20
278.92595486111111
 30
0.0
 10
142.48225911458331
 20
278.92595486111111
 30
0.0
 10
142.48225911458331
 20
278.92595486111111
 30
0.0
 10
142.82194552951387
 20
278.92595486111111
 30
0.0
 10
143.07137044270831
 20
278.88874782986107
 30
0.0
 10
143.22984483506943
 20
278.81450602213539
 30
0.0
 10
143.38831922743054
 20
278.74026421440971
 30
0.0
 10
143.46755642361109
 20
278.62657606336802
 30
0.0
 10
143.46755642361109
 20
278.47344156901039
 30
0.0
  0
SPLINE
  5
170
100
AcDbEntity
  8
CALQUE_1
 62
     7
100
AcDbSpline
210
0.0
220
0.0
230
1.0
 70
     8
 71
     3
 72
    26
 73
    22
 74
     0
 42
0.00000001
 43
0.00000001
 40
0.0
 40
0.0
 40
0.0
 40
0.0
 40
1.0
 40
1.0
 40
1.0
 40
2.0
 40
2.0
 40
2.0
 40
3.0
 40
3.0
 40
3.0
 40
4.0
 40
4.0
 40
4.0
 40
5.0
 40
5.0
 40
5.0
 40
6.0
 40
6.0
 40
6.0
 40
7.0
 40
7.0
 40
7.0
 40
7.0
 10
142.87224392361111
 20
278.47809244791665
 30
0.0
 10
142.87224392361111
 20
278.53631456163191
 30
0.0
 10
142.84296061197915
 20
278.57868923611107
 30
0.0
 10
142.78404947916664
 20
278.60521647135414
 30
0.0
 10
142.72513834635416
 20
278.63157145182288
 30
0.0
 10
142.62833116319442
 20
278.64483506944441
 30
0.0
 10
142.49362792968748
 20
278.64483506944441
 30
0.0
 10
142.49362792968748
 20
278.64483506944441
 30
0.0
 10
142.41473524305553
 20
278.64483506944441
 30
0.0
 10
142.41473524305553
 20
278.64483506944441
 30
0.0
 10
142.41473524305553
 20
278.64483506944441
 30
0.0
 10
142.41473524305553
 20
278.31410590277773
 30
0.0
 10
142.41473524305553
 20
278.31410590277773
 30
0.0
 10
142.41473524305553
 20
278.31410590277773
 30
0.0
 10
142.4877712673611
 20
278.31410590277773
 30
0.0
 10
142.4877712673611
 20
278.31410590277773
 30
0.0
 10
142.6272976345486
 20
278.31410590277773
 30
0.0
 10
142.7265163845486
 20
278.32685275607639
 30
0.0
 10
142.78473849826386
 20
278.35200195312495
 30
0.0
 10
142.84296061197915
 20
278.37749565972217
 30
0.0
 10
142.87224392361111
 20
278.41952582465274
 30
0.0
 10
142.87224392361111
 20
278.47809244791665
 30
0.0
  0
POLYLINE
  5
162
100
AcDbEntity
  8
CALQUE_1
 62
     7
100
AcDb2dPolyline
 66
     1
 10
0.0
 20
0.0
 30
0.0
 70
     1
  0
VERTEX
  5
163
100
AcDbEntity
  8
CALQUE_1
 62
     7
100
AcDbVertex
100
AcDb2dVertex
 10
145.016816
 20
277.597526
 30
0.0
  0
VERTEX
  5
164
100
AcDbEntity
  8
CALQUE_1
 62
     7
100
AcDbVertex
100
AcDb2dVertex
 10
143.754533
 20
277.597526
 30
0.0
  0
VERTEX
  5
165
100
AcDbEntity
  8
CALQUE_1
 62
     7
100
AcDbVertex
100
AcDb2dVertex
 10
143.754533
 20
278.925955
 30
0.0
  0
VERTEX
  5
166
100
AcDbEntity
  8
CALQUE_1
 62
     7
100
AcDbVertex
100
AcDb2dVertex
 10
145.016816
 20
278.925955
 30
0.0
  0
VERTEX
  5
167
100
AcDbEntity
  8
CALQUE_1
 62
     7
100
AcDbVertex
100
AcDb2dVertex
 10
145.016816
 20
278.633811
 30
0.0
  0
VERTEX
  5
168
100
AcDbEntity
  8
CALQUE_1
 62
     7
100
AcDbVertex
100
AcDb2dVertex
 10
144.327797
 20
278.633811
 30
0.0
  0
VERTEX
  5
169
100
AcDbEntity
  8
CALQUE_1
 62
     7
100
AcDbVertex
100
AcDb2dVertex
 10
144.327797
 20
278.413325
 30
0.0
  0
VERTEX
  5
16A
100
AcDbEntity
  8
CALQUE_1
 62
     7
100
AcDbVertex
100
AcDb2dVertex
 10
144.989255
 20
278.413325
 30
0.0
  0
VERTEX
  5
16B
100
AcDbEntity
  8
CALQUE_1
 62
     7
100
AcDbVertex
100
AcDb2dVertex
 10
144.989255
 20
278.132205
 30
0.0
  0
VERTEX
  5
16C
100
AcDbEntity
  8
CALQUE_1
 62
     7
100
AcDbVertex
100
AcDb2dVertex
 10
144.327797
 20
278.132205
 30
0.0
  0
VERTEX
  5
16D
100
AcDbEntity
  8
CALQUE_1
 62
     7
100
AcDbVertex
100
AcDb2dVertex
 10
144.327797
 20
277.88967
 30
0.0
  0
VERTEX
  5
16E
100
AcDbEntity
  8
CALQUE_1
 62
     7
100
AcDbVertex
100
AcDb2dVertex
 10
145.016816
 20
277.88967
 30
0.0
  0
SEQEND
  5
16F
100
AcDbEntity
  8
CALQUE_1
 62
     7
  0
POLYLINE
  5
158
100
AcDbEntity
  8
CALQUE_1
 62
     7
100
AcDb2dPolyline
 66
     1
 10
0.0
 20
0.0
 30
0.0
 70
     1
  0
VERTEX
  5
159
100
AcDbEntity
  8
CALQUE_1
 62
     7
100
AcDbVertex
100
AcDb2dVertex
 10
134.595747
 20
275.480859
 30
0.0
  0
VERTEX
  5
15A
100
AcDbEntity
  8
CALQUE_1
 62
     7
100
AcDbVertex
100
AcDb2dVertex
 10
133.981831
 20
275.480859
 30
0.0
  0
VERTEX
  5
15B
100
AcDbEntity
  8
CALQUE_1
 62
     7
100
AcDbVertex
100
AcDb2dVertex
 10
133.861941
 20
275.717882
 30
0.0
  0
VERTEX
  5
15C
100
AcDbEntity
  8
CALQUE_1
 62
     7
100
AcDbVertex
100
AcDb2dVertex
 10
133.019615
 20
275.717882
 30
0.0
  0
VERTEX
  5
15D
100
AcDbEntity
  8
CALQUE_1
 62
     7
100
AcDbVertex
100
AcDb2dVertex
 10
132.89697
 20
275.480859
 30
0.0
  0
VERTEX
  5
15E
100
AcDbEntity
  8
CALQUE_1
 62
     7
100
AcDbVertex
100
AcDb2dVertex
 10
132.280642
 20
275.480859
 30
0.0
  0
VERTEX
  5
15F
100
AcDbEntity
  8
CALQUE_1
 62
     7
100
AcDbVertex
100
AcDb2dVertex
 10
133.066813
 20
276.809288
 30
0.0
  0
VERTEX
  5
160
100
AcDbEntity
  8
CALQUE_1
 62
     7
100
AcDbVertex
100
AcDb2dVertex
 10
133.811987
 20
276.809288
 30
0.0
  0
SEQEND
  5
161
100
AcDbEntity
  8
CALQUE_1
 62
     7
  0
POLYLINE
  5
153
100
AcDbEntity
  8
CALQUE_1
 62
     7
100
AcDb2dPolyline
 66
     1
 10
0.0
 20
0.0
 30
0.0
 70
     1
  0
VERTEX
  5
154
100
AcDbEntity
  8
CALQUE_1
 62
     7
100
AcDbVertex
100
AcDb2dVertex
 10
133.736195
 20
275.971441
 30
0.0
  0
VERTEX
  5
155
100
AcDbEntity
  8
CALQUE_1
 62
     7
100
AcDbVertex
100
AcDb2dVertex
 10
133.443707
 20
276.536437
 30
0.0
  0
VERTEX
  5
156
100
AcDbEntity
  8
CALQUE_1
 62
     7
100
AcDbVertex
100
AcDb2dVertex
 10
133.148117
 20
275.971441
 30
0.0
  0
SEQEND
  5
157
100
AcDbEntity
  8
CALQUE_1
 62
     7
  0
POLYLINE
  5
14D
100
AcDbEntity
  8
CALQUE_1
 62
     7
100
AcDb2dPolyline
 66
     1
 10
0.0
 20
0.0
 30
0.0
 70
     1
  0
VERTEX
  5
14E
100
AcDbEntity
  8
CALQUE_1
 62
     7
100
AcDbVertex
100
AcDb2dVertex
 10
135.344021
 20
275.480859
 30
0.0
  0
VERTEX
  5
14F
100
AcDbEntity
  8
CALQUE_1
 62
     7
100
AcDbVertex
100
AcDb2dVertex
 10
134.770757
 20
275.480859
 30
0.0
  0
VERTEX
  5
150
100
AcDbEntity
  8
CALQUE_1
 62
     7
100
AcDbVertex
100
AcDb2dVertex
 10
134.770757
 20
276.809288
 30
0.0
  0
VERTEX
  5
151
100
AcDbEntity
  8
CALQUE_1
 62
     7
100
AcDbVertex
100
AcDb2dVertex
 10
135.344021
 20
276.809288
 30
0.0
  0
SEQEND
  5
152
100
AcDbEntity
  8
CALQUE_1
 62
     7
  0
SPLINE
  5
14C
100
AcDbEntity
  8
CALQUE_1
 62
     7
100
AcDbSpline
210
0.0
220
0.0
230
1.0
 70
     8
 71
     3
 72
    38
 73
    34
 74
     0
 42
0.00000001
 43
0.00000001
 40
0.0
 40
0.0
 40
0.0
 40
0.0
 40
1.0
 40
1.0
 40
1.0
 40
2.0
 40
2.0
 40
2.0
 40
3.0
 40
3.0
 40
3.0
 40
4.0
 40
4.0
 40
4.0
 40
5.0
 40
5.0
 40
5.0
 40
6.0
 40
6.0
 40
6.0
 40
7.0
 40
7.0
 40
7.0
 40
8.0
 40
8.0
 40
8.0
 40
9.0
 40
9.0
 40
9.0
 40
10.0
 40
10.0
 40
10.0
 40
11.0
 40
11.0
 40
11.0
 40
11.0
 10
137.54061414930555
 20
275.48085937499997
 30
0.0
 10
137.54061414930555
 20
275.48085937499997
 30
0.0
 10
136.86296386718749
 20
275.48085937499997
 30
0.0
 10
136.86296386718749
 20
275.48085937499997
 30
0.0
 10
136.86296386718749
 20
275.48085937499997
 30
0.0
 10
136.35550130208333
 20
275.99348958333331
 30
0.0
 10
136.35550130208333
 20
275.99348958333331
 30
0.0
 10
136.35550130208333
 20
275.99348958333331
 30
0.0
 10
136.35550130208333
 20
275.48085937499997
 30
0.0
 10
136.35550130208333
 20
275.48085937499997
 30
0.0
 10
136.35550130208333
 20
275.48085937499997
 30
0.0
 10
135.78223741319442
 20
275.48085937499997
 30
0.0
 10
135.78223741319442
 20
275.48085937499997
 30
0.0
 10
135.78223741319442
 20
275.48085937499997
 30
0.0
 10
135.78223741319442
 20
276.80928819444443
 30
0.0
 10
135.78223741319442
 20
276.80928819444443
 30
0.0
 10
135.78223741319442
 20
276.80928819444443
 30
0.0
 10
136.45506456163193
 20
276.80928819444443
 30
0.0
 10
136.45506456163193
 20
276.80928819444443
 30
0.0
 10
136.81473253038195
 20
276.80928819444443
 30
0.0
 10
137.06691351996525
 20
276.77535400390622
 30
0.0
 10
137.21229654947916
 20
276.70765787760416
 30
0.0
 10
137.35767957899304
 20
276.63996175130205
 30
0.0
 10
137.43037109374998
 20
276.53299153645833
 30
0.0
 10
137.43037109374998
 20
276.3865749782986
 30
0.0
 10
137.43037109374998
 20
276.28391113281248
 30
0.0
 10
137.38834092881945
 20
276.2001953125
 30
0.0
 10
137.30462510850694
 20
276.13542751736111
 30
0.0
 10
137.22090928819443
 20
276.07065972222222
 30
0.0
 10
137.0992974175347
 20
276.02776828342013
 30
0.0
 10
136.93944498697914
 20
276.00709771050344
 30
0.0
 10
136.93944498697914
 20
276.00709771050344
 30
0.0
 10
137.54061414930555
 20
275.48085937499997
 30
0.0
 10
137.54061414930555
 20
275.48085937499997
 30
0.0
  0
SPLINE
  5
14B
100
AcDbEntity
  8
CALQUE_1
 62
     7
100
AcDbSpline
210
0.0
220
0.0
230
1.0
 70
     8
 71
     3
 72
    26
 73
    22
 74
     0
 42
0.00000001
 43
0.00000001
 40
0.0
 40
0.0
 40
0.0
 40
0.0
 40
1.0
 40
1.0
 40
1.0
 40
2.0
 40
2.0
 40
2.0
 40
3.0
 40
3.0
 40
3.0
 40
4.0
 40
4.0
 40
4.0
 40
5.0
 40
5.0
 40
5.0
 40
6.0
 40
6.0
 40
6.0
 40
7.0
 40
7.0
 40
7.0
 40
7.0
 10
136.83505859374998
 20
276.34213324652774
 30
0.0
 10
136.83505859374998
 20
276.4084513346354
 30
0.0
 10
136.80749782986109
 20
276.45616590711802
 30
0.0
 10
136.75203179253472
 20
276.48493245442705
 30
0.0
 10
136.69656575520833
 20
276.51369900173609
 30
0.0
 10
136.6028591579861
 20
276.52816840277774
 30
0.0
 10
136.47125651041665
 20
276.52816840277774
 30
0.0
 10
136.47125651041665
 20
276.52816840277774
 30
0.0
 10
136.35550130208333
 20
276.52816840277774
 30
0.0
 10
136.35550130208333
 20
276.52816840277774
 30
0.0
 10
136.35550130208333
 20
276.52816840277774
 30
0.0
 10
136.35550130208333
 20
276.16987847222219
 30
0.0
 10
136.35550130208333
 20
276.16987847222219
 30
0.0
 10
136.35550130208333
 20
276.16987847222219
 30
0.0
 10
136.46092122395831
 20
276.16987847222219
 30
0.0
 10
136.46092122395831
 20
276.16987847222219
 30
0.0
 10
136.58907877604165
 20
276.16987847222219
 30
0.0
 10
136.68347439236109
 20
276.18383110894092
 30
0.0
 10
136.74410807291665
 20
276.21190863715276
 30
0.0
 10
136.8047417534722
 20
276.23981391059027
 30
0.0
 10
136.83505859374998
 20
276.28322211371523
 30
0.0
 10
136.83505859374998
 20
276.34213324652774
 30
0.0
  0
POLYLINE
  5
13F
100
AcDbEntity
  8
CALQUE_1
 62
     7
100
AcDb2dPolyline
 66
     1
 10
0.0
 20
0.0
 30
0.0
 70
     1
  0
VERTEX
  5
140
100
AcDbEntity
  8
CALQUE_1
 62
     7
100
AcDbVertex
100
AcDb2dVertex
 10
140.066214
 20
276.528168
 30
0.0
  0
VERTEX
  5
141
100
AcDbEntity
  8
CALQUE_1
 62
     7
100
AcDbVertex
100
AcDb2dVertex
 10
139.355146
 20
276.528168
 30
0.0
  0
VERTEX
  5
142
100
AcDbEntity
  8
CALQUE_1
 62
     7
100
AcDbVertex
100
AcDb2dVertex
 10
139.355146
 20
276.296658
 30
0.0
  0
VERTEX
  5
143
100
AcDbEntity
  8
CALQUE_1
 62
     7
100
AcDbVertex
100
AcDb2dVertex
 10
140.022116
 20
276.296658
 30
0.0
  0
VERTEX
  5
144
100
AcDbEntity
  8
CALQUE_1
 62
     7
100
AcDbVertex
100
AcDb2dVertex
 10
140.022116
 20
276.015538
 30
0.0
  0
VERTEX
  5
145
100
AcDbEntity
  8
CALQUE_1
 62
     7
100
AcDbVertex
100
AcDb2dVertex
 10
139.355146
 20
276.015538
 30
0.0
  0
VERTEX
  5
146
100
AcDbEntity
  8
CALQUE_1
 62
     7
100
AcDbVertex
100
AcDb2dVertex
 10
139.355146
 20
275.480859
 30
0.0
  0
VERTEX
  5
147
100
AcDbEntity
  8
CALQUE_1
 62
     7
100
AcDbVertex
100
AcDb2dVertex
 10
138.781882
 20
275.480859
 30
0.0
  0
VERTEX
  5
148
100
AcDbEntity
  8
CALQUE_1
 62
     7
100
AcDbVertex
100
AcDb2dVertex
 10
138.781882
 20
276.809288
 30
0.0
  0
VERTEX
  5
149
100
AcDbEntity
  8
CALQUE_1
 62
     7
100
AcDbVertex
100
AcDb2dVertex
 10
140.066214
 20
276.809288
 30
0.0
  0
SEQEND
  5
14A
100
AcDbEntity
  8
CALQUE_1
 62
     7
  0
SPLINE
  5
13E
100
AcDbEntity
  8
CALQUE_1
 62
     7
100
AcDbSpline
210
0.0
220
0.0
230
1.0
 70
     8
 71
     3
 72
    38
 73
    34
 74
     0
 42
0.00000001
 43
0.00000001
 40
0.0
 40
0.0
 40
0.0
 40
0.0
 40
1.0
 40
1.0
 40
1.0
 40
2.0
 40
2.0
 40
2.0
 40
3.0
 40
3.0
 40
3.0
 40
4.0
 40
4.0
 40
4.0
 40
5.0
 40
5.0
 40
5.0
 40
6.0
 40
6.0
 40
6.0
 40
7.0
 40
7.0
 40
7.0
 40
8.0
 40
8.0
 40
8.0
 40
9.0
 40
9.0
 40
9.0
 40
10.0
 40
10.0
 40
10.0
 40
11.0
 40
11.0
 40
11.0
 40
11.0
 10
142.12741427951389
 20
275.48085937499997
 30
0.0
 10
142.12741427951389
 20
275.48085937499997
 30
0.0
 10
141.44941948784722
 20
275.48085937499997
 30
0.0
 10
141.44941948784722
 20
275.48085937499997
 30
0.0
 10
141.44941948784722
 20
275.48085937499997
 30
0.0
 10
140.94230143229166
 20
275.99348958333331
 30
0.0
 10
140.94230143229166
 20
275.99348958333331
 30
0.0
 10
140.94230143229166
 20
275.99348958333331
 30
0.0
 10
140.94230143229166
 20
275.48085937499997
 30
0.0
 10
140.94230143229166
 20
275.48085937499997
 30
0.0
 10
140.94230143229166
 20
275.48085937499997
 30
0.0
 10
140.36903754340275
 20
275.48085937499997
 30
0.0
 10
140.36903754340275
 20
275.48085937499997
 30
0.0
 10
140.36903754340275
 20
275.48085937499997
 30
0.0
 10
140.36903754340275
 20
276.80928819444443
 30
0.0
 10
140.36903754340275
 20
276.80928819444443
 30
0.0
 10
140.36903754340275
 20
276.80928819444443
 30
0.0
 10
141.04186469184026
 20
276.80928819444443
 30
0.0
 10
141.04186469184026
 20
276.80928819444443
 30
0.0
 10
141.40118815104165
 20
276.80928819444443
 30
0.0
 10
141.65371365017359
 20
276.77535400390622
 30
0.0
 10
141.79909667968749
 20
276.70765787760416
 30
0.0
 10
141.94447970920137
 20
276.63996175130205
 30
0.0
 10
142.01717122395831
 20
276.53299153645833
 30
0.0
 10
142.01717122395831
 20
276.3865749782986
 30
0.0
 10
142.01717122395831
 20
276.28391113281248
 30
0.0
 10
141.97514105902778
 20
276.2001953125
 30
0.0
 10
141.89142523871527
 20
276.13542751736111
 30
0.0
 10
141.80770941840277
 20
276.07065972222222
 30
0.0
 10
141.68575303819443
 20
276.02776828342013
 30
0.0
 10
141.52590060763887
 20
276.00709771050344
 30
0.0
 10
141.52590060763887
 20
276.00709771050344
 30
0.0
 10
142.12741427951389
 20
275.48085937499997
 30
0.0
 10
142.12741427951389
 20
275.48085937499997
 30
0.0
  0
SPLINE
  5
13D
100
AcDbEntity
  8
CALQUE_1
 62
     7
100
AcDbSpline
210
0.0
220
0.0
230
1.0
 70
     8
 71
     3
 72
    26
 73
    22
 74
     0
 42
0.00000001
 43
0.00000001
 40
0.0
 40
0.0
 40
0.0
 40
0.0
 40
1.0
 40
1.0
 40
1.0
 40
2.0
 40
2.0
 40
2.0
 40
3.0
 40
3.0
 40
3.0
 40
4.0
 40
4.0
 40
4.0
 40
5.0
 40
5.0
 40
5.0
 40
6.0
 40
6.0
 40
6.0
 40
7.0
 40
7.0
 40
7.0
 40
7.0
 10
141.42185872395831
 20
276.34213324652774
 30
0.0
 10
141.42185872395831
 20
276.4084513346354
 30
0.0
 10
141.39395345052083
 20
276.45616590711802
 30
0.0
 10
141.33848741319443
 20
276.48493245442705
 30
0.0
 10
141.28336588541666
 20
276.51369900173609
 30
0.0
 10
141.18965928819443
 20
276.52816840277774
 30
0.0
 10
141.05771213107639
 20
276.52816840277774
 30
0.0
 10
141.05771213107639
 20
276.52816840277774
 30
0.0
 10
140.94230143229166
 20
276.52816840277774
 30
0.0
 10
140.94230143229166
 20
276.52816840277774
 30
0.0
 10
140.94230143229166
 20
276.52816840277774
 30
0.0
 10
140.94230143229166
 20
276.16987847222219
 30
0.0
 10
140.94230143229166
 20
276.16987847222219
 30
0.0
 10
140.94230143229166
 20
276.16987847222219
 30
0.0
 10
141.04772135416664
 20
276.16987847222219
 30
0.0
 10
141.04772135416664
 20
276.16987847222219
 30
0.0
 10
141.17553439670138
 20
276.16987847222219
 30
0.0
 10
141.26993001302083
 20
276.18383110894092
 30
0.0
 10
141.33056369357638
 20
276.21190863715276
 30
0.0
 10
141.39119737413193
 20
276.23981391059027
 30
0.0
 10
141.42185872395831
 20
276.28322211371523
 30
0.0
 10
141.42185872395831
 20
276.34213324652774
 30
0.0
  0
POLYLINE
  5
133
100
AcDbEntity
  8
CALQUE_1
 62
     7
100
AcDb2dPolyline
 66
     1
 10
0.0
 20
0.0
 30
0.0
 70
     1
  0
VERTEX
  5
134
100
AcDbEntity
  8
CALQUE_1
 62
     7
100
AcDbVertex
100
AcDb2dVertex
 10
144.503841
 20
275.480859
 30
0.0
  0
VERTEX
  5
135
100
AcDbEntity
  8
CALQUE_1
 62
     7
100
AcDbVertex
100
AcDb2dVertex
 10
143.889925
 20
275.480859
 30
0.0
  0
VERTEX
  5
136
100
AcDbEntity
  8
CALQUE_1
 62
     7
100
AcDbVertex
100
AcDb2dVertex
 10
143.770036
 20
275.717882
 30
0.0
  0
VERTEX
  5
137
100
AcDbEntity
  8
CALQUE_1
 62
     7
100
AcDbVertex
100
AcDb2dVertex
 10
142.92771
 20
275.717882
 30
0.0
  0
VERTEX
  5
138
100
AcDbEntity
  8
CALQUE_1
 62
     7
100
AcDbVertex
100
AcDb2dVertex
 10
142.80472
 20
275.480859
 30
0.0
  0
VERTEX
  5
139
100
AcDbEntity
  8
CALQUE_1
 62
     7
100
AcDbVertex
100
AcDb2dVertex
 10
142.188737
 20
275.480859
 30
0.0
  0
VERTEX
  5
13A
100
AcDbEntity
  8
CALQUE_1
 62
     7
100
AcDbVertex
100
AcDb2dVertex
 10
142.974563
 20
276.809288
 30
0.0
  0
VERTEX
  5
13B
100
AcDbEntity
  8
CALQUE_1
 62
     7
100
AcDbVertex
100
AcDb2dVertex
 10
143.720082
 20
276.809288
 30
0.0
  0
SEQEND
  5
13C
100
AcDbEntity
  8
CALQUE_1
 62
     7
  0
POLYLINE
  5
12E
100
AcDbEntity
  8
CALQUE_1
 62
     7
100
AcDb2dPolyline
 66
     1
 10
0.0
 20
0.0
 30
0.0
 70
     1
  0
VERTEX
  5
12F
100
AcDbEntity
  8
CALQUE_1
 62
     7
100
AcDbVertex
100
AcDb2dVertex
 10
143.64429
 20
275.971441
 30
0.0
  0
VERTEX
  5
130
100
AcDbEntity
  8
CALQUE_1
 62
     7
100
AcDbVertex
100
AcDb2dVertex
 10
143.351457
 20
276.536437
 30
0.0
  0
VERTEX
  5
131
100
AcDbEntity
  8
CALQUE_1
 62
     7
100
AcDbVertex
100
AcDb2dVertex
 10
143.056212
 20
275.971441
 30
0.0
  0
SEQEND
  5
132
100
AcDbEntity
  8
CALQUE_1
 62
     7
  0
POLYLINE
  5
122
100
AcDbEntity
  8
CALQUE_1
 62
     7
100
AcDb2dPolyline
 66
     1
 10
0.0
 20
0.0
 30
0.0
 70
     1
  0
VERTEX
  5
123
100
AcDbEntity
  8
CALQUE_1
 62
     7
100
AcDbVertex
100
AcDb2dVertex
 10
146.866832
 20
275.480859
 30
0.0
  0
VERTEX
  5
124
100
AcDbEntity
  8
CALQUE_1
 62
     7
100
AcDbVertex
100
AcDb2dVertex
 10
146.293568
 20
275.480859
 30
0.0
  0
VERTEX
  5
125
100
AcDbEntity
  8
CALQUE_1
 62
     7
100
AcDbVertex
100
AcDb2dVertex
 10
145.268308
 20
276.305098
 30
0.0
  0
VERTEX
  5
126
100
AcDbEntity
  8
CALQUE_1
 62
     7
100
AcDbVertex
100
AcDb2dVertex
 10
145.268308
 20
275.480859
 30
0.0
  0
VERTEX
  5
127
100
AcDbEntity
  8
CALQUE_1
 62
     7
100
AcDbVertex
100
AcDb2dVertex
 10
144.695044
 20
275.480859
 30
0.0
  0
VERTEX
  5
128
100
AcDbEntity
  8
CALQUE_1
 62
     7
100
AcDbVertex
100
AcDb2dVertex
 10
144.695044
 20
276.809288
 30
0.0
  0
VERTEX
  5
129
100
AcDbEntity
  8
CALQUE_1
 62
     7
100
AcDbVertex
100
AcDb2dVertex
 10
145.273131
 20
276.809288
 30
0.0
  0
VERTEX
  5
12A
100
AcDbEntity
  8
CALQUE_1
 62
     7
100
AcDbVertex
100
AcDb2dVertex
 10
146.293568
 20
275.983327
 30
0.0
  0
VERTEX
  5
12B
100
AcDbEntity
  8
CALQUE_1
 62
     7
100
AcDbVertex
100
AcDb2dVertex
 10
146.293568
 20
276.809288
 30
0.0
  0
VERTEX
  5
12C
100
AcDbEntity
  8
CALQUE_1
 62
     7
100
AcDbVertex
100
AcDb2dVertex
 10
146.866832
 20
276.809288
 30
0.0
  0
SEQEND
  5
12D
100
AcDbEntity
  8
CALQUE_1
 62
     7
  0
SPLINE
  5
121
100
AcDbEntity
  8
CALQUE_1
 62
     7
100
AcDbSpline
210
0.0
220
0.0
230
1.0
 70
     8
 71
     3
 72
    59
 73
    55
 74
     0
 42
0.00000001
 43
0.00000001
 40
0.0
 40
0.0
 40
0.0
 40
0.0
 40
1.0
 40
1.0
 40
1.0
 40
2.0
 40
2.0
 40
2.0
 40
3.0
 40
3.0
 40
3.0
 40
4.0
 40
4.0
 40
4.0
 40
5.0
 40
5.0
 40
5.0
 40
6.0
 40
6.0
 40
6.0
 40
7.0
 40
7.0
 40
7.0
 40
8.0
 40
8.0
 40
8.0
 40
9.0
 40
9.0
 40
9.0
 40
10.0
 40
10.0
 40
10.0
 40
11.0
 40
11.0
 40
11.0
 40
12.0
 40
12.0
 40
12.0
 40
13.0
 40
13.0
 40
13.0
 40
14.0
 40
14.0
 40
14.0
 40
15.0
 40
15.0
 40
15.0
 40
16.0
 40
16.0
 40
16.0
 40
17.0
 40
17.0
 40
17.0
 40
18.0
 40
18.0
 40
18.0
 40
18.0
 10
148.91528591579859
 20
275.53632541232639
 30
0.0
 10
148.84466145833332
 20
275.50910915798607
 30
0.0
 10
148.75956759982637
 20
275.48861083984372
 30
0.0
 10
148.65965983072914
 20
275.47448594835066
 30
0.0
 10
148.56009657118054
 20
275.46036105685761
 30
0.0
 10
148.44950900607637
 20
275.45329861111111
 30
0.0
 10
148.32858615451389
 20
275.45329861111111
 30
0.0
 10
148.00405815972221
 20
275.45329861111111
 30
0.0
 10
147.73499620225692
 20
275.51858317057287
 30
0.0
 10
147.52140028211804
 20
275.64932454427083
 30
0.0
 10
147.30780436197915
 20
275.7798936631944
 30
0.0
 10
147.20100640190972
 20
275.94456922743052
 30
0.0
 10
147.20100640190972
 20
276.14335123697913
 30
0.0
 10
147.20100640190972
 20
276.34213324652774
 30
0.0
 10
147.30780436197915
 20
276.50749782986111
 30
0.0
 10
147.52208930121526
 20
276.63910047743053
 30
0.0
 10
147.73637424045137
 20
276.77104763454861
 30
0.0
 10
148.00509168836805
 20
276.83684895833329
 30
0.0
 10
148.32858615451389
 20
276.83684895833329
 30
0.0
 10
148.45260959201389
 20
276.83684895833329
 30
0.0
 10
148.56354166666665
 20
276.82995876736106
 30
0.0
 10
148.66172688802081
 20
276.81617838541666
 30
0.0
 10
148.76025661892359
 20
276.80239800347221
 30
0.0
 10
148.84466145833332
 20
276.78155517578125
 30
0.0
 10
148.91528591579859
 20
276.75382215711801
 30
0.0
 10
148.91528591579859
 20
276.75382215711801
 30
0.0
 10
148.91528591579859
 20
276.36280381944442
 30
0.0
 10
148.91528591579859
 20
276.36280381944442
 30
0.0
 10
148.84845106336803
 20
276.40655653211803
 30
0.0
 10
148.76886935763886
 20
276.44031846788192
 30
0.0
 10
148.67654079861109
 20
276.46443413628469
 30
0.0
 10
148.58455674913193
 20
276.48854980468747
 30
0.0
 10
148.48878309461804
 20
276.50060763888888
 30
0.0
 10
148.38921983506944
 20
276.50060763888888
 30
0.0
 10
148.21248643663193
 20
276.50060763888888
 30
0.0
 10
148.06951497395832
 20
276.46719021267359
 30
0.0
 10
147.9603054470486
 20
276.40018310546873
 30
0.0
 10
147.85075141059028
 20
276.33317599826387
 30
0.0
 10
147.7963189019097
 20
276.24532606336805
 30
0.0
 10
147.7963189019097
 20
276.1364610460069
 30
0.0
 10
147.7963189019097
 20
276.03517523871523
 30
0.0
 10
147.8514404296875
 20
275.95180392795135
 30
0.0
 10
147.96237250434027
 20
275.88703613281245
 30
0.0
 10
148.07296006944443
 20
275.82192382812497
 30
0.0
 10
148.21558702256942
 20
275.78953993055552
 30
0.0
 10
148.38921983506944
 20
275.78953993055552
 30
0.0
 10
148.48568250868055
 20
275.78953993055552
 30
0.0
 10
148.58111165364582
 20
275.80159776475693
 30
0.0
 10
148.67516276041664
 20
275.8260579427083
 30
0.0
 10
148.76921386718749
 20
275.85051812065967
 30
0.0
 10
148.84914008246525
 20
275.88428005642356
 30
0.0
 10
148.91528591579859
 20
275.92734374999998
 30
0.0
 10
148.91528591579859
 20
275.92734374999998
 30
0.0
 10
148.91528591579859
 20
275.53632541232639
 30
0.0
 10
148.91528591579859
 20
275.53632541232639
 30
0.0
  0
POLYLINE
  5
113
100
AcDbEntity
  8
CALQUE_1
 62
     7
100
AcDb2dPolyline
 66
     1
 10
0.0
 20
0.0
 30
0.0
 70
     1
  0
VERTEX
  5
114
100
AcDbEntity
  8
CALQUE_1
 62
     7
100
AcDbVertex
100
AcDb2dVertex
 10
150.495551
 20
275.480859
 30
0.0
  0
VERTEX
  5
115
100
AcDbEntity
  8
CALQUE_1
 62
     7
100
AcDbVertex
100
AcDb2dVertex
 10
149.233268
 20
275.480859
 30
0.0
  0
VERTEX
  5
116
100
AcDbEntity
  8
CALQUE_1
 62
     7
100
AcDbVertex
100
AcDb2dVertex
 10
149.233268
 20
276.809288
 30
0.0
  0
VERTEX
  5
117
100
AcDbEntity
  8
CALQUE_1
 62
     7
100
AcDbVertex
100
AcDb2dVertex
 10
150.495551
 20
276.809288
 30
0.0
  0
VERTEX
  5
118
100
AcDbEntity
  8
CALQUE_1
 62
     7
100
AcDbVertex
100
AcDb2dVertex
 10
150.495551
 20
276.517144
 30
0.0
  0
VERTEX
  5
119
100
AcDbEntity
  8
CALQUE_1
 62
     7
100
AcDbVertex
100
AcDb2dVertex
 10
149.806532
 20
276.517144
 30
0.0
  0
VERTEX
  5
11A
100
AcDbEntity
  8
CALQUE_1
 62
     7
100
AcDbVertex
100
AcDb2dVertex
 10
149.806532
 20
276.296658
 30
0.0
  0
VERTEX
  5
11B
100
AcDbEntity
  8
CALQUE_1
 62
     7
100
AcDbVertex
100
AcDb2dVertex
 10
150.46799
 20
276.296658
 30
0.0
  0
VERTEX
  5
11C
100
AcDbEntity
  8
CALQUE_1
 62
     7
100
AcDbVertex
100
AcDb2dVertex
 10
150.46799
 20
276.015538
 30
0.0
  0
VERTEX
  5
11D
100
AcDbEntity
  8
CALQUE_1
 62
     7
100
AcDbVertex
100
AcDb2dVertex
 10
149.806532
 20
276.015538
 30
0.0
  0
VERTEX
  5
11E
100
AcDbEntity
  8
CALQUE_1
 62
     7
100
AcDbVertex
100
AcDb2dVertex
 10
149.806532
 20
275.773003
 30
0.0
  0
VERTEX
  5
11F
100
AcDbEntity
  8
CALQUE_1
 62
     7
100
AcDbVertex
100
AcDb2dVertex
 10
150.495551
 20
275.773003
 30
0.0
  0
SEQEND
  5
120
100
AcDbEntity
  8
CALQUE_1
 62
     7
  0
SPLINE
  5
112
100
AcDbEntity
  8
CALQUE_1
 62
     7
100
AcDbSpline
210
0.0
220
0.0
230
1.0
 70
     8
 71
     3
 72
    17
 73
    13
 74
     0
 42
0.00000001
 43
0.00000001
 40
0.0
 40
0.0
 40
0.0
 40
0.0
 40
1.0
 40
1.0
 40
1.0
 40
2.0
 40
2.0
 40
2.0
 40
3.0
 40
3.0
 40
3.0
 40
4.0
 40
4.0
 40
4.0
 40
4.0
 10
15.998162163628471
 20
281.96384006076386
 30
0.0
 10
15.998162163628471
 20
281.96384006076386
 30
0.0
 10
15.174439832899305
 20
282.618408203125
 30
0.0
 10
15.174439832899305
 20
283.19494493272566
 30
0.0
 10
15.174439832899305
 20
283.77148166232638
 30
0.0
 10
15.174439832899305
 20
286.10846218532981
 30
0.0
 10
15.174439832899305
 20
286.10846218532981
 30
0.0
 10
15.174439832899305
 20
286.10846218532981
 30
0.0
 10
15.627469889322915
 20
286.17030164930554
 30
0.0
 10
15.998162163628471
 20
286.03628743489583
 30
0.0
 10
15.998162163628471
 20
286.03628743489583
 30
0.0
 10
15.998162163628471
 20
281.96384006076386
 30
0.0
 10
15.998162163628471
 20
281.96384006076386
 30
0.0
  0
SPLINE
  5
111
100
AcDbEntity
  8
CALQUE_1
 62
     7
100
AcDbSpline
210
0.0
220
0.0
230
1.0
 70
     8
 71
     3
 72
    29
 73
    25
 74
     0
 42
0.00000001
 43
0.00000001
 40
0.0
 40
0.0
 40
0.0
 40
0.0
 40
1.0
 40
1.0
 40
1.0
 40
2.0
 40
2.0
 40
2.0
 40
3.0
 40
3.0
 40
3.0
 40
4.0
 40
4.0
 40
4.0
 40
5.0
 40
5.0
 40
5.0
 40
6.0
 40
6.0
 40
6.0
 40
7.0
 40
7.0
 40
7.0
 40
8.0
 40
8.0
 40
8.0
 40
8.0
 10
15.12345241970486
 20
282.71762695312498
 30
0.0
 10
15.014587402343748
 20
282.78446180555551
 30
0.0
 10
14.941551378038193
 20
282.90469563802083
 30
0.0
 10
14.941551378038193
 20
283.04181043836803
 30
0.0
 10
14.941551378038193
 20
283.11674126519097
 30
0.0
 10
14.963599989149305
 20
283.18650444878472
 30
0.0
 10
15.001151529947915
 20
283.24541558159717
 30
0.0
 10
15.001151529947915
 20
283.24541558159717
 30
0.0
 10
15.001151529947915
 20
283.78388400607639
 30
0.0
 10
15.001151529947915
 20
283.78388400607639
 30
0.0
 10
14.714175075954859
 20
283.65934380425347
 30
0.0
 10
14.512981499565971
 20
283.37374538845484
 30
0.0
 10
14.512981499565971
 20
283.04181043836803
 30
0.0
 10
14.512981499565971
 20
282.87954644097221
 30
0.0
 10
14.561557345920138
 20
282.72882351345481
 30
0.0
 10
14.643895128038194
 20
282.60221625434025
 30
0.0
 10
14.643895128038194
 20
282.60221625434025
 30
0.0
 10
15.344283040364582
 20
282.23410780164926
 30
0.0
 10
15.344283040364582
 20
282.23410780164926
 30
0.0
 10
15.371843804253471
 20
282.23496907552078
 30
0.0
 10
15.399060058593749
 20
282.23703613281248
 30
0.0
 10
15.425931803385415
 20
282.24065348307289
 30
0.0
 10
15.313966200086805
 20
282.3837972005208
 30
0.0
 10
15.203723144531249
 20
282.54743923611107
 30
0.0
 10
15.12345241970486
 20
282.71762695312498
 30
0.0
  0
SPLINE
  5
110
100
AcDbEntity
  8
CALQUE_1
 62
     7
100
AcDbSpline
210
0.0
220
0.0
230
1.0
 70
     8
 71
     3
 72
    14
 73
    10
 74
     0
 42
0.00000001
 43
0.00000001
 40
0.0
 40
0.0
 40
0.0
 40
0.0
 40
1.0
 40
1.0
 40
1.0
 40
2.0
 40
2.0
 40
2.0
 40
3.0
 40
3.0
 40
3.0
 40
3.0
 10
15.488632541232638
 20
282.15831570095486
 30
0.0
 10
15.488632541232638
 20
282.15831570095486
 30
0.0
 10
15.494833713107637
 20
282.15521511501731
 30
0.0
 10
15.494833713107637
 20
282.15521511501731
 30
0.0
 10
15.493455674913193
 20
282.15642089843749
 30
0.0
 10
15.49242214626736
 20
282.15779893663193
 30
0.0
 10
15.491388617621526
 20
282.15900472005205
 30
0.0
 10
15.490699598524305
 20
282.15883246527773
 30
0.0
 10
15.489666069878471
 20
282.15866021050346
 30
0.0
 10
15.488632541232638
 20
282.15831570095486
 30
0.0
  0
SPLINE
  5
10F
100
AcDbEntity
  8
CALQUE_1
 62
     7
100
AcDbSpline
210
0.0
220
0.0
230
1.0
 70
     8
 71
     3
 72
    23
 73
    19
 74
     0
 42
0.00000001
 43
0.00000001
 40
0.0
 40
0.0
 40
0.0
 40
0.0
 40
1.0
 40
1.0
 40
1.0
 40
2.0
 40
2.0
 40
2.0
 40
3.0
 40
3.0
 40
3.0
 40
4.0
 40
4.0
 40
4.0
 40
5.0
 40
5.0
 40
5.0
 40
6.0
 40
6.0
 40
6.0
 40
6.0
 10
13.994150119357638
 20
283.04181043836803
 30
0.0
 10
13.994150119357638
 20
283.00804850260414
 30
0.0
 10
13.995872667100693
 20
282.97463107638885
 30
0.0
 10
13.998284233940971
 20
282.94155815972221
 30
0.0
 10
13.998284233940971
 20
282.94155815972221
 30
0.0
 10
14.499890136718749
 20
282.67783610026038
 30
0.0
 10
14.499890136718749
 20
282.67783610026038
 30
0.0
 10
14.450280761718748
 20
282.7892849392361
 30
0.0
 10
14.422375488281249
 20
282.91210259331592
 30
0.0
 10
14.422375488281249
 20
283.04181043836803
 30
0.0
 10
14.422375488281249
 20
283.424560546875
 30
0.0
 10
14.663187662760416
 20
283.75150010850695
 30
0.0
 10
15.001151529947915
 20
283.88103569878467
 30
0.0
 10
15.001151529947915
 20
283.88103569878467
 30
0.0
 10
15.001151529947915
 20
284.3301038953993
 30
0.0
 10
15.001151529947915
 20
284.3301038953993
 30
0.0
 10
14.423409016927081
 20
284.18627115885414
 30
0.0
 10
13.994150119357638
 20
283.66330566406248
 30
0.0
 10
13.994150119357638
 20
283.04181043836803
 30
0.0
  0
SPLINE
  5
10E
100
AcDbEntity
  8
CALQUE_1
 62
     7
100
AcDbSpline
210
0.0
220
0.0
230
1.0
 70
     8
 71
     3
 72
    20
 73
    16
 74
     0
 42
0.00000001
 43
0.00000001
 40
0.0
 40
0.0
 40
0.0
 40
0.0
 40
1.0
 40
1.0
 40
1.0
 40
2.0
 40
2.0
 40
2.0
 40
3.0
 40
3.0
 40
3.0
 40
4.0
 40
4.0
 40
4.0
 40
5.0
 40
5.0
 40
5.0
 40
5.0
 10
13.462227376302081
 20
283.2233669704861
 30
0.0
 10
13.462227376302081
 20
283.2233669704861
 30
0.0
 10
13.879772949218749
 20
283.00374213324648
 30
0.0
 10
13.879772949218749
 20
283.00374213324648
 30
0.0
 10
13.879772949218749
 20
283.00959879557291
 30
0.0
 10
13.879428439670138
 20
283.01545545789929
 30
0.0
 10
13.879428439670138
 20
283.02113986545135
 30
0.0
 10
13.879428439670138
 20
283.71050347222217
 30
0.0
 10
14.358641221788194
 20
284.28945176866318
 30
0.0
 10
15.001151529947915
 20
284.44379204644093
 30
0.0
 10
15.001151529947915
 20
284.44379204644093
 30
0.0
 10
15.001151529947915
 20
284.88149142795135
 30
0.0
 10
15.001151529947915
 20
284.88149142795135
 30
0.0
 10
14.185352918836804
 20
284.73197428385413
 30
0.0
 10
13.55111083984375
 20
284.0581136067708
 30
0.0
 10
13.462227376302081
 20
283.2233669704861
 30
0.0
  0
SPLINE
  5
10D
100
AcDbEntity
  8
CALQUE_1
 62
     7
100
AcDbSpline
210
0.0
220
0.0
230
1.0
 70
     8
 71
     3
 72
    17
 73
    13
 74
     0
 42
0.00000001
 43
0.00000001
 40
0.0
 40
0.0
 40
0.0
 40
0.0
 40
1.0
 40
1.0
 40
1.0
 40
2.0
 40
2.0
 40
2.0
 40
3.0
 40
3.0
 40
3.0
 40
4.0
 40
4.0
 40
4.0
 40
4.0
 10
12.962688530815971
 20
283.48571099175342
 30
0.0
 10
12.962688530815971
 20
283.48571099175342
 30
0.0
 10
13.36507568359375
 20
283.2741821289062
 30
0.0
 10
13.36507568359375
 20
283.2741821289062
 30
0.0
 10
13.452236599392361
 20
284.1535427517361
 30
0.0
 10
14.134020996093749
 20
284.86082085503472
 30
0.0
 10
15.001151529947915
 20
284.98760036892361
 30
0.0
 10
15.001151529947915
 20
284.98760036892361
 30
0.0
 10
15.001151529947915
 20
285.41909857855899
 30
0.0
 10
15.001151529947915
 20
285.41909857855899
 30
0.0
 10
13.967967393663193
 20
285.29628092447916
 30
0.0
 10
13.138388400607639
 20
284.50184190538192
 30
0.0
 10
12.962688530815971
 20
283.48571099175342
 30
0.0
  0
SPLINE
  5
10C
100
AcDbEntity
  8
CALQUE_1
 62
     7
100
AcDbSpline
210
0.0
220
0.0
230
1.0
 70
     8
 71
     3
 72
    17
 73
    13
 74
     0
 42
0.00000001
 43
0.00000001
 40
0.0
 40
0.0
 40
0.0
 40
0.0
 40
1.0
 40
1.0
 40
1.0
 40
2.0
 40
2.0
 40
2.0
 40
3.0
 40
3.0
 40
3.0
 40
4.0
 40
4.0
 40
4.0
 40
4.0
 10
12.448680284288193
 20
283.75563422309023
 30
0.0
 10
12.448680284288193
 20
283.75563422309023
 30
0.0
 10
12.847622341579861
 20
283.54582790798611
 30
0.0
 10
12.847622341579861
 20
283.54582790798611
 30
0.0
 10
12.997828504774304
 20
284.62586534288192
 30
0.0
 10
13.896309407552081
 20
285.46956922743055
 30
0.0
 10
15.001151529947915
 20
285.53382025824652
 30
0.0
 10
15.001151529947915
 20
285.53382025824652
 30
0.0
 10
15.001151529947915
 20
285.96290690104166
 30
0.0
 10
15.001151529947915
 20
285.96290690104166
 30
0.0
 10
13.731978352864582
 20
285.90072292751734
 30
0.0
 10
12.687425401475693
 20
284.97106391059026
 30
0.0
 10
12.448680284288193
 20
283.75563422309023
 30
0.0
  0
SPLINE
  5
10B
100
AcDbEntity
  8
CALQUE_1
 62
     7
100
AcDbSpline
210
0.0
220
0.0
230
1.0
 70
     8
 71
     3
 72
    71
 73
    67
 74
     0
 42
0.00000001
 43
0.00000001
 40
0.0
 40
0.0
 40
0.0
 40
0.0
 40
1.0
 40
1.0
 40
1.0
 40
2.0
 40
2.0
 40
2.0
 40
3.0
 40
3.0
 40
3.0
 40
4.0
 40
4.0
 40
4.0
 40
5.0
 40
5.0
 40
5.0
 40
6.0
 40
6.0
 40
6.0
 40
7.0
 40
7.0
 40
7.0
 40
8.0
 40
8.0
 40
8.0
 40
9.0
 40
9.0
 40
9.0
 40
10.0
 40
10.0
 40
10.0
 40
11.0
 40
11.0
 40
11.0
 40
12.0
 40
12.0
 40
12.0
 40
13.0
 40
13.0
 40
13.0
 40
14.0
 40
14.0
 40
14.0
 40
15.0
 40
15.0
 40
15.0
 40
16.0
 40
16.0
 40
16.0
 40
17.0
 40
17.0
 40
17.0
 40
18.0
 40
18.0
 40
18.0
 40
19.0
 40
19.0
 40
19.0
 40
20.0
 40
20.0
 40
20.0
 40
21.0
 40
21.0
 40
21.0
 40
22.0
 40
22.0
 40
22.0
 40
22.0
 10
16.142511664496528
 20
281.88270806206594
 30
0.0
 10
16.142511664496528
 20
281.88270806206594
 30
0.0
 10
16.142511664496528
 20
283.97267523871523
 30
0.0
 10
16.142511664496528
 20
283.97267523871523
 30
0.0
 10
16.142511664496528
 20
283.97267523871523
 30
0.0
 10
16.615867784288191
 20
284.51837836371527
 30
0.0
 10
17.428910319010416
 20
284.58004557291662
 30
0.0
 10
17.470251464843749
 20
284.65222032335066
 30
0.0
 10
17.490922037760416
 20
284.73455810546875
 30
0.0
 10
17.490922037760416
 20
284.73455810546875
 30
0.0
 10
17.490922037760416
 20
284.73455810546875
 30
0.0
 10
17.737590874565971
 20
284.49770779079859
 30
0.0
 10
17.737590874565971
 20
284.49770779079859
 30
0.0
 10
17.737590874565971
 20
284.49770779079859
 30
0.0
 10
17.634927029079858
 20
283.12845458984373
 30
0.0
 10
17.634927029079858
 20
283.12845458984373
 30
0.0
 10
17.634927029079858
 20
283.12845458984373
 30
0.0
 10
17.367587619357636
 20
283.09762098524305
 30
0.0
 10
17.367587619357636
 20
283.09762098524305
 30
0.0
 10
17.367587619357636
 20
283.09762098524305
 30
0.0
 10
17.078888617621526
 20
283.58148464626731
 30
0.0
 10
17.078888617621526
 20
283.58148464626731
 30
0.0
 10
17.078888617621526
 20
283.58148464626731
 30
0.0
 10
17.006886121961806
 20
283.58148464626731
 30
0.0
 10
17.02755669487847
 20
283.40647379557288
 30
0.0
 10
17.047882758246526
 20
283.23146294487844
 30
0.0
 10
17.078888617621526
 20
283.01528320312497
 30
0.0
 10
17.315911187065971
 20
282.73726399739581
 30
0.0
 10
17.315911187065971
 20
282.73726399739581
 30
0.0
 10
16.883207194010414
 20
282.08872477213538
 30
0.0
 10
16.883207194010414
 20
282.08872477213538
 30
0.0
 10
16.883207194010414
 20
282.08872477213538
 30
0.0
 10
16.873216417100693
 20
282.00638699001735
 30
0.0
 10
16.965889485677081
 20
282.03722059461802
 30
0.0
 10
16.965889485677081
 20
282.03722059461802
 30
0.0
 10
17.671789550781249
 20
282.99099527994787
 30
0.0
 10
17.671789550781249
 20
282.99099527994787
 30
0.0
 10
17.671789550781249
 20
282.99099527994787
 30
0.0
 10
17.98219265407986
 20
282.85611979166663
 30
0.0
 10
17.98219265407986
 20
282.85611979166663
 30
0.0
 10
17.98219265407986
 20
282.85611979166663
 30
0.0
 10
17.997006564670137
 20
281.79089626736106
 30
0.0
 10
17.997006564670137
 20
281.79089626736106
 30
0.0
 10
17.997006564670137
 20
281.79089626736106
 30
0.0
 10
17.404794650607638
 20
281.24639892578125
 30
0.0
 10
17.404794650607638
 20
281.24639892578125
 30
0.0
 10
17.404794650607638
 20
281.24639892578125
 30
0.0
 10
17.404794650607638
 20
281.60933973524305
 30
0.0
 10
17.404794650607638
 20
281.60933973524305
 30
0.0
 10
17.404794650607638
 20
281.60933973524305
 30
0.0
 10
17.574637858072915
 20
281.6153686523437
 30
0.0
 10
17.574637858072915
 20
281.6153686523437
 30
0.0
 10
17.574637858072915
 20
281.6153686523437
 30
0.0
 10
17.768596733940971
 20
281.8260362413194
 30
0.0
 10
17.768596733940971
 20
281.8260362413194
 30
0.0
 10
17.768596733940971
 20
281.8260362413194
 30
0.0
 10
17.752749294704859
 20
282.51074896918402
 30
0.0
 10
17.752749294704859
 20
282.51074896918402
 30
0.0
 10
17.752749294704859
 20
282.51074896918402
 30
0.0
 10
17.701072862413191
 20
282.51074896918402
 30
0.0
 10
17.701072862413191
 20
282.51074896918402
 30
0.0
 10
17.701072862413191
 20
282.51074896918402
 30
0.0
 10
17.102315266927082
 20
281.3855807834201
 30
0.0
 10
17.102315266927082
 20
281.3855807834201
 30
0.0
 10
17.102315266927082
 20
281.3855807834201
 30
0.0
 10
16.142511664496528
 20
281.88270806206594
 30
0.0
 10
16.142511664496528
 20
281.88270806206594
 30
0.0
  0
SPLINE
  5
10A
100
AcDbEntity
  8
CALQUE_1
 62
     7
100
AcDbSpline
210
0.0
220
0.0
230
1.0
 70
     8
 71
     3
 72
    17
 73
    13
 74
     0
 42
0.00000001
 43
0.00000001
 40
0.0
 40
0.0
 40
0.0
 40
0.0
 40
1.0
 40
1.0
 40
1.0
 40
2.0
 40
2.0
 40
2.0
 40
3.0
 40
3.0
 40
3.0
 40
4.0
 40
4.0
 40
4.0
 40
4.0
 10
16.343360731336805
 20
284.77951660156248
 30
0.0
 10
16.343360731336805
 20
284.77951660156248
 30
0.0
 10
16.528362358940971
 20
284.42329372829857
 30
0.0
 10
16.528362358940971
 20
284.42329372829857
 30
0.0
 10
16.582794867621526
 20
284.4541273328993
 30
0.0
 10
16.642050509982639
 20
284.48375515407986
 30
0.0
 10
16.704062228732639
 20
284.51217719184024
 30
0.0
 10
16.704062228732639
 20
284.51217719184024
 30
0.0
 10
16.634126790364583
 20
284.96141764322914
 30
0.0
 10
16.634126790364583
 20
284.96141764322914
 30
0.0
 10
16.525606282552083
 20
284.90664062499997
 30
0.0
 10
16.427765570746526
 20
284.84290635850692
 30
0.0
 10
16.343360731336805
 20
284.77951660156248
 30
0.0
  0
SPLINE
  5
109
100
AcDbEntity
  8
CALQUE_1
 62
     7
100
AcDbSpline
210
0.0
220
0.0
230
1.0
 70
     8
 71
     3
 72
    17
 73
    13
 74
     0
 42
0.00000001
 43
0.00000001
 40
0.0
 40
0.0
 40
0.0
 40
0.0
 40
1.0
 40
1.0
 40
1.0
 40
2.0
 40
2.0
 40
2.0
 40
3.0
 40
3.0
 40
3.0
 40
4.0
 40
4.0
 40
4.0
 40
4.0
 10
16.142511664496528
 20
284.6091566297743
 30
0.0
 10
16.142511664496528
 20
284.6091566297743
 30
0.0
 10
16.142511664496528
 20
284.14389648437498
 30
0.0
 10
16.142511664496528
 20
284.14389648437498
 30
0.0
 10
16.20831298828125
 20
284.20487467447913
 30
0.0
 10
16.309943305121525
 20
284.28824598524301
 30
0.0
 10
16.442923990885415
 20
284.37213406032981
 30
0.0
 10
16.442923990885415
 20
284.37213406032981
 30
0.0
 10
16.263779025607636
 20
284.71681586371523
 30
0.0
 10
16.263779025607636
 20
284.71681586371523
 30
0.0
 10
16.218303765190971
 20
284.67891981336805
 30
0.0
 10
16.176962619357639
 20
284.64222954644094
 30
0.0
 10
16.142511664496528
 20
284.6091566297743
 30
0.0
  0
SPLINE
  5
108
100
AcDbEntity
  8
CALQUE_1
 62
     7
100
AcDbSpline
210
0.0
220
0.0
230
1.0
 70
     8
 71
     3
 72
    20
 73
    16
 74
     0
 42
0.00000001
 43
0.00000001
 40
0.0
 40
0.0
 40
0.0
 40
0.0
 40
1.0
 40
1.0
 40
1.0
 40
2.0
 40
2.0
 40
2.0
 40
3.0
 40
3.0
 40
3.0
 40
4.0
 40
4.0
 40
4.0
 40
5.0
 40
5.0
 40
5.0
 40
5.0
 10
16.798457845052081
 20
284.55248480902776
 30
0.0
 10
16.861503092447915
 20
284.57780626085065
 30
0.0
 10
16.926959906684026
 20
284.60157741970482
 30
0.0
 10
16.997239854600693
 20
284.62207573784718
 30
0.0
 10
17.015498860677081
 20
284.63086073133678
 30
0.0
 10
17.032724338107638
 20
284.63878445095486
 30
0.0
 10
17.050638834635414
 20
284.6472249348958
 30
0.0
 10
17.050638834635414
 20
284.6472249348958
 30
0.0
 10
17.061663140190969
 20
285.10111626519097
 30
0.0
 10
17.061663140190969
 20
285.10111626519097
 30
0.0
 10
16.943151855468749
 20
285.0833740234375
 30
0.0
 10
16.831530761718749
 20
285.04892306857636
 30
0.0
 10
16.727833387586806
 20
285.00465359157982
 30
0.0
 10
16.727833387586806
 20
285.00465359157982
 30
0.0
 10
16.798457845052081
 20
284.55248480902776
 30
0.0
 10
16.798457845052081
 20
284.55248480902776
 30
0.0
  0
SPLINE
  5
107
100
AcDbEntity
  8
CALQUE_1
 62
     7
100
AcDbSpline
210
0.0
220
0.0
230
1.0
 70
     8
 71
     3
 72
    17
 73
    13
 74
     0
 42
0.00000001
 43
0.00000001
 40
0.0
 40
0.0
 40
0.0
 40
0.0
 40
1.0
 40
1.0
 40
1.0
 40
2.0
 40
2.0
 40
2.0
 40
3.0
 40
3.0
 40
3.0
 40
4.0
 40
4.0
 40
4.0
 40
4.0
 10
17.161570909288194
 20
285.11179606119788
 30
0.0
 10
17.161570909288194
 20
285.11179606119788
 30
0.0
 10
17.151235622829859
 20
284.69304470486111
 30
0.0
 10
17.151235622829859
 20
284.69304470486111
 30
0.0
 10
17.227372233072916
 20
284.726806640625
 30
0.0
 10
17.296963161892361
 20
284.75505642361111
 30
0.0
 10
17.355874294704858
 20
284.77572699652774
 30
0.0
 10
17.355874294704858
 20
284.77572699652774
 30
0.0
 10
17.438556586371526
 20
285.09594862196178
 30
0.0
 10
17.438556586371526
 20
285.09594862196178
 30
0.0
 10
17.343127441406249
 20
285.11334635416665
 30
0.0
 10
17.250454372829861
 20
285.11765272352426
 30
0.0
 10
17.161570909288194
 20
285.11179606119788
 30
0.0
  0
SPLINE
  5
106
100
AcDbEntity
  8
CALQUE_1
 62
     7
100
AcDbSpline
210
0.0
220
0.0
230
1.0
 70
     8
 71
     3
 72
    17
 73
    13
 74
     0
 42
0.00000001
 43
0.00000001
 40
0.0
 40
0.0
 40
0.0
 40
0.0
 40
1.0
 40
1.0
 40
1.0
 40
2.0
 40
2.0
 40
2.0
 40
3.0
 40
3.0
 40
3.0
 40
4.0
 40
4.0
 40
4.0
 40
4.0
 10
17.535019259982636
 20
285.07372775607638
 30
0.0
 10
17.535019259982636
 20
285.07372775607638
 30
0.0
 10
17.491266547309028
 20
284.90216200086803
 30
0.0
 10
17.491266547309028
 20
284.90216200086803
 30
0.0
 10
17.491266547309028
 20
284.90216200086803
 30
0.0
 10
17.684536404079861
 20
284.71681586371523
 30
0.0
 10
17.684536404079861
 20
284.71681586371523
 30
0.0
 10
17.684536404079861
 20
284.71681586371523
 30
0.0
 10
17.834053548177081
 20
284.92541639539928
 30
0.0
 10
17.834053548177081
 20
284.92541639539928
 30
0.0
 10
17.752749294704859
 20
284.98777262369788
 30
0.0
 10
17.654908582899303
 20
285.03996582031249
 30
0.0
 10
17.535019259982636
 20
285.07372775607638
 30
0.0
  0
SPLINE
  5
105
100
AcDbEntity
  8
CALQUE_1
 62
     7
100
AcDbSpline
210
0.0
220
0.0
230
1.0
 70
     8
 71
     3
 72
    20
 73
    16
 74
     0
 42
0.00000001
 43
0.00000001
 40
0.0
 40
0.0
 40
0.0
 40
0.0
 40
1.0
 40
1.0
 40
1.0
 40
2.0
 40
2.0
 40
2.0
 40
3.0
 40
3.0
 40
3.0
 40
4.0
 40
4.0
 40
4.0
 40
5.0
 40
5.0
 40
5.0
 40
5.0
 10
17.85816921657986
 20
284.47445339626734
 30
0.0
 10
17.85816921657986
 20
284.47445339626734
 30
0.0
 10
18.107594129774302
 20
284.56747097439234
 30
0.0
 10
18.107594129774302
 20
284.56747097439234
 30
0.0
 10
18.063152398003471
 20
284.66737874348956
 30
0.0
 10
18.000107150607636
 20
284.77038709852428
 30
0.0
 10
17.909156629774305
 20
284.85978732638887
 30
0.0
 10
17.909156629774305
 20
284.85978732638887
 30
0.0
 10
17.757227918836804
 20
284.64739718967013
 30
0.0
 10
17.757227918836804
 20
284.64739718967013
 30
0.0
 10
17.757227918836804
 20
284.64739718967013
 30
0.0
 10
17.862992350260416
 20
284.54576687282986
 30
0.0
 10
17.862992350260416
 20
284.54576687282986
 30
0.0
 10
17.862992350260416
 20
284.54576687282986
 30
0.0
 10
17.861614312065971
 20
284.51958414713539
 30
0.0
 10
17.85816921657986
 20
284.47445339626734
 30
0.0
  0
SPLINE
  5
104
100
AcDbEntity
  8
CALQUE_1
 62
     7
100
AcDbSpline
210
0.0
220
0.0
230
1.0
 70
     8
 71
     3
 72
    17
 73
    13
 74
     0
 42
0.00000001
 43
0.00000001
 40
0.0
 40
0.0
 40
0.0
 40
0.0
 40
1.0
 40
1.0
 40
1.0
 40
2.0
 40
2.0
 40
2.0
 40
3.0
 40
3.0
 40
3.0
 40
4.0
 40
4.0
 40
4.0
 40
4.0
 10
18.144112141927081
 20
284.47497016059026
 30
0.0
 10
18.144112141927081
 20
284.47497016059026
 30
0.0
 10
17.849900987413193
 20
284.36524386935764
 30
0.0
 10
17.849900987413193
 20
284.36524386935764
 30
0.0
 10
17.845077853732636
 20
284.30116509331594
 30
0.0
 10
17.838876681857638
 20
284.22365044487844
 30
0.0
 10
17.832675509982636
 20
284.13872884114579
 30
0.0
 10
17.832675509982636
 20
284.13872884114579
 30
0.0
 10
18.210946994357638
 20
284.13872884114579
 30
0.0
 10
18.210946994357638
 20
284.13872884114579
 30
0.0
 10
18.208879937065969
 20
284.1824815538194
 30
0.0
 10
18.198200141059026
 20
284.31839057074649
 30
0.0
 10
18.144112141927081
 20
284.47497016059026
 30
0.0
  0
CIRCLE
  5
103
100
AcDbEntity
  8
CALQUE_1
 62
     7
100
AcDbCircle
 10
17.568781
 20
284.024007
 30
0.0
 40
0.064768
  0
SPLINE
  5
102
100
AcDbEntity
  8
CALQUE_1
 62
     7
100
AcDbSpline
210
0.0
220
0.0
230
1.0
 70
     8
 71
     3
 72
    68
 73
    64
 74
     0
 42
0.00000001
 43
0.00000001
 40
0.0
 40
0.0
 40
0.0
 40
0.0
 40
1.0
 40
1.0
 40
1.0
 40
2.0
 40
2.0
 40
2.0
 40
3.0
 40
3.0
 40
3.0
 40
4.0
 40
4.0
 40
4.0
 40
5.0
 40
5.0
 40
5.0
 40
6.0
 40
6.0
 40
6.0
 40
7.0
 40
7.0
 40
7.0
 40
8.0
 40
8.0
 40
8.0
 40
9.0
 40
9.0
 40
9.0
 40
10.0
 40
10.0
 40
10.0
 40
11.0
 40
11.0
 40
11.0
 40
12.0
 40
12.0
 40
12.0
 40
13.0
 40
13.0
 40
13.0
 40
14.0
 40
14.0
 40
14.0
 40
15.0
 40
15.0
 40
15.0
 40
16.0
 40
16.0
 40
16.0
 40
17.0
 40
17.0
 40
17.0
 40
18.0
 40
18.0
 40
18.0
 40
19.0
 40
19.0
 40
19.0
 40
20.0
 40
20.0
 40
20.0
 40
21.0
 40
21.0
 40
21.0
 40
21.0
 10
21.098626030815971
 20
284.52957492404511
 30
0.0
 10
21.098626030815971
 20
284.29530843098956
 30
0.0
 10
21.004919433593749
 20
284.11754150390624
 30
0.0
 10
20.817850748697914
 20
283.99627414279513
 30
0.0
 10
20.630437554253469
 20
283.87500678168402
 30
0.0
 10
20.356207953559025
 20
283.81437310112847
 30
0.0
 10
19.99516194661458
 20
283.81437310112847
 30
0.0
 10
19.657887098524302
 20
283.81437310112847
 30
0.0
 10
19.380556911892359
 20
283.87845187717011
 30
0.0
 10
19.163860405815971
 20
284.00695393880204
 30
0.0
 10
18.947163899739582
 20
284.13511149088538
 30
0.0
 10
18.838643391927082
 20
284.30047607421875
 30
0.0
 10
18.838643391927082
 20
284.50270317925344
 30
0.0
 10
18.838643391927082
 20
284.7025187174479
 30
0.0
 10
18.949575466579859
 20
284.86857231987847
 30
0.0
 10
19.171439615885415
 20
285.00017496744789
 30
0.0
 10
19.393303765190971
 20
285.13212212456597
 30
0.0
 10
19.672356499565971
 20
285.19792344835065
 30
0.0
 10
20.008597819010415
 20
285.19792344835065
 30
0.0
 10
20.220815700954859
 20
285.19792344835065
 30
0.0
 10
20.409951443142358
 20
285.17242974175343
 30
0.0
 10
20.576005045572916
 20
285.12127007378467
 30
0.0
 10
20.742403157552083
 20
285.07011040581597
 30
0.0
 10
20.881585015190971
 20
284.99466281467011
 30
0.0
 10
20.993895128038194
 20
284.89475504557288
 30
0.0
 10
20.993895128038194
 20
284.89475504557288
 30
0.0
 10
20.479542371961802
 20
284.74385986328122
 30
0.0
 10
20.479542371961802
 20
284.74385986328122
 30
0.0
 10
20.417530653211802
 20
284.79484727647565
 30
0.0
 10
20.347939724392358
 20
284.83257107204861
 30
0.0
 10
20.270425075954858
 20
284.8575480143229
 30
0.0
 10
20.193254937065969
 20
284.88235270182287
 30
0.0
 10
20.10609402126736
 20
284.89475504557288
 30
0.0
 10
20.009631347656249
 20
284.89475504557288
 30
0.0
 10
19.833242458767359
 20
284.89475504557288
 30
0.0
 10
19.693027072482636
 20
284.85858154296875
 30
0.0
 10
19.589329698350692
 20
284.78623453776038
 30
0.0
 10
19.485632324218749
 20
284.71405978732639
 30
0.0
 10
19.433955891927081
 20
284.61570231119788
 30
0.0
 10
19.433955891927081
 20
284.49133436414928
 30
0.0
 10
19.433955891927081
 20
284.37351209852426
 30
0.0
 10
19.484943305121526
 20
284.27997775607639
 30
0.0
 10
19.586573621961804
 20
284.21055908203124
 30
0.0
 10
19.688203938802083
 20
284.14114040798609
 30
0.0
 10
19.82462972005208
 20
284.10651719835067
 30
0.0
 10
19.995506456163191
 20
284.10651719835067
 30
0.0
 10
20.144679090711804
 20
284.10651719835067
 30
0.0
 10
20.265601942274305
 20
284.1268432617187
 30
0.0
 10
20.358619520399305
 20
284.16766764322915
 30
0.0
 10
20.451981608072916
 20
284.20849202473954
 30
0.0
 10
20.505725097656249
 20
284.26344129774304
 30
0.0
 10
20.519849989149304
 20
284.33251546223954
 30
0.0
 10
20.519849989149304
 20
284.33251546223954
 30
0.0
 10
19.968634711371525
 20
284.33251546223954
 30
0.0
 10
19.968634711371525
 20
284.33251546223954
 30
0.0
 10
19.968634711371525
 20
284.33251546223954
 30
0.0
 10
19.968634711371525
 20
284.61363525390624
 30
0.0
 10
19.968634711371525
 20
284.61363525390624
 30
0.0
 10
19.968634711371525
 20
284.61363525390624
 30
0.0
 10
21.098626030815971
 20
284.61363525390624
 30
0.0
 10
21.098626030815971
 20
284.61363525390624
 30
0.0
 10
21.098626030815971
 20
284.61363525390624
 30
0.0
 10
21.098626030815971
 20
284.52957492404511
 30
0.0
 10
21.098626030815971
 20
284.52957492404511
 30
0.0
  0
SPLINE
  5
101
100
AcDbEntity
  8
CALQUE_1
 62
     7
100
AcDbSpline
210
0.0
220
0.0
230
1.0
 70
     8
 71
     3
 72
    38
 73
    34
 74
     0
 42
0.00000001
 43
0.00000001
 40
0.0
 40
0.0
 40
0.0
 40
0.0
 40
1.0
 40
1.0
 40
1.0
 40
2.0
 40
2.0
 40
2.0
 40
3.0
 40
3.0
 40
3.0
 40
4.0
 40
4.0
 40
4.0
 40
5.0
 40
5.0
 40
5.0
 40
6.0
 40
6.0
 40
6.0
 40
7.0
 40
7.0
 40
7.0
 40
8.0
 40
8.0
 40
8.0
 40
9.0
 40
9.0
 40
9.0
 40
10.0
 40
10.0
 40
10.0
 40
11.0
 40
11.0
 40
11.0
 40
11.0
 10
23.192555067274302
 20
283.84193386501732
 30
0.0
 10
23.192555067274302
 20
283.84193386501732
 30
0.0
 10
22.514904785156247
 20
283.84193386501732
 30
0.0
 10
22.514904785156247
 20
283.84193386501732
 30
0.0
 10
22.514904785156247
 20
283.84193386501732
 30
0.0
 10
22.007442220052081
 20
284.35456407335067
 30
0.0
 10
22.007442220052081
 20
284.35456407335067
 30
0.0
 10
22.007442220052081
 20
284.35456407335067
 30
0.0
 10
22.007442220052081
 20
283.84193386501732
 30
0.0
 10
22.007442220052081
 20
283.84193386501732
 30
0.0
 10
22.007442220052081
 20
283.84193386501732
 30
0.0
 10
21.434178331163192
 20
283.84193386501732
 30
0.0
 10
21.434178331163192
 20
283.84193386501732
 30
0.0
 10
21.434178331163192
 20
283.84193386501732
 30
0.0
 10
21.434178331163192
 20
285.17036268446179
 30
0.0
 10
21.434178331163192
 20
285.17036268446179
 30
0.0
 10
21.434178331163192
 20
285.17036268446179
 30
0.0
 10
22.107005479600691
 20
285.17036268446179
 30
0.0
 10
22.107005479600691
 20
285.17036268446179
 30
0.0
 10
22.466673448350694
 20
285.17036268446179
 30
0.0
 10
22.718854437934027
 20
285.13642849392357
 30
0.0
 10
22.864237467447914
 20
285.06873236762152
 30
0.0
 10
23.009620496961805
 20
285.00103624131941
 30
0.0
 10
23.082312011718749
 20
284.89406602647568
 30
0.0
 10
23.082312011718749
 20
284.74764946831596
 30
0.0
 10
23.082312011718749
 20
284.64498562282984
 30
0.0
 10
23.040281846788194
 20
284.56126980251736
 30
0.0
 10
22.956566026475691
 20
284.49650200737847
 30
0.0
 10
22.872850206163193
 20
284.43173421223958
 30
0.0
 10
22.751238335503469
 20
284.38884277343749
 30
0.0
 10
22.591385904947913
 20
284.3681722005208
 30
0.0
 10
22.591385904947913
 20
284.3681722005208
 30
0.0
 10
23.192555067274302
 20
283.84193386501732
 30
0.0
 10
23.192555067274302
 20
283.84193386501732
 30
0.0
  0
SPLINE
  5
100
100
AcDbEntity
  8
CALQUE_1
 62
     7
100
AcDbSpline
210
0.0
220
0.0
230
1.0
 70
     8
 71
     3
 72
    26
 73
    22
 74
     0
 42
0.00000001
 43
0.00000001
 40
0.0
 40
0.0
 40
0.0
 40
0.0
 40
1.0
 40
1.0
 40
1.0
 40
2.0
 40
2.0
 40
2.0
 40
3.0
 40
3.0
 40
3.0
 40
4.0
 40
4.0
 40
4.0
 40
5.0
 40
5.0
 40
5.0
 40
6.0
 40
6.0
 40
6.0
 40
7.0
 40
7.0
 40
7.0
 40
7.0
 10
22.486999511718746
 20
284.7032077365451
 30
0.0
 10
22.486999511718746
 20
284.76952582465276
 30
0.0
 10
22.459438747829861
 20
284.81724039713538
 30
0.0
 10
22.403972710503471
 20
284.84600694444441
 30
0.0
 10
22.348506673177081
 20
284.87477349175344
 30
0.0
 10
22.254800075954858
 20
284.8892428927951
 30
0.0
 10
22.123197428385414
 20
284.8892428927951
 30
0.0
 10
22.123197428385414
 20
284.8892428927951
 30
0.0
 10
22.007442220052081
 20
284.8892428927951
 30
0.0
 10
22.007442220052081
 20
284.8892428927951
 30
0.0
 10
22.007442220052081
 20
284.8892428927951
 30
0.0
 10
22.007442220052081
 20
284.53095296223955
 30
0.0
 10
22.007442220052081
 20
284.53095296223955
 30
0.0
 10
22.007442220052081
 20
284.53095296223955
 30
0.0
 10
22.112862141927081
 20
284.53095296223955
 30
0.0
 10
22.112862141927081
 20
284.53095296223955
 30
0.0
 10
22.241019694010415
 20
284.53095296223955
 30
0.0
 10
22.335415310329861
 20
284.54490559895828
 30
0.0
 10
22.396048990885415
 20
284.57298312717012
 30
0.0
 10
22.456682671440969
 20
284.60088840060763
 30
0.0
 10
22.486999511718746
 20
284.64429660373264
 30
0.0
 10
22.486999511718746
 20
284.7032077365451
 30
0.0
  0
SPLINE
  5
FF
100
AcDbEntity
  8
CALQUE_1
 62
     7
100
AcDbSpline
210
0.0
220
0.0
230
1.0
 70
     8
 71
     3
 72
    29
 73
    25
 74
     0
 42
0.00000001
 43
0.00000001
 40
0.0
 40
0.0
 40
0.0
 40
0.0
 40
1.0
 40
1.0
 40
1.0
 40
2.0
 40
2.0
 40
2.0
 40
3.0
 40
3.0
 40
3.0
 40
4.0
 40
4.0
 40
4.0
 40
5.0
 40
5.0
 40
5.0
 40
6.0
 40
6.0
 40
6.0
 40
7.0
 40
7.0
 40
7.0
 40
8.0
 40
8.0
 40
8.0
 40
8.0
 10
25.696105957031246
 20
284.50442572699649
 30
0.0
 10
25.696105957031246
 20
284.30908881293402
 30
0.0
 10
25.581384277343748
 20
284.1451022677951
 30
0.0
 10
25.351940917968747
 20
284.01281060112842
 30
0.0
 10
25.122842068142358
 20
283.8805189344618
 30
0.0
 10
24.838966200086805
 20
283.81437310112847
 30
0.0
 10
24.500657823350693
 20
283.81437310112847
 30
0.0
 10
24.161315917968746
 20
283.81437310112847
 30
0.0
 10
23.876751030815971
 20
283.8805189344618
 30
0.0
 10
23.647652180989581
 20
284.01281060112842
 30
0.0
 10
23.418208821614581
 20
284.1451022677951
 30
0.0
 10
23.303831651475694
 20
284.30908881293402
 30
0.0
 10
23.303831651475694
 20
284.50442572699649
 30
0.0
 10
23.303831651475694
 20
284.69907362196176
 30
0.0
 10
23.418897840711804
 20
284.86340467664928
 30
0.0
 10
23.649030219184027
 20
284.99724663628467
 30
0.0
 10
23.879162597656247
 20
285.13108859592012
 30
0.0
 10
24.163038465711804
 20
285.19792344835065
 30
0.0
 10
24.500657823350693
 20
285.19792344835065
 30
0.0
 10
24.838966200086805
 20
285.19792344835065
 30
0.0
 10
25.122842068142358
 20
285.13108859592012
 30
0.0
 10
25.351940917968747
 20
284.9977634006076
 30
0.0
 10
25.581384277343748
 20
284.86409369574648
 30
0.0
 10
25.696105957031246
 20
284.69976264105901
 30
0.0
 10
25.696105957031246
 20
284.50442572699649
 30
0.0
  0
SPLINE
  5
FE
100
AcDbEntity
  8
CALQUE_1
 62
     7
100
AcDbSpline
210
0.0
220
0.0
230
1.0
 70
     8
 71
     3
 72
    29
 73
    25
 74
     0
 42
0.00000001
 43
0.00000001
 40
0.0
 40
0.0
 40
0.0
 40
0.0
 40
1.0
 40
1.0
 40
1.0
 40
2.0
 40
2.0
 40
2.0
 40
3.0
 40
3.0
 40
3.0
 40
4.0
 40
4.0
 40
4.0
 40
5.0
 40
5.0
 40
5.0
 40
6.0
 40
6.0
 40
6.0
 40
7.0
 40
7.0
 40
7.0
 40
8.0
 40
8.0
 40
8.0
 40
8.0
 10
25.100793457031248
 20
284.50442572699649
 30
0.0
 10
25.100793457031248
 20
284.60571153428816
 30
0.0
 10
25.043949381510416
 20
284.69080539279514
 30
0.0
 10
24.930605740017359
 20
284.75901828342012
 30
0.0
 10
24.817262098524303
 20
284.82757568359375
 30
0.0
 10
24.674290635850692
 20
284.86168212890624
 30
0.0
 10
24.501346842447916
 20
284.86168212890624
 30
0.0
 10
24.324268934461802
 20
284.86168212890624
 30
0.0
 10
24.179919433593749
 20
284.82792019314235
 30
0.0
 10
24.067609320746527
 20
284.76039632161456
 30
0.0
 10
23.955299207899305
 20
284.69287245008678
 30
0.0
 10
23.899144151475692
 20
284.6074340820312
 30
0.0
 10
23.899144151475692
 20
284.50442572699649
 30
0.0
 10
23.899144151475692
 20
284.40296766493054
 30
0.0
 10
23.955643717447913
 20
284.31873508029514
 30
0.0
 10
24.068987358940969
 20
284.25155571831596
 30
0.0
 10
24.182331000434026
 20
284.1842041015625
 30
0.0
 10
24.326335991753471
 20
284.15061442057288
 30
0.0
 10
24.501346842447916
 20
284.15061442057288
 30
0.0
 10
24.675324164496526
 20
284.15061442057288
 30
0.0
 10
24.818640136718749
 20
284.18437635633677
 30
0.0
 10
24.931294759114582
 20
284.25190022786455
 30
0.0
 10
25.044293891059027
 20
284.31942409939234
 30
0.0
 10
25.100793457031248
 20
284.40348442925347
 30
0.0
 10
25.100793457031248
 20
284.50442572699649
 30
0.0
  0
SPLINE
  5
FD
100
AcDbEntity
  8
CALQUE_1
 62
     7
100
AcDbSpline
210
0.0
220
0.0
230
1.0
 70
     8
 71
     3
 72
    47
 73
    43
 74
     0
 42
0.00000001
 43
0.00000001
 40
0.0
 40
0.0
 40
0.0
 40
0.0
 40
1.0
 40
1.0
 40
1.0
 40
2.0
 40
2.0
 40
2.0
 40
3.0
 40
3.0
 40
3.0
 40
4.0
 40
4.0
 40
4.0
 40
5.0
 40
5.0
 40
5.0
 40
6.0
 40
6.0
 40
6.0
 40
7.0
 40
7.0
 40
7.0
 40
8.0
 40
8.0
 40
8.0
 40
9.0
 40
9.0
 40
9.0
 40
10.0
 40
10.0
 40
10.0
 40
11.0
 40
11.0
 40
11.0
 40
12.0
 40
12.0
 40
12.0
 40
13.0
 40
13.0
 40
13.0
 40
14.0
 40
14.0
 40
14.0
 40
14.0
 10
27.885808648003469
 20
284.4544718424479
 30
0.0
 10
27.885808648003469
 20
284.20849202473954
 30
0.0
 10
27.815184190538194
 20
284.04037136501734
 30
0.0
 10
27.673590766059025
 20
283.9499376085069
 30
0.0
 10
27.532341851128471
 20
283.85950385199652
 30
0.0
 10
27.287051052517359
 20
283.81437310112847
 30
0.0
 10
26.938407389322915
 20
283.81437310112847
 30
0.0
 10
26.588730197482636
 20
283.81437310112847
 30
0.0
 10
26.343094889322913
 20
283.85950385199652
 30
0.0
 10
26.201845974392359
 20
283.9499376085069
 30
0.0
 10
26.060252549913191
 20
284.04037136501734
 30
0.0
 10
25.989628092447916
 20
284.20849202473954
 30
0.0
 10
25.989628092447916
 20
284.4544718424479
 30
0.0
 10
25.989628092447916
 20
284.4544718424479
 30
0.0
 10
25.989628092447916
 20
285.17036268446179
 30
0.0
 10
25.989628092447916
 20
285.17036268446179
 30
0.0
 10
25.989628092447916
 20
285.17036268446179
 30
0.0
 10
26.562891981336804
 20
285.17036268446179
 30
0.0
 10
26.562891981336804
 20
285.17036268446179
 30
0.0
 10
26.562891981336804
 20
285.17036268446179
 30
0.0
 10
26.562891981336804
 20
284.45102674696176
 30
0.0
 10
26.562891981336804
 20
284.45102674696176
 30
0.0
 10
26.562891981336804
 20
284.31994086371526
 30
0.0
 10
26.590108235677082
 20
284.23157416449652
 30
0.0
 10
26.644540744357638
 20
284.18609890407981
 30
0.0
 10
26.698973253038194
 20
284.14027913411456
 30
0.0
 10
26.796469455295135
 20
284.11754150390624
 30
0.0
 10
26.937718370225692
 20
284.11754150390624
 30
0.0
 10
27.077933756510415
 20
284.11754150390624
 30
0.0
 10
27.17542995876736
 20
284.14027913411456
 30
0.0
 10
27.230206976996524
 20
284.18609890407981
 30
0.0
 10
27.284983995225691
 20
284.23157416449652
 30
0.0
 10
27.31254475911458
 20
284.31994086371526
 30
0.0
 10
27.31254475911458
 20
284.45102674696176
 30
0.0
 10
27.31254475911458
 20
284.45102674696176
 30
0.0
 10
27.31254475911458
 20
285.17036268446179
 30
0.0
 10
27.31254475911458
 20
285.17036268446179
 30
0.0
 10
27.31254475911458
 20
285.17036268446179
 30
0.0
 10
27.885808648003469
 20
285.17036268446179
 30
0.0
 10
27.885808648003469
 20
285.17036268446179
 30
0.0
 10
27.885808648003469
 20
285.17036268446179
 30
0.0
 10
27.885808648003469
 20
284.4544718424479
 30
0.0
 10
27.885808648003469
 20
284.4544718424479
 30
0.0
  0
SPLINE
  5
FC
100
AcDbEntity
  8
CALQUE_1
 62
     7
100
AcDbSpline
210
0.0
220
0.0
230
1.0
 70
     8
 71
     3
 72
    32
 73
    28
 74
     0
 42
0.00000001
 43
0.00000001
 40
0.0
 40
0.0
 40
0.0
 40
0.0
 40
1.0
 40
1.0
 40
1.0
 40
2.0
 40
2.0
 40
2.0
 40
3.0
 40
3.0
 40
3.0
 40
4.0
 40
4.0
 40
4.0
 40
5.0
 40
5.0
 40
5.0
 40
6.0
 40
6.0
 40
6.0
 40
7.0
 40
7.0
 40
7.0
 40
8.0
 40
8.0
 40
8.0
 40
9.0
 40
9.0
 40
9.0
 40
9.0
 10
29.904290093315968
 20
284.71784939236107
 30
0.0
 10
29.904290093315968
 20
284.5721218532986
 30
0.0
 10
29.823330349392357
 20
284.46239556206592
 30
0.0
 10
29.661410861545136
 20
284.38832600911456
 30
0.0
 10
29.499835883246526
 20
284.31425645616315
 30
0.0
 10
29.260746256510416
 20
284.27739393446177
 30
0.0
 10
28.944831000434025
 20
284.27739393446177
 30
0.0
 10
28.944831000434025
 20
284.27739393446177
 30
0.0
 10
28.851468912760414
 20
284.27739393446177
 30
0.0
 10
28.851468912760414
 20
284.27739393446177
 30
0.0
 10
28.851468912760414
 20
284.27739393446177
 30
0.0
 10
28.851468912760414
 20
283.84193386501732
 30
0.0
 10
28.851468912760414
 20
283.84193386501732
 30
0.0
 10
28.851468912760414
 20
283.84193386501732
 30
0.0
 10
28.278205023871525
 20
283.84193386501732
 30
0.0
 10
28.278205023871525
 20
283.84193386501732
 30
0.0
 10
28.278205023871525
 20
283.84193386501732
 30
0.0
 10
28.278205023871525
 20
285.17036268446179
 30
0.0
 10
28.278205023871525
 20
285.17036268446179
 30
0.0
 10
28.278205023871525
 20
285.17036268446179
 30
0.0
 10
28.918992784288193
 20
285.17036268446179
 30
0.0
 10
28.918992784288193
 20
285.17036268446179
 30
0.0
 10
29.258679199218747
 20
285.17036268446179
 30
0.0
 10
29.508104112413193
 20
285.13315565321176
 30
0.0
 10
29.666578504774304
 20
285.05891384548607
 30
0.0
 10
29.825052897135414
 20
284.98467203776039
 30
0.0
 10
29.904290093315968
 20
284.8709838867187
 30
0.0
 10
29.904290093315968
 20
284.71784939236107
 30
0.0
  0
SPLINE
  5
FB
100
AcDbEntity
  8
CALQUE_1
 62
     7
100
AcDbSpline
210
0.0
220
0.0
230
1.0
 70
     8
 71
     3
 72
    26
 73
    22
 74
     0
 42
0.00000001
 43
0.00000001
 40
0.0
 40
0.0
 40
0.0
 40
0.0
 40
1.0
 40
1.0
 40
1.0
 40
2.0
 40
2.0
 40
2.0
 40
3.0
 40
3.0
 40
3.0
 40
4.0
 40
4.0
 40
4.0
 40
5.0
 40
5.0
 40
5.0
 40
6.0
 40
6.0
 40
6.0
 40
7.0
 40
7.0
 40
7.0
 40
7.0
 10
29.308977593315969
 20
284.72250027126734
 30
0.0
 10
29.308977593315969
 20
284.7807223849826
 30
0.0
 10
29.279694281684026
 20
284.82309705946176
 30
0.0
 10
29.220783148871526
 20
284.84962429470482
 30
0.0
 10
29.161872016059025
 20
284.87597927517356
 30
0.0
 10
29.065064832899303
 20
284.8892428927951
 30
0.0
 10
28.930361599392359
 20
284.8892428927951
 30
0.0
 10
28.930361599392359
 20
284.8892428927951
 30
0.0
 10
28.851468912760414
 20
284.8892428927951
 30
0.0
 10
28.851468912760414
 20
284.8892428927951
 30
0.0
 10
28.851468912760414
 20
284.8892428927951
 30
0.0
 10
28.851468912760414
 20
284.55851372612847
 30
0.0
 10
28.851468912760414
 20
284.55851372612847
 30
0.0
 10
28.851468912760414
 20
284.55851372612847
 30
0.0
 10
28.924504937065969
 20
284.55851372612847
 30
0.0
 10
28.924504937065969
 20
284.55851372612847
 30
0.0
 10
29.064031304253469
 20
284.55851372612847
 30
0.0
 10
29.163250054253471
 20
284.57126057942708
 30
0.0
 10
29.221472167968749
 20
284.5964097764757
 30
0.0
 10
29.279694281684026
 20
284.62190348307291
 30
0.0
 10
29.308977593315969
 20
284.66393364800342
 30
0.0
 10
29.308977593315969
 20
284.72250027126734
 30
0.0
  0
POLYLINE
  5
ED
100
AcDbEntity
  8
CALQUE_1
 62
     7
100
AcDb2dPolyline
 66
     1
 10
0.0
 20
0.0
 30
0.0
 70
     1
  0
VERTEX
  5
EE
100
AcDbEntity
  8
CALQUE_1
 62
     7
100
AcDbVertex
100
AcDb2dVertex
 10
31.45355
 20
283.841934
 30
0.0
  0
VERTEX
  5
EF
100
AcDbEntity
  8
CALQUE_1
 62
     7
100
AcDbVertex
100
AcDb2dVertex
 10
30.191267
 20
283.841934
 30
0.0
  0
VERTEX
  5
F0
100
AcDbEntity
  8
CALQUE_1
 62
     7
100
AcDbVertex
100
AcDb2dVertex
 10
30.191267
 20
285.170363
 30
0.0
  0
VERTEX
  5
F1
100
AcDbEntity
  8
CALQUE_1
 62
     7
100
AcDbVertex
100
AcDb2dVertex
 10
31.45355
 20
285.170363
 30
0.0
  0
VERTEX
  5
F2
100
AcDbEntity
  8
CALQUE_1
 62
     7
100
AcDbVertex
100
AcDb2dVertex
 10
31.45355
 20
284.878219
 30
0.0
  0
VERTEX
  5
F3
100
AcDbEntity
  8
CALQUE_1
 62
     7
100
AcDbVertex
100
AcDb2dVertex
 10
30.76453
 20
284.878219
 30
0.0
  0
VERTEX
  5
F4
100
AcDbEntity
  8
CALQUE_1
 62
     7
100
AcDbVertex
100
AcDb2dVertex
 10
30.76453
 20
284.657732
 30
0.0
  0
VERTEX
  5
F5
100
AcDbEntity
  8
CALQUE_1
 62
     7
100
AcDbVertex
100
AcDb2dVertex
 10
31.425989
 20
284.657732
 30
0.0
  0
VERTEX
  5
F6
100
AcDbEntity
  8
CALQUE_1
 62
     7
100
AcDbVertex
100
AcDb2dVertex
 10
31.425989
 20
284.376613
 30
0.0
  0
VERTEX
  5
F7
100
AcDbEntity
  8
CALQUE_1
 62
     7
100
AcDbVertex
100
AcDb2dVertex
 10
30.76453
 20
284.376613
 30
0.0
  0
VERTEX
  5
F8
100
AcDbEntity
  8
CALQUE_1
 62
     7
100
AcDbVertex
100
AcDb2dVertex
 10
30.76453
 20
284.134078
 30
0.0
  0
VERTEX
  5
F9
100
AcDbEntity
  8
CALQUE_1
 62
     7
100
AcDbVertex
100
AcDb2dVertex
 10
31.45355
 20
284.134078
 30
0.0
  0
SEQEND
  5
FA
100
AcDbEntity
  8
CALQUE_1
 62
     7
  0
POLYLINE
  5
E3
100
AcDbEntity
  8
CALQUE_1
 62
     7
100
AcDb2dPolyline
 66
     1
 10
0.0
 20
0.0
 30
0.0
 70
     1
  0
VERTEX
  5
E4
100
AcDbEntity
  8
CALQUE_1
 62
     7
100
AcDbVertex
100
AcDb2dVertex
 10
21.03248
 20
281.725267
 30
0.0
  0
VERTEX
  5
E5
100
AcDbEntity
  8
CALQUE_1
 62
     7
100
AcDbVertex
100
AcDb2dVertex
 10
20.418564
 20
281.725267
 30
0.0
  0
VERTEX
  5
E6
100
AcDbEntity
  8
CALQUE_1
 62
     7
100
AcDbVertex
100
AcDb2dVertex
 10
20.298675
 20
281.96229
 30
0.0
  0
VERTEX
  5
E7
100
AcDbEntity
  8
CALQUE_1
 62
     7
100
AcDbVertex
100
AcDb2dVertex
 10
19.456349
 20
281.96229
 30
0.0
  0
VERTEX
  5
E8
100
AcDbEntity
  8
CALQUE_1
 62
     7
100
AcDbVertex
100
AcDb2dVertex
 10
19.333704
 20
281.725267
 30
0.0
  0
VERTEX
  5
E9
100
AcDbEntity
  8
CALQUE_1
 62
     7
100
AcDbVertex
100
AcDb2dVertex
 10
18.717376
 20
281.725267
 30
0.0
  0
VERTEX
  5
EA
100
AcDbEntity
  8
CALQUE_1
 62
     7
100
AcDbVertex
100
AcDb2dVertex
 10
19.503547
 20
283.053696
 30
0.0
  0
VERTEX
  5
EB
100
AcDbEntity
  8
CALQUE_1
 62
     7
100
AcDbVertex
100
AcDb2dVertex
 10
20.248721
 20
283.053696
 30
0.0
  0
SEQEND
  5
EC
100
AcDbEntity
  8
CALQUE_1
 62
     7
  0
POLYLINE
  5
DE
100
AcDbEntity
  8
CALQUE_1
 62
     7
100
AcDb2dPolyline
 66
     1
 10
0.0
 20
0.0
 30
0.0
 70
     1
  0
VERTEX
  5
DF
100
AcDbEntity
  8
CALQUE_1
 62
     7
100
AcDbVertex
100
AcDb2dVertex
 10
20.172929
 20
282.215849
 30
0.0
  0
VERTEX
  5
E0
100
AcDbEntity
  8
CALQUE_1
 62
     7
100
AcDbVertex
100
AcDb2dVertex
 10
19.88044
 20
282.780844
 30
0.0
  0
VERTEX
  5
E1
100
AcDbEntity
  8
CALQUE_1
 62
     7
100
AcDbVertex
100
AcDb2dVertex
 10
19.584851
 20
282.215849
 30
0.0
  0
SEQEND
  5
E2
100
AcDbEntity
  8
CALQUE_1
 62
     7
  0
POLYLINE
  5
D8
100
AcDbEntity
  8
CALQUE_1
 62
     7
100
AcDb2dPolyline
 66
     1
 10
0.0
 20
0.0
 30
0.0
 70
     1
  0
VERTEX
  5
D9
100
AcDbEntity
  8
CALQUE_1
 62
     7
100
AcDbVertex
100
AcDb2dVertex
 10
21.780755
 20
281.725267
 30
0.0
  0
VERTEX
  5
DA
100
AcDbEntity
  8
CALQUE_1
 62
     7
100
AcDbVertex
100
AcDb2dVertex
 10
21.207491
 20
281.725267
 30
0.0
  0
VERTEX
  5
DB
100
AcDbEntity
  8
CALQUE_1
 62
     7
100
AcDbVertex
100
AcDb2dVertex
 10
21.207491
 20
283.053696
 30
0.0
  0
VERTEX
  5
DC
100
AcDbEntity
  8
CALQUE_1
 62
     7
100
AcDbVertex
100
AcDb2dVertex
 10
21.780755
 20
283.053696
 30
0.0
  0
SEQEND
  5
DD
100
AcDbEntity
  8
CALQUE_1
 62
     7
  0
SPLINE
  5
D7
100
AcDbEntity
  8
CALQUE_1
 62
     7
100
AcDbSpline
210
0.0
220
0.0
230
1.0
 70
     8
 71
     3
 72
    38
 73
    34
 74
     0
 42
0.00000001
 43
0.00000001
 40
0.0
 40
0.0
 40
0.0
 40
0.0
 40
1.0
 40
1.0
 40
1.0
 40
2.0
 40
2.0
 40
2.0
 40
3.0
 40
3.0
 40
3.0
 40
4.0
 40
4.0
 40
4.0
 40
5.0
 40
5.0
 40
5.0
 40
6.0
 40
6.0
 40
6.0
 40
7.0
 40
7.0
 40
7.0
 40
8.0
 40
8.0
 40
8.0
 40
9.0
 40
9.0
 40
9.0
 40
10.0
 40
10.0
 40
10.0
 40
11.0
 40
11.0
 40
11.0
 40
11.0
 10
23.977347819010415
 20
281.72526719835065
 30
0.0
 10
23.977347819010415
 20
281.72526719835065
 30
0.0
 10
23.29969753689236
 20
281.72526719835065
 30
0.0
 10
23.29969753689236
 20
281.72526719835065
 30
0.0
 10
23.29969753689236
 20
281.72526719835065
 30
0.0
 10
22.792234971788194
 20
282.237897406684
 30
0.0
 10
22.792234971788194
 20
282.237897406684
 30
0.0
 10
22.792234971788194
 20
282.237897406684
 30
0.0
 10
22.792234971788194
 20
281.72526719835065
 30
0.0
 10
22.792234971788194
 20
281.72526719835065
 30
0.0
 10
22.792234971788194
 20
281.72526719835065
 30
0.0
 10
22.218971082899305
 20
281.72526719835065
 30
0.0
 10
22.218971082899305
 20
281.72526719835065
 30
0.0
 10
22.218971082899305
 20
281.72526719835065
 30
0.0
 10
22.218971082899305
 20
283.05369601779512
 30
0.0
 10
22.218971082899305
 20
283.05369601779512
 30
0.0
 10
22.218971082899305
 20
283.05369601779512
 30
0.0
 10
22.891798231336804
 20
283.05369601779512
 30
0.0
 10
22.891798231336804
 20
283.05369601779512
 30
0.0
 10
23.251466200086803
 20
283.05369601779512
 30
0.0
 10
23.503647189670136
 20
283.0197618272569
 30
0.0
 10
23.649030219184027
 20
282.95206570095485
 30
0.0
 10
23.794413248697914
 20
282.88436957465274
 30
0.0
 10
23.867104763454858
 20
282.77739935980901
 30
0.0
 10
23.867104763454858
 20
282.63098280164928
 30
0.0
 10
23.867104763454858
 20
282.52831895616316
 30
0.0
 10
23.825074598524303
 20
282.44460313585068
 30
0.0
 10
23.741358778211804
 20
282.37983534071179
 30
0.0
 10
23.657642957899302
 20
282.3150675455729
 30
0.0
 10
23.536031087239582
 20
282.27217610677081
 30
0.0
 10
23.376178656684026
 20
282.25150553385413
 30
0.0
 10
23.376178656684026
 20
282.25150553385413
 30
0.0
 10
23.977347819010415
 20
281.72526719835065
 30
0.0
 10
23.977347819010415
 20
281.72526719835065
 30
0.0
  0
SPLINE
  5
D6
100
AcDbEntity
  8
CALQUE_1
 62
     7
100
AcDbSpline
210
0.0
220
0.0
230
1.0
 70
     8
 71
     3
 72
    26
 73
    22
 74
     0
 42
0.00000001
 43
0.00000001
 40
0.0
 40
0.0
 40
0.0
 40
0.0
 40
1.0
 40
1.0
 40
1.0
 40
2.0
 40
2.0
 40
2.0
 40
3.0
 40
3.0
 40
3.0
 40
4.0
 40
4.0
 40
4.0
 40
5.0
 40
5.0
 40
5.0
 40
6.0
 40
6.0
 40
6.0
 40
7.0
 40
7.0
 40
7.0
 40
7.0
 10
23.271792263454859
 20
282.58654106987842
 30
0.0
 10
23.271792263454859
 20
282.65285915798609
 30
0.0
 10
23.24423149956597
 20
282.7005737304687
 30
0.0
 10
23.18876546223958
 20
282.72934027777774
 30
0.0
 10
23.133299424913194
 20
282.75810682508677
 30
0.0
 10
23.039592827690971
 20
282.77257622612842
 30
0.0
 10
22.907990180121526
 20
282.77257622612842
 30
0.0
 10
22.907990180121526
 20
282.77257622612842
 30
0.0
 10
22.792234971788194
 20
282.77257622612842
 30
0.0
 10
22.792234971788194
 20
282.77257622612842
 30
0.0
 10
22.792234971788194
 20
282.77257622612842
 30
0.0
 10
22.792234971788194
 20
282.41428629557288
 30
0.0
 10
22.792234971788194
 20
282.41428629557288
 30
0.0
 10
22.792234971788194
 20
282.41428629557288
 30
0.0
 10
22.897654893663191
 20
282.41428629557288
 30
0.0
 10
22.897654893663191
 20
282.41428629557288
 30
0.0
 10
23.025812445746524
 20
282.41428629557288
 30
0.0
 10
23.12020806206597
 20
282.42823893229166
 30
0.0
 10
23.180841742621524
 20
282.45631646050344
 30
0.0
 10
23.241475423177082
 20
282.48422173394096
 30
0.0
 10
23.271792263454859
 20
282.52762993706597
 30
0.0
 10
23.271792263454859
 20
282.58654106987842
 30
0.0
  0
POLYLINE
  5
CA
100
AcDbEntity
  8
CALQUE_1
 62
     7
100
AcDb2dPolyline
 66
     1
 10
0.0
 20
0.0
 30
0.0
 70
     1
  0
VERTEX
  5
CB
100
AcDbEntity
  8
CALQUE_1
 62
     7
100
AcDbVertex
100
AcDb2dVertex
 10
26.502947
 20
282.772576
 30
0.0
  0
VERTEX
  5
CC
100
AcDbEntity
  8
CALQUE_1
 62
     7
100
AcDbVertex
100
AcDb2dVertex
 10
25.79188
 20
282.772576
 30
0.0
  0
VERTEX
  5
CD
100
AcDbEntity
  8
CALQUE_1
 62
     7
100
AcDbVertex
100
AcDb2dVertex
 10
25.79188
 20
282.541066
 30
0.0
  0
VERTEX
  5
CE
100
AcDbEntity
  8
CALQUE_1
 62
     7
100
AcDbVertex
100
AcDb2dVertex
 10
26.45885
 20
282.541066
 30
0.0
  0
VERTEX
  5
CF
100
AcDbEntity
  8
CALQUE_1
 62
     7
100
AcDbVertex
100
AcDb2dVertex
 10
26.45885
 20
282.259946
 30
0.0
  0
VERTEX
  5
D0
100
AcDbEntity
  8
CALQUE_1
 62
     7
100
AcDbVertex
100
AcDb2dVertex
 10
25.79188
 20
282.259946
 30
0.0
  0
VERTEX
  5
D1
100
AcDbEntity
  8
CALQUE_1
 62
     7
100
AcDbVertex
100
AcDb2dVertex
 10
25.79188
 20
281.725267
 30
0.0
  0
VERTEX
  5
D2
100
AcDbEntity
  8
CALQUE_1
 62
     7
100
AcDbVertex
100
AcDb2dVertex
 10
25.218616
 20
281.725267
 30
0.0
  0
VERTEX
  5
D3
100
AcDbEntity
  8
CALQUE_1
 62
     7
100
AcDbVertex
100
AcDb2dVertex
 10
25.218616
 20
283.053696
 30
0.0
  0
VERTEX
  5
D4
100
AcDbEntity
  8
CALQUE_1
 62
     7
100
AcDbVertex
100
AcDb2dVertex
 10
26.502947
 20
283.053696
 30
0.0
  0
SEQEND
  5
D5
100
AcDbEntity
  8
CALQUE_1
 62
     7
  0
SPLINE
  5
C9
100
AcDbEntity
  8
CALQUE_1
 62
     7
100
AcDbSpline
210
0.0
220
0.0
230
1.0
 70
     8
 71
     3
 72
    38
 73
    34
 74
     0
 42
0.00000001
 43
0.00000001
 40
0.0
 40
0.0
 40
0.0
 40
0.0
 40
1.0
 40
1.0
 40
1.0
 40
2.0
 40
2.0
 40
2.0
 40
3.0
 40
3.0
 40
3.0
 40
4.0
 40
4.0
 40
4.0
 40
5.0
 40
5.0
 40
5.0
 40
6.0
 40
6.0
 40
6.0
 40
7.0
 40
7.0
 40
7.0
 40
8.0
 40
8.0
 40
8.0
 40
9.0
 40
9.0
 40
9.0
 40
10.0
 40
10.0
 40
10.0
 40
11.0
 40
11.0
 40
11.0
 40
11.0
 10
28.564147949218746
 20
281.72526719835065
 30
0.0
 10
28.564147949218746
 20
281.72526719835065
 30
0.0
 10
27.88615315755208
 20
281.72526719835065
 30
0.0
 10
27.88615315755208
 20
281.72526719835065
 30
0.0
 10
27.88615315755208
 20
281.72526719835065
 30
0.0
 10
27.379035101996525
 20
282.237897406684
 30
0.0
 10
27.379035101996525
 20
282.237897406684
 30
0.0
 10
27.379035101996525
 20
282.237897406684
 30
0.0
 10
27.379035101996525
 20
281.72526719835065
 30
0.0
 10
27.379035101996525
 20
281.72526719835065
 30
0.0
 10
27.379035101996525
 20
281.72526719835065
 30
0.0
 10
26.805771213107636
 20
281.72526719835065
 30
0.0
 10
26.805771213107636
 20
281.72526719835065
 30
0.0
 10
26.805771213107636
 20
281.72526719835065
 30
0.0
 10
26.805771213107636
 20
283.05369601779512
 30
0.0
 10
26.805771213107636
 20
283.05369601779512
 30
0.0
 10
26.805771213107636
 20
283.05369601779512
 30
0.0
 10
27.478598361545135
 20
283.05369601779512
 30
0.0
 10
27.478598361545135
 20
283.05369601779512
 30
0.0
 10
27.837921820746526
 20
283.05369601779512
 30
0.0
 10
28.090447319878471
 20
283.0197618272569
 30
0.0
 10
28.235830349392359
 20
282.95206570095485
 30
0.0
 10
28.381213378906246
 20
282.88436957465274
 30
0.0
 10
28.453904893663193
 20
282.77739935980901
 30
0.0
 10
28.453904893663193
 20
282.63098280164928
 30
0.0
 10
28.453904893663193
 20
282.52831895616316
 30
0.0
 10
28.411874728732638
 20
282.44460313585068
 30
0.0
 10
28.328158908420136
 20
282.37983534071179
 30
0.0
 10
28.244443088107637
 20
282.3150675455729
 30
0.0
 10
28.122486707899302
 20
282.27217610677081
 30
0.0
 10
27.962634277343746
 20
282.25150553385413
 30
0.0
 10
27.962634277343746
 20
282.25150553385413
 30
0.0
 10
28.564147949218746
 20
281.72526719835065
 30
0.0
 10
28.564147949218746
 20
281.72526719835065
 30
0.0
  0
SPLINE
  5
C8
100
AcDbEntity
  8
CALQUE_1
 62
     7
100
AcDbSpline
210
0.0
220
0.0
230
1.0
 70
     8
 71
     3
 72
    26
 73
    22
 74
     0
 42
0.00000001
 43
0.00000001
 40
0.0
 40
0.0
 40
0.0
 40
0.0
 40
1.0
 40
1.0
 40
1.0
 40
2.0
 40
2.0
 40
2.0
 40
3.0
 40
3.0
 40
3.0
 40
4.0
 40
4.0
 40
4.0
 40
5.0
 40
5.0
 40
5.0
 40
6.0
 40
6.0
 40
6.0
 40
7.0
 40
7.0
 40
7.0
 40
7.0
 10
27.858592393663191
 20
282.58654106987842
 30
0.0
 10
27.858592393663191
 20
282.65285915798609
 30
0.0
 10
27.830687120225694
 20
282.7005737304687
 30
0.0
 10
27.775221082899304
 20
282.72934027777774
 30
0.0
 10
27.720099555121525
 20
282.75810682508677
 30
0.0
 10
27.626392957899302
 20
282.77257622612842
 30
0.0
 10
27.494445800781246
 20
282.77257622612842
 30
0.0
 10
27.494445800781246
 20
282.77257622612842
 30
0.0
 10
27.379035101996525
 20
282.77257622612842
 30
0.0
 10
27.379035101996525
 20
282.77257622612842
 30
0.0
 10
27.379035101996525
 20
282.77257622612842
 30
0.0
 10
27.379035101996525
 20
282.41428629557288
 30
0.0
 10
27.379035101996525
 20
282.41428629557288
 30
0.0
 10
27.379035101996525
 20
282.41428629557288
 30
0.0
 10
27.484455023871526
 20
282.41428629557288
 30
0.0
 10
27.484455023871526
 20
282.41428629557288
 30
0.0
 10
27.612268066406248
 20
282.41428629557288
 30
0.0
 10
27.706663682725694
 20
282.42823893229166
 30
0.0
 10
27.767297363281248
 20
282.45631646050344
 30
0.0
 10
27.827931043836802
 20
282.48422173394096
 30
0.0
 10
27.858592393663191
 20
282.52762993706597
 30
0.0
 10
27.858592393663191
 20
282.58654106987842
 30
0.0
  0
POLYLINE
  5
BE
100
AcDbEntity
  8
CALQUE_1
 62
     7
100
AcDb2dPolyline
 66
     1
 10
0.0
 20
0.0
 30
0.0
 70
     1
  0
VERTEX
  5
BF
100
AcDbEntity
  8
CALQUE_1
 62
     7
100
AcDbVertex
100
AcDb2dVertex
 10
30.940575
 20
281.725267
 30
0.0
  0
VERTEX
  5
C0
100
AcDbEntity
  8
CALQUE_1
 62
     7
100
AcDbVertex
100
AcDb2dVertex
 10
30.326659
 20
281.725267
 30
0.0
  0
VERTEX
  5
C1
100
AcDbEntity
  8
CALQUE_1
 62
     7
100
AcDbVertex
100
AcDb2dVertex
 10
30.206769
 20
281.96229
 30
0.0
  0
VERTEX
  5
C2
100
AcDbEntity
  8
CALQUE_1
 62
     7
100
AcDbVertex
100
AcDb2dVertex
 10
29.364444
 20
281.96229
 30
0.0
  0
VERTEX
  5
C3
100
AcDbEntity
  8
CALQUE_1
 62
     7
100
AcDbVertex
100
AcDb2dVertex
 10
29.241454
 20
281.725267
 30
0.0
  0
VERTEX
  5
C4
100
AcDbEntity
  8
CALQUE_1
 62
     7
100
AcDbVertex
100
AcDb2dVertex
 10
28.625471
 20
281.725267
 30
0.0
  0
VERTEX
  5
C5
100
AcDbEntity
  8
CALQUE_1
 62
     7
100
AcDbVertex
100
AcDb2dVertex
 10
29.411297
 20
283.053696
 30
0.0
  0
VERTEX
  5
C6
100
AcDbEntity
  8
CALQUE_1
 62
     7
100
AcDbVertex
100
AcDb2dVertex
 10
30.156816
 20
283.053696
 30
0.0
  0
SEQEND
  5
C7
100
AcDbEntity
  8
CALQUE_1
 62
     7
  0
POLYLINE
  5
B9
100
AcDbEntity
  8
CALQUE_1
 62
     7
100
AcDb2dPolyline
 66
     1
 10
0.0
 20
0.0
 30
0.0
 70
     1
  0
VERTEX
  5
BA
100
AcDbEntity
  8
CALQUE_1
 62
     7
100
AcDbVertex
100
AcDb2dVertex
 10
30.081023
 20
282.215849
 30
0.0
  0
VERTEX
  5
BB
100
AcDbEntity
  8
CALQUE_1
 62
     7
100
AcDbVertex
100
AcDb2dVertex
 10
29.78819
 20
282.780844
 30
0.0
  0
VERTEX
  5
BC
100
AcDbEntity
  8
CALQUE_1
 62
     7
100
AcDbVertex
100
AcDb2dVertex
 10
29.492946
 20
282.215849
 30
0.0
  0
SEQEND
  5
BD
100
AcDbEntity
  8
CALQUE_1
 62
     7
  0
POLYLINE
  5
AD
100
AcDbEntity
  8
CALQUE_1
 62
     7
100
AcDb2dPolyline
 66
     1
 10
0.0
 20
0.0
 30
0.0
 70
     1
  0
VERTEX
  5
AE
100
AcDbEntity
  8
CALQUE_1
 62
     7
100
AcDbVertex
100
AcDb2dVertex
 10
33.303566
 20
281.725267
 30
0.0
  0
VERTEX
  5
AF
100
AcDbEntity
  8
CALQUE_1
 62
     7
100
AcDbVertex
100
AcDb2dVertex
 10
32.730302
 20
281.725267
 30
0.0
  0
VERTEX
  5
B0
100
AcDbEntity
  8
CALQUE_1
 62
     7
100
AcDbVertex
100
AcDb2dVertex
 10
31.705042
 20
282.549506
 30
0.0
  0
VERTEX
  5
B1
100
AcDbEntity
  8
CALQUE_1
 62
     7
100
AcDbVertex
100
AcDb2dVertex
 10
31.705042
 20
281.725267
 30
0.0
  0
VERTEX
  5
B2
100
AcDbEntity
  8
CALQUE_1
 62
     7
100
AcDbVertex
100
AcDb2dVertex
 10
31.131778
 20
281.725267
 30
0.0
  0
VERTEX
  5
B3
100
AcDbEntity
  8
CALQUE_1
 62
     7
100
AcDbVertex
100
AcDb2dVertex
 10
31.131778
 20
283.053696
 30
0.0
  0
VERTEX
  5
B4
100
AcDbEntity
  8
CALQUE_1
 62
     7
100
AcDbVertex
100
AcDb2dVertex
 10
31.709865
 20
283.053696
 30
0.0
  0
VERTEX
  5
B5
100
AcDbEntity
  8
CALQUE_1
 62
     7
100
AcDbVertex
100
AcDb2dVertex
 10
32.730302
 20
282.227734
 30
0.0
  0
VERTEX
  5
B6
100
AcDbEntity
  8
CALQUE_1
 62
     7
100
AcDbVertex
100
AcDb2dVertex
 10
32.730302
 20
283.053696
 30
0.0
  0
VERTEX
  5
B7
100
AcDbEntity
  8
CALQUE_1
 62
     7
100
AcDbVertex
100
AcDb2dVertex
 10
33.303566
 20
283.053696
 30
0.0
  0
SEQEND
  5
B8
100
AcDbEntity
  8
CALQUE_1
 62
     7
  0
SPLINE
  5
AC
100
AcDbEntity
  8
CALQUE_1
 62
     7
100
AcDbSpline
210
0.0
220
0.0
230
1.0
 70
     8
 71
     3
 72
    59
 73
    55
 74
     0
 42
0.00000001
 43
0.00000001
 40
0.0
 40
0.0
 40
0.0
 40
0.0
 40
1.0
 40
1.0
 40
1.0
 40
2.0
 40
2.0
 40
2.0
 40
3.0
 40
3.0
 40
3.0
 40
4.0
 40
4.0
 40
4.0
 40
5.0
 40
5.0
 40
5.0
 40
6.0
 40
6.0
 40
6.0
 40
7.0
 40
7.0
 40
7.0
 40
8.0
 40
8.0
 40
8.0
 40
9.0
 40
9.0
 40
9.0
 40
10.0
 40
10.0
 40
10.0
 40
11.0
 40
11.0
 40
11.0
 40
12.0
 40
12.0
 40
12.0
 40
13.0
 40
13.0
 40
13.0
 40
14.0
 40
14.0
 40
14.0
 40
15.0
 40
15.0
 40
15.0
 40
16.0
 40
16.0
 40
16.0
 40
17.0
 40
17.0
 40
17.0
 40
18.0
 40
18.0
 40
18.0
 40
18.0
 10
35.35201958550347
 20
281.78073323567708
 30
0.0
 10
35.281395128038191
 20
281.75351698133676
 30
0.0
 10
35.196301269531247
 20
281.7330186631944
 30
0.0
 10
35.096393500434026
 20
281.71889377170135
 30
0.0
 10
34.996830240885416
 20
281.70476888020829
 30
0.0
 10
34.886242675781247
 20
281.69770643446179
 30
0.0
 10
34.76531982421875
 20
281.69770643446179
 30
0.0
 10
34.440791829427077
 20
281.69770643446179
 30
0.0
 10
34.171729871961801
 20
281.76299099392361
 30
0.0
 10
33.958133951822916
 20
281.89373236762151
 30
0.0
 10
33.744538031684023
 20
282.02430148654514
 30
0.0
 10
33.63774007161458
 20
282.1889770507812
 30
0.0
 10
33.63774007161458
 20
282.38775906032981
 30
0.0
 10
33.63774007161458
 20
282.58654106987842
 30
0.0
 10
33.744538031684023
 20
282.75190565321179
 30
0.0
 10
33.958822970920139
 20
282.88350830078122
 30
0.0
 10
34.173107910156247
 20
283.01545545789929
 30
0.0
 10
34.441825358072911
 20
283.08125678168398
 30
0.0
 10
34.76531982421875
 20
283.08125678168398
 30
0.0
 10
34.88934326171875
 20
283.08125678168398
 30
0.0
 10
35.000275336371523
 20
283.0743665907118
 30
0.0
 10
35.098460557725694
 20
283.06058620876735
 30
0.0
 10
35.19699028862847
 20
283.04680582682289
 30
0.0
 10
35.281395128038191
 20
283.02596299913193
 30
0.0
 10
35.35201958550347
 20
282.99822998046875
 30
0.0
 10
35.35201958550347
 20
282.99822998046875
 30
0.0
 10
35.35201958550347
 20
282.60721164279511
 30
0.0
 10
35.35201958550347
 20
282.60721164279511
 30
0.0
 10
35.28518473307291
 20
282.65096435546872
 30
0.0
 10
35.205603027343749
 20
282.68472629123261
 30
0.0
 10
35.113274468315971
 20
282.70884195963538
 30
0.0
 10
35.021290418836806
 20
282.73295762803815
 30
0.0
 10
34.925516764322914
 20
282.74501546223956
 30
0.0
 10
34.825953504774304
 20
282.74501546223956
 30
0.0
 10
34.649220106336806
 20
282.74501546223956
 30
0.0
 10
34.506248643663191
 20
282.71159803602427
 30
0.0
 10
34.397039116753469
 20
282.64459092881941
 30
0.0
 10
34.287485080295134
 20
282.57758382161455
 30
0.0
 10
34.233052571614579
 20
282.48973388671874
 30
0.0
 10
34.233052571614579
 20
282.38086886935764
 30
0.0
 10
34.233052571614579
 20
282.27958306206597
 30
0.0
 10
34.288174099392357
 20
282.19621175130203
 30
0.0
 10
34.399106174045137
 20
282.1314439561632
 30
0.0
 10
34.509693739149306
 20
282.06633165147565
 30
0.0
 10
34.652320692274301
 20
282.0339477539062
 30
0.0
 10
34.825953504774304
 20
282.0339477539062
 30
0.0
 10
34.922416178385411
 20
282.0339477539062
 30
0.0
 10
35.017845323350691
 20
282.04600558810762
 30
0.0
 10
35.111896430121526
 20
282.07046576605899
 30
0.0
 10
35.20594753689236
 20
282.09492594401041
 30
0.0
 10
35.285873752170133
 20
282.1286878797743
 30
0.0
 10
35.35201958550347
 20
282.17175157335066
 30
0.0
 10
35.35201958550347
 20
282.17175157335066
 30
0.0
 10
35.35201958550347
 20
281.78073323567708
 30
0.0
 10
35.35201958550347
 20
281.78073323567708
 30
0.0
  0
POLYLINE
  5
9E
100
AcDbEntity
  8
CALQUE_1
 62
     7
100
AcDb2dPolyline
 66
     1
 10
0.0
 20
0.0
 30
0.0
 70
     1
  0
VERTEX
  5
9F
100
AcDbEntity
  8
CALQUE_1
 62
     7
100
AcDbVertex
100
AcDb2dVertex
 10
36.932285
 20
281.725267
 30
0.0
  0
VERTEX
  5
A0
100
AcDbEntity
  8
CALQUE_1
 62
     7
100
AcDbVertex
100
AcDb2dVertex
 10
35.670002
 20
281.725267
 30
0.0
  0
VERTEX
  5
A1
100
AcDbEntity
  8
CALQUE_1
 62
     7
100
AcDbVertex
100
AcDb2dVertex
 10
35.670002
 20
283.053696
 30
0.0
  0
VERTEX
  5
A2
100
AcDbEntity
  8
CALQUE_1
 62
     7
100
AcDbVertex
100
AcDb2dVertex
 10
36.932285
 20
283.053696
 30
0.0
  0
VERTEX
  5
A3
100
AcDbEntity
  8
CALQUE_1
 62
     7
100
AcDbVertex
100
AcDb2dVertex
 10
36.932285
 20
282.761552
 30
0.0
  0
VERTEX
  5
A4
100
AcDbEntity
  8
CALQUE_1
 62
     7
100
AcDbVertex
100
AcDb2dVertex
 10
36.243266
 20
282.761552
 30
0.0
  0
VERTEX
  5
A5
100
AcDbEntity
  8
CALQUE_1
 62
     7
100
AcDbVertex
100
AcDb2dVertex
 10
36.243266
 20
282.541066
 30
0.0
  0
VERTEX
  5
A6
100
AcDbEntity
  8
CALQUE_1
 62
     7
100
AcDbVertex
100
AcDb2dVertex
 10
36.904724
 20
282.541066
 30
0.0
  0
VERTEX
  5
A7
100
AcDbEntity
  8
CALQUE_1
 62
     7
100
AcDbVertex
100
AcDb2dVertex
 10
36.904724
 20
282.259946
 30
0.0
  0
VERTEX
  5
A8
100
AcDbEntity
  8
CALQUE_1
 62
     7
100
AcDbVertex
100
AcDb2dVertex
 10
36.243266
 20
282.259946
 30
0.0
  0
VERTEX
  5
A9
100
AcDbEntity
  8
CALQUE_1
 62
     7
100
AcDbVertex
100
AcDb2dVertex
 10
36.243266
 20
282.017411
 30
0.0
  0
VERTEX
  5
AA
100
AcDbEntity
  8
CALQUE_1
 62
     7
100
AcDbVertex
100
AcDb2dVertex
 10
36.932285
 20
282.017411
 30
0.0
  0
SEQEND
  5
AB
100
AcDbEntity
  8
CALQUE_1
 62
     7
  0
SPLINE
  5
9D
100
AcDbEntity
  8
CALQUE_1
 62
     7
100
AcDbSpline
210
0.0
220
0.0
230
1.0
 70
     8
 71
     3
 72
    17
 73
    13
 74
     0
 42
0.00000001
 43
0.00000001
 40
0.0
 40
0.0
 40
0.0
 40
0.0
 40
1.0
 40
1.0
 40
1.0
 40
2.0
 40
2.0
 40
2.0
 40
3.0
 40
3.0
 40
3.0
 40
4.0
 40
4.0
 40
4.0
 40
4.0
 10
15.998162163628471
 20
275.71943223741317
 30
0.0
 10
15.998162163628471
 20
275.71943223741317
 30
0.0
 10
15.174439832899305
 20
276.37400037977426
 30
0.0
 10
15.174439832899305
 20
276.95053710937498
 30
0.0
 10
15.174439832899305
 20
277.5270738389757
 30
0.0
 10
15.174439832899305
 20
279.86405436197913
 30
0.0
 10
15.174439832899305
 20
279.86405436197913
 30
0.0
 10
15.174439832899305
 20
279.86405436197913
 30
0.0
 10
15.627469889322915
 20
279.92589382595486
 30
0.0
 10
15.998162163628471
 20
279.79187961154514
 30
0.0
 10
15.998162163628471
 20
279.79187961154514
 30
0.0
 10
15.998162163628471
 20
275.71943223741317
 30
0.0
 10
15.998162163628471
 20
275.71943223741317
 30
0.0
  0
SPLINE
  5
9C
100
AcDbEntity
  8
CALQUE_1
 62
     7
100
AcDbSpline
210
0.0
220
0.0
230
1.0
 70
     8
 71
     3
 72
    29
 73
    25
 74
     0
 42
0.00000001
 43
0.00000001
 40
0.0
 40
0.0
 40
0.0
 40
0.0
 40
1.0
 40
1.0
 40
1.0
 40
2.0
 40
2.0
 40
2.0
 40
3.0
 40
3.0
 40
3.0
 40
4.0
 40
4.0
 40
4.0
 40
5.0
 40
5.0
 40
5.0
 40
6.0
 40
6.0
 40
6.0
 40
7.0
 40
7.0
 40
7.0
 40
8.0
 40
8.0
 40
8.0
 40
8.0
 10
15.12345241970486
 20
276.47321912977429
 30
0.0
 10
15.014587402343748
 20
276.54005398220482
 30
0.0
 10
14.941551378038193
 20
276.66028781467014
 30
0.0
 10
14.941551378038193
 20
276.79740261501735
 30
0.0
 10
14.941551378038193
 20
276.87233344184023
 30
0.0
 10
14.963599989149305
 20
276.94209662543398
 30
0.0
 10
15.001151529947915
 20
277.00100775824649
 30
0.0
 10
15.001151529947915
 20
277.00100775824649
 30
0.0
 10
15.001151529947915
 20
277.53947618272565
 30
0.0
 10
15.001151529947915
 20
277.53947618272565
 30
0.0
 10
14.714175075954859
 20
277.41493598090273
 30
0.0
 10
14.512981499565971
 20
277.12933756510415
 30
0.0
 10
14.512981499565971
 20
276.79740261501735
 30
0.0
 10
14.512981499565971
 20
276.63513861762152
 30
0.0
 10
14.561557345920138
 20
276.48441569010413
 30
0.0
 10
14.643895128038194
 20
276.35780843098956
 30
0.0
 10
14.643895128038194
 20
276.35780843098956
 30
0.0
 10
15.344283040364582
 20
275.98969997829857
 30
0.0
 10
15.344283040364582
 20
275.98969997829857
 30
0.0
 10
15.371843804253471
 20
275.9905612521701
 30
0.0
 10
15.399060058593749
 20
275.99262830946179
 30
0.0
 10
15.425931803385415
 20
275.99624565972221
 30
0.0
 10
15.313966200086805
 20
276.13938937717012
 30
0.0
 10
15.203723144531249
 20
276.30303141276039
 30
0.0
 10
15.12345241970486
 20
276.47321912977429
 30
0.0
  0
SPLINE
  5
9B
100
AcDbEntity
  8
CALQUE_1
 62
     7
100
AcDbSpline
210
0.0
220
0.0
230
1.0
 70
     8
 71
     3
 72
    14
 73
    10
 74
     0
 42
0.00000001
 43
0.00000001
 40
0.0
 40
0.0
 40
0.0
 40
0.0
 40
1.0
 40
1.0
 40
1.0
 40
2.0
 40
2.0
 40
2.0
 40
3.0
 40
3.0
 40
3.0
 40
3.0
 10
15.488632541232638
 20
275.91390787760412
 30
0.0
 10
15.488632541232638
 20
275.91390787760412
 30
0.0
 10
15.494833713107637
 20
275.91080729166663
 30
0.0
 10
15.494833713107637
 20
275.91080729166663
 30
0.0
 10
15.493455674913193
 20
275.9120130750868
 30
0.0
 10
15.49242214626736
 20
275.91339111328125
 30
0.0
 10
15.491388617621526
 20
275.91459689670137
 30
0.0
 10
15.490699598524305
 20
275.91442464192704
 30
0.0
 10
15.489666069878471
 20
275.91425238715277
 30
0.0
 10
15.488632541232638
 20
275.91390787760412
 30
0.0
  0
SPLINE
  5
9A
100
AcDbEntity
  8
CALQUE_1
 62
     7
100
AcDbSpline
210
0.0
220
0.0
230
1.0
 70
     8
 71
     3
 72
    23
 73
    19
 74
     0
 42
0.00000001
 43
0.00000001
 40
0.0
 40
0.0
 40
0.0
 40
0.0
 40
1.0
 40
1.0
 40
1.0
 40
2.0
 40
2.0
 40
2.0
 40
3.0
 40
3.0
 40
3.0
 40
4.0
 40
4.0
 40
4.0
 40
5.0
 40
5.0
 40
5.0
 40
6.0
 40
6.0
 40
6.0
 40
6.0
 10
13.994150119357638
 20
276.79740261501735
 30
0.0
 10
13.994150119357638
 20
276.76364067925346
 30
0.0
 10
13.995872667100693
 20
276.73022325303816
 30
0.0
 10
13.998284233940971
 20
276.69715033637152
 30
0.0
 10
13.998284233940971
 20
276.69715033637152
 30
0.0
 10
14.499890136718749
 20
276.43342827690969
 30
0.0
 10
14.499890136718749
 20
276.43342827690969
 30
0.0
 10
14.450280761718748
 20
276.54487711588541
 30
0.0
 10
14.422375488281249
 20
276.66769476996524
 30
0.0
 10
14.422375488281249
 20
276.79740261501735
 30
0.0
 10
14.422375488281249
 20
277.18015272352426
 30
0.0
 10
14.663187662760416
 20
277.5070922851562
 30
0.0
 10
15.001151529947915
 20
277.63662787543399
 30
0.0
 10
15.001151529947915
 20
277.63662787543399
 30
0.0
 10
15.001151529947915
 20
278.08569607204856
 30
0.0
 10
15.001151529947915
 20
278.08569607204856
 30
0.0
 10
14.423409016927081
 20
277.94186333550346
 30
0.0
 10
13.994150119357638
 20
277.41889784071179
 30
0.0
 10
13.994150119357638
 20
276.79740261501735
 30
0.0
  0
SPLINE
  5
99
100
AcDbEntity
  8
CALQUE_1
 62
     7
100
AcDbSpline
210
0.0
220
0.0
230
1.0
 70
     8
 71
     3
 72
    20
 73
    16
 74
     0
 42
0.00000001
 43
0.00000001
 40
0.0
 40
0.0
 40
0.0
 40
0.0
 40
1.0
 40
1.0
 40
1.0
 40
2.0
 40
2.0
 40
2.0
 40
3.0
 40
3.0
 40
3.0
 40
4.0
 40
4.0
 40
4.0
 40
5.0
 40
5.0
 40
5.0
 40
5.0
 10
13.462227376302081
 20
276.97895914713541
 30
0.0
 10
13.462227376302081
 20
276.97895914713541
 30
0.0
 10
13.879772949218749
 20
276.75933430989579
 30
0.0
 10
13.879772949218749
 20
276.75933430989579
 30
0.0
 10
13.879772949218749
 20
276.76519097222217
 30
0.0
 10
13.879428439670138
 20
276.77104763454861
 30
0.0
 10
13.879428439670138
 20
276.77673204210066
 30
0.0
 10
13.879428439670138
 20
277.46609564887149
 30
0.0
 10
14.358641221788194
 20
278.0450439453125
 30
0.0
 10
15.001151529947915
 20
278.19938422309025
 30
0.0
 10
15.001151529947915
 20
278.19938422309025
 30
0.0
 10
15.001151529947915
 20
278.63708360460066
 30
0.0
 10
15.001151529947915
 20
278.63708360460066
 30
0.0
 10
14.185352918836804
 20
278.48756646050344
 30
0.0
 10
13.55111083984375
 20
277.81370578342012
 30
0.0
 10
13.462227376302081
 20
276.97895914713541
 30
0.0
  0
SPLINE
  5
98
100
AcDbEntity
  8
CALQUE_1
 62
     7
100
AcDbSpline
210
0.0
220
0.0
230
1.0
 70
     8
 71
     3
 72
    17
 73
    13
 74
     0
 42
0.00000001
 43
0.00000001
 40
0.0
 40
0.0
 40
0.0
 40
0.0
 40
1.0
 40
1.0
 40
1.0
 40
2.0
 40
2.0
 40
2.0
 40
3.0
 40
3.0
 40
3.0
 40
4.0
 40
4.0
 40
4.0
 40
4.0
 10
12.962688530815971
 20
277.24130316840274
 30
0.0
 10
12.962688530815971
 20
277.24130316840274
 30
0.0
 10
13.36507568359375
 20
277.02977430555552
 30
0.0
 10
13.36507568359375
 20
277.02977430555552
 30
0.0
 10
13.452236599392361
 20
277.90913492838541
 30
0.0
 10
14.134020996093749
 20
278.61641303168398
 30
0.0
 10
15.001151529947915
 20
278.74319254557287
 30
0.0
 10
15.001151529947915
 20
278.74319254557287
 30
0.0
 10
15.001151529947915
 20
279.1746907552083
 30
0.0
 10
15.001151529947915
 20
279.1746907552083
 30
0.0
 10
13.967967393663193
 20
279.05187310112842
 30
0.0
 10
13.138388400607639
 20
278.25743408203124
 30
0.0
 10
12.962688530815971
 20
277.24130316840274
 30
0.0
  0
SPLINE
  5
97
100
AcDbEntity
  8
CALQUE_1
 62
     7
100
AcDbSpline
210
0.0
220
0.0
230
1.0
 70
     8
 71
     3
 72
    17
 73
    13
 74
     0
 42
0.00000001
 43
0.00000001
 40
0.0
 40
0.0
 40
0.0
 40
0.0
 40
1.0
 40
1.0
 40
1.0
 40
2.0
 40
2.0
 40
2.0
 40
3.0
 40
3.0
 40
3.0
 40
4.0
 40
4.0
 40
4.0
 40
4.0
 10
12.448680284288193
 20
277.51122639973954
 30
0.0
 10
12.448680284288193
 20
277.51122639973954
 30
0.0
 10
12.847622341579861
 20
277.30142008463537
 30
0.0
 10
12.847622341579861
 20
277.30142008463537
 30
0.0
 10
12.997828504774304
 20
278.38145751953124
 30
0.0
 10
13.896309407552081
 20
279.22516140407981
 30
0.0
 10
15.001151529947915
 20
279.28941243489578
 30
0.0
 10
15.001151529947915
 20
279.28941243489578
 30
0.0
 10
15.001151529947915
 20
279.71849907769092
 30
0.0
 10
15.001151529947915
 20
279.71849907769092
 30
0.0
 10
13.731978352864582
 20
279.65631510416665
 30
0.0
 10
12.687425401475693
 20
278.72665608723958
 30
0.0
 10
12.448680284288193
 20
277.51122639973954
 30
0.0
  0
SPLINE
  5
96
100
AcDbEntity
  8
CALQUE_1
 62
     7
100
AcDbSpline
210
0.0
220
0.0
230
1.0
 70
     8
 71
     3
 72
    71
 73
    67
 74
     0
 42
0.00000001
 43
0.00000001
 40
0.0
 40
0.0
 40
0.0
 40
0.0
 40
1.0
 40
1.0
 40
1.0
 40
2.0
 40
2.0
 40
2.0
 40
3.0
 40
3.0
 40
3.0
 40
4.0
 40
4.0
 40
4.0
 40
5.0
 40
5.0
 40
5.0
 40
6.0
 40
6.0
 40
6.0
 40
7.0
 40
7.0
 40
7.0
 40
8.0
 40
8.0
 40
8.0
 40
9.0
 40
9.0
 40
9.0
 40
10.0
 40
10.0
 40
10.0
 40
11.0
 40
11.0
 40
11.0
 40
12.0
 40
12.0
 40
12.0
 40
13.0
 40
13.0
 40
13.0
 40
14.0
 40
14.0
 40
14.0
 40
15.0
 40
15.0
 40
15.0
 40
16.0
 40
16.0
 40
16.0
 40
17.0
 40
17.0
 40
17.0
 40
18.0
 40
18.0
 40
18.0
 40
19.0
 40
19.0
 40
19.0
 40
20.0
 40
20.0
 40
20.0
 40
21.0
 40
21.0
 40
21.0
 40
22.0
 40
22.0
 40
22.0
 40
22.0
 10
16.142511664496528
 20
275.63830023871526
 30
0.0
 10
16.142511664496528
 20
275.63830023871526
 30
0.0
 10
16.142511664496528
 20
277.72826741536454
 30
0.0
 10
16.142511664496528
 20
277.72826741536454
 30
0.0
 10
16.142511664496528
 20
277.72826741536454
 30
0.0
 10
16.615867784288191
 20
278.27397054036453
 30
0.0
 10
17.428910319010416
 20
278.33563774956593
 30
0.0
 10
17.470251464843749
 20
278.40781249999998
 30
0.0
 10
17.490922037760416
 20
278.49015028211801
 30
0.0
 10
17.490922037760416
 20
278.49015028211801
 30
0.0
 10
17.490922037760416
 20
278.49015028211801
 30
0.0
 10
17.737590874565971
 20
278.2532999674479
 30
0.0
 10
17.737590874565971
 20
278.2532999674479
 30
0.0
 10
17.737590874565971
 20
278.2532999674479
 30
0.0
 10
17.634927029079858
 20
276.88404676649304
 30
0.0
 10
17.634927029079858
 20
276.88404676649304
 30
0.0
 10
17.634927029079858
 20
276.88404676649304
 30
0.0
 10
17.367587619357636
 20
276.85321316189231
 30
0.0
 10
17.367587619357636
 20
276.85321316189231
 30
0.0
 10
17.367587619357636
 20
276.85321316189231
 30
0.0
 10
17.078888617621526
 20
277.33707682291663
 30
0.0
 10
17.078888617621526
 20
277.33707682291663
 30
0.0
 10
17.078888617621526
 20
277.33707682291663
 30
0.0
 10
17.006886121961806
 20
277.33707682291663
 30
0.0
 10
17.02755669487847
 20
277.16206597222219
 30
0.0
 10
17.047882758246526
 20
276.98705512152776
 30
0.0
 10
17.078888617621526
 20
276.77087537977428
 30
0.0
 10
17.315911187065971
 20
276.49285617404513
 30
0.0
 10
17.315911187065971
 20
276.49285617404513
 30
0.0
 10
16.883207194010414
 20
275.84431694878469
 30
0.0
 10
16.883207194010414
 20
275.84431694878469
 30
0.0
 10
16.883207194010414
 20
275.84431694878469
 30
0.0
 10
16.873216417100693
 20
275.76197916666666
 30
0.0
 10
16.965889485677081
 20
275.79281277126734
 30
0.0
 10
16.965889485677081
 20
275.79281277126734
 30
0.0
 10
17.671789550781249
 20
276.74658745659718
 30
0.0
 10
17.671789550781249
 20
276.74658745659718
 30
0.0
 10
17.671789550781249
 20
276.74658745659718
 30
0.0
 10
17.98219265407986
 20
276.61171196831594
 30
0.0
 10
17.98219265407986
 20
276.61171196831594
 30
0.0
 10
17.98219265407986
 20
276.61171196831594
 30
0.0
 10
17.997006564670137
 20
275.54648844401038
 30
0.0
 10
17.997006564670137
 20
275.54648844401038
 30
0.0
 10
17.997006564670137
 20
275.54648844401038
 30
0.0
 10
17.404794650607638
 20
275.00199110243051
 30
0.0
 10
17.404794650607638
 20
275.00199110243051
 30
0.0
 10
17.404794650607638
 20
275.00199110243051
 30
0.0
 10
17.404794650607638
 20
275.36493191189231
 30
0.0
 10
17.404794650607638
 20
275.36493191189231
 30
0.0
 10
17.404794650607638
 20
275.36493191189231
 30
0.0
 10
17.574637858072915
 20
275.37096082899302
 30
0.0
 10
17.574637858072915
 20
275.37096082899302
 30
0.0
 10
17.574637858072915
 20
275.37096082899302
 30
0.0
 10
17.768596733940971
 20
275.58162841796872
 30
0.0
 10
17.768596733940971
 20
275.58162841796872
 30
0.0
 10
17.768596733940971
 20
275.58162841796872
 30
0.0
 10
17.752749294704859
 20
276.26634114583328
 30
0.0
 10
17.752749294704859
 20
276.26634114583328
 30
0.0
 10
17.752749294704859
 20
276.26634114583328
 30
0.0
 10
17.701072862413191
 20
276.26634114583328
 30
0.0
 10
17.701072862413191
 20
276.26634114583328
 30
0.0
 10
17.701072862413191
 20
276.26634114583328
 30
0.0
 10
17.102315266927082
 20
275.14117296006941
 30
0.0
 10
17.102315266927082
 20
275.14117296006941
 30
0.0
 10
17.102315266927082
 20
275.14117296006941
 30
0.0
 10
16.142511664496528
 20
275.63830023871526
 30
0.0
 10
16.142511664496528
 20
275.63830023871526
 30
0.0
  0
SPLINE
  5
95
100
AcDbEntity
  8
CALQUE_1
 62
     7
100
AcDbSpline
210
0.0
220
0.0
230
1.0
 70
     8
 71
     3
 72
    17
 73
    13
 74
     0
 42
0.00000001
 43
0.00000001
 40
0.0
 40
0.0
 40
0.0
 40
0.0
 40
1.0
 40
1.0
 40
1.0
 40
2.0
 40
2.0
 40
2.0
 40
3.0
 40
3.0
 40
3.0
 40
4.0
 40
4.0
 40
4.0
 40
4.0
 10
16.343360731336805
 20
278.53510877821179
 30
0.0
 10
16.343360731336805
 20
278.53510877821179
 30
0.0
 10
16.528362358940971
 20
278.17888590494789
 30
0.0
 10
16.528362358940971
 20
278.17888590494789
 30
0.0
 10
16.582794867621526
 20
278.20971950954856
 30
0.0
 10
16.642050509982639
 20
278.23934733072912
 30
0.0
 10
16.704062228732639
 20
278.26776936848955
 30
0.0
 10
16.704062228732639
 20
278.26776936848955
 30
0.0
 10
16.634126790364583
 20
278.71700981987846
 30
0.0
 10
16.634126790364583
 20
278.71700981987846
 30
0.0
 10
16.525606282552083
 20
278.66223280164928
 30
0.0
 10
16.427765570746526
 20
278.59849853515624
 30
0.0
 10
16.343360731336805
 20
278.53510877821179
 30
0.0
  0
SPLINE
  5
94
100
AcDbEntity
  8
CALQUE_1
 62
     7
100
AcDbSpline
210
0.0
220
0.0
230
1.0
 70
     8
 71
     3
 72
    17
 73
    13
 74
     0
 42
0.00000001
 43
0.00000001
 40
0.0
 40
0.0
 40
0.0
 40
0.0
 40
1.0
 40
1.0
 40
1.0
 40
2.0
 40
2.0
 40
2.0
 40
3.0
 40
3.0
 40
3.0
 40
4.0
 40
4.0
 40
4.0
 40
4.0
 10
16.142511664496528
 20
278.36474880642356
 30
0.0
 10
16.142511664496528
 20
278.36474880642356
 30
0.0
 10
16.142511664496528
 20
277.89948866102429
 30
0.0
 10
16.142511664496528
 20
277.89948866102429
 30
0.0
 10
16.20831298828125
 20
277.96046685112844
 30
0.0
 10
16.309943305121525
 20
278.04383816189232
 30
0.0
 10
16.442923990885415
 20
278.12772623697913
 30
0.0
 10
16.442923990885415
 20
278.12772623697913
 30
0.0
 10
16.263779025607636
 20
278.47240804036454
 30
0.0
 10
16.263779025607636
 20
278.47240804036454
 30
0.0
 10
16.218303765190971
 20
278.43451199001731
 30
0.0
 10
16.176962619357639
 20
278.39782172309026
 30
0.0
 10
16.142511664496528
 20
278.36474880642356
 30
0.0
  0
SPLINE
  5
93
100
AcDbEntity
  8
CALQUE_1
 62
     7
100
AcDbSpline
210
0.0
220
0.0
230
1.0
 70
     8
 71
     3
 72
    20
 73
    16
 74
     0
 42
0.00000001
 43
0.00000001
 40
0.0
 40
0.0
 40
0.0
 40
0.0
 40
1.0
 40
1.0
 40
1.0
 40
2.0
 40
2.0
 40
2.0
 40
3.0
 40
3.0
 40
3.0
 40
4.0
 40
4.0
 40
4.0
 40
5.0
 40
5.0
 40
5.0
 40
5.0
 10
16.798457845052081
 20
278.30807698567708
 30
0.0
 10
16.861503092447915
 20
278.33339843749997
 30
0.0
 10
16.926959906684026
 20
278.35716959635414
 30
0.0
 10
16.997239854600693
 20
278.3776679144965
 30
0.0
 10
17.015498860677081
 20
278.3864529079861
 30
0.0
 10
17.032724338107638
 20
278.39437662760412
 30
0.0
 10
17.050638834635414
 20
278.40281711154512
 30
0.0
 10
17.050638834635414
 20
278.40281711154512
 30
0.0
 10
17.061663140190969
 20
278.85670844184023
 30
0.0
 10
17.061663140190969
 20
278.85670844184023
 30
0.0
 10
16.943151855468749
 20
278.83896620008676
 30
0.0
 10
16.831530761718749
 20
278.80451524522567
 30
0.0
 10
16.727833387586806
 20
278.76024576822914
 30
0.0
 10
16.727833387586806
 20
278.76024576822914
 30
0.0
 10
16.798457845052081
 20
278.30807698567708
 30
0.0
 10
16.798457845052081
 20
278.30807698567708
 30
0.0
  0
SPLINE
  5
92
100
AcDbEntity
  8
CALQUE_1
 62
     7
100
AcDbSpline
210
0.0
220
0.0
230
1.0
 70
     8
 71
     3
 72
    17
 73
    13
 74
     0
 42
0.00000001
 43
0.00000001
 40
0.0
 40
0.0
 40
0.0
 40
0.0
 40
1.0
 40
1.0
 40
1.0
 40
2.0
 40
2.0
 40
2.0
 40
3.0
 40
3.0
 40
3.0
 40
4.0
 40
4.0
 40
4.0
 40
4.0
 10
17.161570909288194
 20
278.86738823784719
 30
0.0
 10
17.161570909288194
 20
278.86738823784719
 30
0.0
 10
17.151235622829859
 20
278.44863688151037
 30
0.0
 10
17.151235622829859
 20
278.44863688151037
 30
0.0
 10
17.227372233072916
 20
278.48239881727426
 30
0.0
 10
17.296963161892361
 20
278.51064860026037
 30
0.0
 10
17.355874294704858
 20
278.53131917317705
 30
0.0
 10
17.355874294704858
 20
278.53131917317705
 30
0.0
 10
17.438556586371526
 20
278.8515407986111
 30
0.0
 10
17.438556586371526
 20
278.8515407986111
 30
0.0
 10
17.343127441406249
 20
278.86893853081597
 30
0.0
 10
17.250454372829861
 20
278.87324490017357
 30
0.0
 10
17.161570909288194
 20
278.86738823784719
 30
0.0
  0
SPLINE
  5
91
100
AcDbEntity
  8
CALQUE_1
 62
     7
100
AcDbSpline
210
0.0
220
0.0
230
1.0
 70
     8
 71
     3
 72
    17
 73
    13
 74
     0
 42
0.00000001
 43
0.00000001
 40
0.0
 40
0.0
 40
0.0
 40
0.0
 40
1.0
 40
1.0
 40
1.0
 40
2.0
 40
2.0
 40
2.0
 40
3.0
 40
3.0
 40
3.0
 40
4.0
 40
4.0
 40
4.0
 40
4.0
 10
17.535019259982636
 20
278.8293199327257
 30
0.0
 10
17.535019259982636
 20
278.8293199327257
 30
0.0
 10
17.491266547309028
 20
278.65775417751735
 30
0.0
 10
17.491266547309028
 20
278.65775417751735
 30
0.0
 10
17.491266547309028
 20
278.65775417751735
 30
0.0
 10
17.684536404079861
 20
278.47240804036454
 30
0.0
 10
17.684536404079861
 20
278.47240804036454
 30
0.0
 10
17.684536404079861
 20
278.47240804036454
 30
0.0
 10
17.834053548177081
 20
278.6810085720486
 30
0.0
 10
17.834053548177081
 20
278.6810085720486
 30
0.0
 10
17.752749294704859
 20
278.74336480034719
 30
0.0
 10
17.654908582899303
 20
278.7955579969618
 30
0.0
 10
17.535019259982636
 20
278.8293199327257
 30
0.0
  0
SPLINE
  5
90
100
AcDbEntity
  8
CALQUE_1
 62
     7
100
AcDbSpline
210
0.0
220
0.0
230
1.0
 70
     8
 71
     3
 72
    20
 73
    16
 74
     0
 42
0.00000001
 43
0.00000001
 40
0.0
 40
0.0
 40
0.0
 40
0.0
 40
1.0
 40
1.0
 40
1.0
 40
2.0
 40
2.0
 40
2.0
 40
3.0
 40
3.0
 40
3.0
 40
4.0
 40
4.0
 40
4.0
 40
5.0
 40
5.0
 40
5.0
 40
5.0
 10
17.85816921657986
 20
278.23004557291665
 30
0.0
 10
17.85816921657986
 20
278.23004557291665
 30
0.0
 10
18.107594129774302
 20
278.32306315104165
 30
0.0
 10
18.107594129774302
 20
278.32306315104165
 30
0.0
 10
18.063152398003471
 20
278.42297092013888
 30
0.0
 10
18.000107150607636
 20
278.5259792751736
 30
0.0
 10
17.909156629774305
 20
278.61537950303818
 30
0.0
 10
17.909156629774305
 20
278.61537950303818
 30
0.0
 10
17.757227918836804
 20
278.40298936631945
 30
0.0
 10
17.757227918836804
 20
278.40298936631945
 30
0.0
 10
17.757227918836804
 20
278.40298936631945
 30
0.0
 10
17.862992350260416
 20
278.30135904947912
 30
0.0
 10
17.862992350260416
 20
278.30135904947912
 30
0.0
 10
17.862992350260416
 20
278.30135904947912
 30
0.0
 10
17.861614312065971
 20
278.27517632378471
 30
0.0
 10
17.85816921657986
 20
278.23004557291665
 30
0.0
  0
SPLINE
  5
8F
100
AcDbEntity
  8
CALQUE_1
 62
     7
100
AcDbSpline
210
0.0
220
0.0
230
1.0
 70
     8
 71
     3
 72
    17
 73
    13
 74
     0
 42
0.00000001
 43
0.00000001
 40
0.0
 40
0.0
 40
0.0
 40
0.0
 40
1.0
 40
1.0
 40
1.0
 40
2.0
 40
2.0
 40
2.0
 40
3.0
 40
3.0
 40
3.0
 40
4.0
 40
4.0
 40
4.0
 40
4.0
 10
18.144112141927081
 20
278.23056233723958
 30
0.0
 10
18.144112141927081
 20
278.23056233723958
 30
0.0
 10
17.849900987413193
 20
278.1208360460069
 30
0.0
 10
17.849900987413193
 20
278.1208360460069
 30
0.0
 10
17.845077853732636
 20
278.05675726996526
 30
0.0
 10
17.838876681857638
 20
277.97924262152776
 30
0.0
 10
17.832675509982636
 20
277.89432101779511
 30
0.0
 10
17.832675509982636
 20
277.89432101779511
 30
0.0
 10
18.210946994357638
 20
277.89432101779511
 30
0.0
 10
18.210946994357638
 20
277.89432101779511
 30
0.0
 10
18.208879937065969
 20
277.93807373046872
 30
0.0
 10
18.198200141059026
 20
278.0739827473958
 30
0.0
 10
18.144112141927081
 20
278.23056233723958
 30
0.0
  0
CIRCLE
  5
8E
100
AcDbEntity
  8
CALQUE_1
 62
     7
100
AcDbCircle
 10
17.568781
 20
277.779599
 30
0.0
 40
0.064768
  0
SPLINE
  5
8D
100
AcDbEntity
  8
CALQUE_1
 62
     7
100
AcDbSpline
210
0.0
220
0.0
230
1.0
 70
     8
 71
     3
 72
    68
 73
    64
 74
     0
 42
0.00000001
 43
0.00000001
 40
0.0
 40
0.0
 40
0.0
 40
0.0
 40
1.0
 40
1.0
 40
1.0
 40
2.0
 40
2.0
 40
2.0
 40
3.0
 40
3.0
 40
3.0
 40
4.0
 40
4.0
 40
4.0
 40
5.0
 40
5.0
 40
5.0
 40
6.0
 40
6.0
 40
6.0
 40
7.0
 40
7.0
 40
7.0
 40
8.0
 40
8.0
 40
8.0
 40
9.0
 40
9.0
 40
9.0
 40
10.0
 40
10.0
 40
10.0
 40
11.0
 40
11.0
 40
11.0
 40
12.0
 40
12.0
 40
12.0
 40
13.0
 40
13.0
 40
13.0
 40
14.0
 40
14.0
 40
14.0
 40
15.0
 40
15.0
 40
15.0
 40
16.0
 40
16.0
 40
16.0
 40
17.0
 40
17.0
 40
17.0
 40
18.0
 40
18.0
 40
18.0
 40
19.0
 40
19.0
 40
19.0
 40
20.0
 40
20.0
 40
20.0
 40
21.0
 40
21.0
 40
21.0
 40
21.0
 10
21.098626030815971
 20
278.28516710069442
 30
0.0
 10
21.098626030815971
 20
278.05090060763888
 30
0.0
 10
21.004919433593749
 20
277.87313368055555
 30
0.0
 10
20.817850748697914
 20
277.75186631944445
 30
0.0
 10
20.630437554253469
 20
277.63059895833328
 30
0.0
 10
20.356207953559025
 20
277.56996527777773
 30
0.0
 10
19.99516194661458
 20
277.56996527777773
 30
0.0
 10
19.657887098524302
 20
277.56996527777773
 30
0.0
 10
19.380556911892359
 20
277.63404405381942
 30
0.0
 10
19.163860405815971
 20
277.76254611545136
 30
0.0
 10
18.947163899739582
 20
277.89070366753469
 30
0.0
 10
18.838643391927082
 20
278.05606825086801
 30
0.0
 10
18.838643391927082
 20
278.25829535590276
 30
0.0
 10
18.838643391927082
 20
278.45811089409722
 30
0.0
 10
18.949575466579859
 20
278.62416449652773
 30
0.0
 10
19.171439615885415
 20
278.75576714409721
 30
0.0
 10
19.393303765190971
 20
278.88771430121523
 30
0.0
 10
19.672356499565971
 20
278.95351562499997
 30
0.0
 10
20.008597819010415
 20
278.95351562499997
 30
0.0
 10
20.220815700954859
 20
278.95351562499997
 30
0.0
 10
20.409951443142358
 20
278.92802191840275
 30
0.0
 10
20.576005045572916
 20
278.87686225043399
 30
0.0
 10
20.742403157552083
 20
278.82570258246523
 30
0.0
 10
20.881585015190971
 20
278.75025499131942
 30
0.0
 10
20.993895128038194
 20
278.65034722222219
 30
0.0
 10
20.993895128038194
 20
278.65034722222219
 30
0.0
 10
20.479542371961802
 20
278.49945203993053
 30
0.0
 10
20.479542371961802
 20
278.49945203993053
 30
0.0
 10
20.417530653211802
 20
278.55043945312497
 30
0.0
 10
20.347939724392358
 20
278.58816324869787
 30
0.0
 10
20.270425075954858
 20
278.61314019097222
 30
0.0
 10
20.193254937065969
 20
278.63794487847218
 30
0.0
 10
20.10609402126736
 20
278.65034722222219
 30
0.0
 10
20.009631347656249
 20
278.65034722222219
 30
0.0
 10
19.833242458767359
 20
278.65034722222219
 30
0.0
 10
19.693027072482636
 20
278.61417371961801
 30
0.0
 10
19.589329698350692
 20
278.54182671440969
 30
0.0
 10
19.485632324218749
 20
278.46965196397565
 30
0.0
 10
19.433955891927081
 20
278.37129448784719
 30
0.0
 10
19.433955891927081
 20
278.2469265407986
 30
0.0
 10
19.433955891927081
 20
278.12910427517357
 30
0.0
 10
19.484943305121526
 20
278.03556993272565
 30
0.0
 10
19.586573621961804
 20
277.96615125868055
 30
0.0
 10
19.688203938802083
 20
277.8967325846354
 30
0.0
 10
19.82462972005208
 20
277.86210937499999
 30
0.0
 10
19.995506456163191
 20
277.86210937499999
 30
0.0
 10
20.144679090711804
 20
277.86210937499999
 30
0.0
 10
20.265601942274305
 20
277.88243543836802
 30
0.0
 10
20.358619520399305
 20
277.92325981987847
 30
0.0
 10
20.451981608072916
 20
277.96408420138886
 30
0.0
 10
20.505725097656249
 20
278.01903347439236
 30
0.0
 10
20.519849989149304
 20
278.08810763888886
 30
0.0
 10
20.519849989149304
 20
278.08810763888886
 30
0.0
 10
19.968634711371525
 20
278.08810763888886
 30
0.0
 10
19.968634711371525
 20
278.08810763888886
 30
0.0
 10
19.968634711371525
 20
278.08810763888886
 30
0.0
 10
19.968634711371525
 20
278.36922743055555
 30
0.0
 10
19.968634711371525
 20
278.36922743055555
 30
0.0
 10
19.968634711371525
 20
278.36922743055555
 30
0.0
 10
21.098626030815971
 20
278.36922743055555
 30
0.0
 10
21.098626030815971
 20
278.36922743055555
 30
0.0
 10
21.098626030815971
 20
278.36922743055555
 30
0.0
 10
21.098626030815971
 20
278.28516710069442
 30
0.0
 10
21.098626030815971
 20
278.28516710069442
 30
0.0
  0
SPLINE
  5
8C
100
AcDbEntity
  8
CALQUE_1
 62
     7
100
AcDbSpline
210
0.0
220
0.0
230
1.0
 70
     8
 71
     3
 72
    38
 73
    34
 74
     0
 42
0.00000001
 43
0.00000001
 40
0.0
 40
0.0
 40
0.0
 40
0.0
 40
1.0
 40
1.0
 40
1.0
 40
2.0
 40
2.0
 40
2.0
 40
3.0
 40
3.0
 40
3.0
 40
4.0
 40
4.0
 40
4.0
 40
5.0
 40
5.0
 40
5.0
 40
6.0
 40
6.0
 40
6.0
 40
7.0
 40
7.0
 40
7.0
 40
8.0
 40
8.0
 40
8.0
 40
9.0
 40
9.0
 40
9.0
 40
10.0
 40
10.0
 40
10.0
 40
11.0
 40
11.0
 40
11.0
 40
11.0
 10
23.192555067274302
 20
277.59752604166664
 30
0.0
 10
23.192555067274302
 20
277.59752604166664
 30
0.0
 10
22.514904785156247
 20
277.59752604166664
 30
0.0
 10
22.514904785156247
 20
277.59752604166664
 30
0.0
 10
22.514904785156247
 20
277.59752604166664
 30
0.0
 10
22.007442220052081
 20
278.11015624999999
 30
0.0
 10
22.007442220052081
 20
278.11015624999999
 30
0.0
 10
22.007442220052081
 20
278.11015624999999
 30
0.0
 10
22.007442220052081
 20
277.59752604166664
 30
0.0
 10
22.007442220052081
 20
277.59752604166664
 30
0.0
 10
22.007442220052081
 20
277.59752604166664
 30
0.0
 10
21.434178331163192
 20
277.59752604166664
 30
0.0
 10
21.434178331163192
 20
277.59752604166664
 30
0.0
 10
21.434178331163192
 20
277.59752604166664
 30
0.0
 10
21.434178331163192
 20
278.92595486111111
 30
0.0
 10
21.434178331163192
 20
278.92595486111111
 30
0.0
 10
21.434178331163192
 20
278.92595486111111
 30
0.0
 10
22.107005479600691
 20
278.92595486111111
 30
0.0
 10
22.107005479600691
 20
278.92595486111111
 30
0.0
 10
22.466673448350694
 20
278.92595486111111
 30
0.0
 10
22.718854437934027
 20
278.89202067057289
 30
0.0
 10
22.864237467447914
 20
278.82432454427078
 30
0.0
 10
23.009620496961805
 20
278.75662841796873
 30
0.0
 10
23.082312011718749
 20
278.649658203125
 30
0.0
 10
23.082312011718749
 20
278.50324164496527
 30
0.0
 10
23.082312011718749
 20
278.40057779947915
 30
0.0
 10
23.040281846788194
 20
278.31686197916662
 30
0.0
 10
22.956566026475691
 20
278.25209418402773
 30
0.0
 10
22.872850206163193
 20
278.18732638888889
 30
0.0
 10
22.751238335503469
 20
278.1444349500868
 30
0.0
 10
22.591385904947913
 20
278.12376437717012
 30
0.0
 10
22.591385904947913
 20
278.12376437717012
 30
0.0
 10
23.192555067274302
 20
277.59752604166664
 30
0.0
 10
23.192555067274302
 20
277.59752604166664
 30
0.0
  0
SPLINE
  5
8B
100
AcDbEntity
  8
CALQUE_1
 62
     7
100
AcDbSpline
210
0.0
220
0.0
230
1.0
 70
     8
 71
     3
 72
    26
 73
    22
 74
     0
 42
0.00000001
 43
0.00000001
 40
0.0
 40
0.0
 40
0.0
 40
0.0
 40
1.0
 40
1.0
 40
1.0
 40
2.0
 40
2.0
 40
2.0
 40
3.0
 40
3.0
 40
3.0
 40
4.0
 40
4.0
 40
4.0
 40
5.0
 40
5.0
 40
5.0
 40
6.0
 40
6.0
 40
6.0
 40
7.0
 40
7.0
 40
7.0
 40
7.0
 10
22.486999511718746
 20
278.45879991319441
 30
0.0
 10
22.486999511718746
 20
278.52511800130208
 30
0.0
 10
22.459438747829861
 20
278.57283257378469
 30
0.0
 10
22.403972710503471
 20
278.60159912109373
 30
0.0
 10
22.348506673177081
 20
278.63036566840276
 30
0.0
 10
22.254800075954858
 20
278.64483506944441
 30
0.0
 10
22.123197428385414
 20
278.64483506944441
 30
0.0
 10
22.123197428385414
 20
278.64483506944441
 30
0.0
 10
22.007442220052081
 20
278.64483506944441
 30
0.0
 10
22.007442220052081
 20
278.64483506944441
 30
0.0
 10
22.007442220052081
 20
278.64483506944441
 30
0.0
 10
22.007442220052081
 20
278.28654513888887
 30
0.0
 10
22.007442220052081
 20
278.28654513888887
 30
0.0
 10
22.007442220052081
 20
278.28654513888887
 30
0.0
 10
22.112862141927081
 20
278.28654513888887
 30
0.0
 10
22.112862141927081
 20
278.28654513888887
 30
0.0
 10
22.241019694010415
 20
278.28654513888887
 30
0.0
 10
22.335415310329861
 20
278.3004977756076
 30
0.0
 10
22.396048990885415
 20
278.32857530381943
 30
0.0
 10
22.456682671440969
 20
278.35648057725695
 30
0.0
 10
22.486999511718746
 20
278.3998887803819
 30
0.0
 10
22.486999511718746
 20
278.45879991319441
 30
0.0
  0
SPLINE
  5
8A
100
AcDbEntity
  8
CALQUE_1
 62
     7
100
AcDbSpline
210
0.0
220
0.0
230
1.0
 70
     8
 71
     3
 72
    29
 73
    25
 74
     0
 42
0.00000001
 43
0.00000001
 40
0.0
 40
0.0
 40
0.0
 40
0.0
 40
1.0
 40
1.0
 40
1.0
 40
2.0
 40
2.0
 40
2.0
 40
3.0
 40
3.0
 40
3.0
 40
4.0
 40
4.0
 40
4.0
 40
5.0
 40
5.0
 40
5.0
 40
6.0
 40
6.0
 40
6.0
 40
7.0
 40
7.0
 40
7.0
 40
8.0
 40
8.0
 40
8.0
 40
8.0
 10
25.696105957031246
 20
278.2600179036458
 30
0.0
 10
25.696105957031246
 20
278.06468098958328
 30
0.0
 10
25.581384277343748
 20
277.90069444444441
 30
0.0
 10
25.351940917968747
 20
277.76840277777774
 30
0.0
 10
25.122842068142358
 20
277.63611111111106
 30
0.0
 10
24.838966200086805
 20
277.56996527777773
 30
0.0
 10
24.500657823350693
 20
277.56996527777773
 30
0.0
 10
24.161315917968746
 20
277.56996527777773
 30
0.0
 10
23.876751030815971
 20
277.63611111111106
 30
0.0
 10
23.647652180989581
 20
277.76840277777774
 30
0.0
 10
23.418208821614581
 20
277.90069444444441
 30
0.0
 10
23.303831651475694
 20
278.06468098958328
 30
0.0
 10
23.303831651475694
 20
278.2600179036458
 30
0.0
 10
23.303831651475694
 20
278.45466579861107
 30
0.0
 10
23.418897840711804
 20
278.6189968532986
 30
0.0
 10
23.649030219184027
 20
278.75283881293399
 30
0.0
 10
23.879162597656247
 20
278.88668077256943
 30
0.0
 10
24.163038465711804
 20
278.95351562499997
 30
0.0
 10
24.500657823350693
 20
278.95351562499997
 30
0.0
 10
24.838966200086805
 20
278.95351562499997
 30
0.0
 10
25.122842068142358
 20
278.88668077256943
 30
0.0
 10
25.351940917968747
 20
278.75335557725691
 30
0.0
 10
25.581384277343748
 20
278.61968587239579
 30
0.0
 10
25.696105957031246
 20
278.45535481770833
 30
0.0
 10
25.696105957031246
 20
278.2600179036458
 30
0.0
  0
SPLINE
  5
89
100
AcDbEntity
  8
CALQUE_1
 62
     7
100
AcDbSpline
210
0.0
220
0.0
230
1.0
 70
     8
 71
     3
 72
    29
 73
    25
 74
     0
 42
0.00000001
 43
0.00000001
 40
0.0
 40
0.0
 40
0.0
 40
0.0
 40
1.0
 40
1.0
 40
1.0
 40
2.0
 40
2.0
 40
2.0
 40
3.0
 40
3.0
 40
3.0
 40
4.0
 40
4.0
 40
4.0
 40
5.0
 40
5.0
 40
5.0
 40
6.0
 40
6.0
 40
6.0
 40
7.0
 40
7.0
 40
7.0
 40
8.0
 40
8.0
 40
8.0
 40
8.0
 10
25.100793457031248
 20
278.2600179036458
 30
0.0
 10
25.100793457031248
 20
278.36130371093748
 30
0.0
 10
25.043949381510416
 20
278.4463975694444
 30
0.0
 10
24.930605740017359
 20
278.51461046006943
 30
0.0
 10
24.817262098524303
 20
278.58316786024301
 30
0.0
 10
24.674290635850692
 20
278.61727430555555
 30
0.0
 10
24.501346842447916
 20
278.61727430555555
 30
0.0
 10
24.324268934461802
 20
278.61727430555555
 30
0.0
 10
24.179919433593749
 20
278.58351236979166
 30
0.0
 10
24.067609320746527
 20
278.51598849826388
 30
0.0
 10
23.955299207899305
 20
278.4484646267361
 30
0.0
 10
23.899144151475692
 20
278.36302625868052
 30
0.0
 10
23.899144151475692
 20
278.2600179036458
 30
0.0
 10
23.899144151475692
 20
278.15855984157986
 30
0.0
 10
23.955643717447913
 20
278.0743272569444
 30
0.0
 10
24.068987358940969
 20
278.00714789496527
 30
0.0
 10
24.182331000434026
 20
277.93979627821176
 30
0.0
 10
24.326335991753471
 20
277.90620659722219
 30
0.0
 10
24.501346842447916
 20
277.90620659722219
 30
0.0
 10
24.675324164496526
 20
277.90620659722219
 30
0.0
 10
24.818640136718749
 20
277.93996853298609
 30
0.0
 10
24.931294759114582
 20
278.00749240451387
 30
0.0
 10
25.044293891059027
 20
278.07501627604165
 30
0.0
 10
25.100793457031248
 20
278.15907660590273
 30
0.0
 10
25.100793457031248
 20
278.2600179036458
 30
0.0
  0
SPLINE
  5
88
100
AcDbEntity
  8
CALQUE_1
 62
     7
100
AcDbSpline
210
0.0
220
0.0
230
1.0
 70
     8
 71
     3
 72
    47
 73
    43
 74
     0
 42
0.00000001
 43
0.00000001
 40
0.0
 40
0.0
 40
0.0
 40
0.0
 40
1.0
 40
1.0
 40
1.0
 40
2.0
 40
2.0
 40
2.0
 40
3.0
 40
3.0
 40
3.0
 40
4.0
 40
4.0
 40
4.0
 40
5.0
 40
5.0
 40
5.0
 40
6.0
 40
6.0
 40
6.0
 40
7.0
 40
7.0
 40
7.0
 40
8.0
 40
8.0
 40
8.0
 40
9.0
 40
9.0
 40
9.0
 40
10.0
 40
10.0
 40
10.0
 40
11.0
 40
11.0
 40
11.0
 40
12.0
 40
12.0
 40
12.0
 40
13.0
 40
13.0
 40
13.0
 40
14.0
 40
14.0
 40
14.0
 40
14.0
 10
27.885808648003469
 20
278.21006401909722
 30
0.0
 10
27.885808648003469
 20
277.96408420138886
 30
0.0
 10
27.815184190538194
 20
277.79596354166665
 30
0.0
 10
27.673590766059025
 20
277.70552978515622
 30
0.0
 10
27.532341851128471
 20
277.61509602864578
 30
0.0
 10
27.287051052517359
 20
277.56996527777773
 30
0.0
 10
26.938407389322915
 20
277.56996527777773
 30
0.0
 10
26.588730197482636
 20
277.56996527777773
 30
0.0
 10
26.343094889322913
 20
277.61509602864578
 30
0.0
 10
26.201845974392359
 20
277.70552978515622
 30
0.0
 10
26.060252549913191
 20
277.79596354166665
 30
0.0
 10
25.989628092447916
 20
277.96408420138886
 30
0.0
 10
25.989628092447916
 20
278.21006401909722
 30
0.0
 10
25.989628092447916
 20
278.21006401909722
 30
0.0
 10
25.989628092447916
 20
278.92595486111111
 30
0.0
 10
25.989628092447916
 20
278.92595486111111
 30
0.0
 10
25.989628092447916
 20
278.92595486111111
 30
0.0
 10
26.562891981336804
 20
278.92595486111111
 30
0.0
 10
26.562891981336804
 20
278.92595486111111
 30
0.0
 10
26.562891981336804
 20
278.92595486111111
 30
0.0
 10
26.562891981336804
 20
278.20661892361107
 30
0.0
 10
26.562891981336804
 20
278.20661892361107
 30
0.0
 10
26.562891981336804
 20
278.07553304036458
 30
0.0
 10
26.590108235677082
 20
277.98716634114578
 30
0.0
 10
26.644540744357638
 20
277.94169108072913
 30
0.0
 10
26.698973253038194
 20
277.89587131076388
 30
0.0
 10
26.796469455295135
 20
277.87313368055555
 30
0.0
 10
26.937718370225692
 20
277.87313368055555
 30
0.0
 10
27.077933756510415
 20
277.87313368055555
 30
0.0
 10
27.17542995876736
 20
277.89587131076388
 30
0.0
 10
27.230206976996524
 20
277.94169108072913
 30
0.0
 10
27.284983995225691
 20
277.98716634114578
 30
0.0
 10
27.31254475911458
 20
278.07553304036458
 30
0.0
 10
27.31254475911458
 20
278.20661892361107
 30
0.0
 10
27.31254475911458
 20
278.20661892361107
 30
0.0
 10
27.31254475911458
 20
278.92595486111111
 30
0.0
 10
27.31254475911458
 20
278.92595486111111
 30
0.0
 10
27.31254475911458
 20
278.92595486111111
 30
0.0
 10
27.885808648003469
 20
278.92595486111111
 30
0.0
 10
27.885808648003469
 20
278.92595486111111
 30
0.0
 10
27.885808648003469
 20
278.92595486111111
 30
0.0
 10
27.885808648003469
 20
278.21006401909722
 30
0.0
 10
27.885808648003469
 20
278.21006401909722
 30
0.0
  0
SPLINE
  5
87
100
AcDbEntity
  8
CALQUE_1
 62
     7
100
AcDbSpline
210
0.0
220
0.0
230
1.0
 70
     8
 71
     3
 72
    32
 73
    28
 74
     0
 42
0.00000001
 43
0.00000001
 40
0.0
 40
0.0
 40
0.0
 40
0.0
 40
1.0
 40
1.0
 40
1.0
 40
2.0
 40
2.0
 40
2.0
 40
3.0
 40
3.0
 40
3.0
 40
4.0
 40
4.0
 40
4.0
 40
5.0
 40
5.0
 40
5.0
 40
6.0
 40
6.0
 40
6.0
 40
7.0
 40
7.0
 40
7.0
 40
8.0
 40
8.0
 40
8.0
 40
9.0
 40
9.0
 40
9.0
 40
9.0
 10
29.904290093315968
 20
278.47344156901039
 30
0.0
 10
29.904290093315968
 20
278.32771402994791
 30
0.0
 10
29.823330349392357
 20
278.21798773871524
 30
0.0
 10
29.661410861545136
 20
278.14391818576388
 30
0.0
 10
29.499835883246526
 20
278.06984863281247
 30
0.0
 10
29.260746256510416
 20
278.03298611111109
 30
0.0
 10
28.944831000434025
 20
278.03298611111109
 30
0.0
 10
28.944831000434025
 20
278.03298611111109
 30
0.0
 10
28.851468912760414
 20
278.03298611111109
 30
0.0
 10
28.851468912760414
 20
278.03298611111109
 30
0.0
 10
28.851468912760414
 20
278.03298611111109
 30
0.0
 10
28.851468912760414
 20
277.59752604166664
 30
0.0
 10
28.851468912760414
 20
277.59752604166664
 30
0.0
 10
28.851468912760414
 20
277.59752604166664
 30
0.0
 10
28.278205023871525
 20
277.59752604166664
 30
0.0
 10
28.278205023871525
 20
277.59752604166664
 30
0.0
 10
28.278205023871525
 20
277.59752604166664
 30
0.0
 10
28.278205023871525
 20
278.92595486111111
 30
0.0
 10
28.278205023871525
 20
278.92595486111111
 30
0.0
 10
28.278205023871525
 20
278.92595486111111
 30
0.0
 10
28.918992784288193
 20
278.92595486111111
 30
0.0
 10
28.918992784288193
 20
278.92595486111111
 30
0.0
 10
29.258679199218747
 20
278.92595486111111
 30
0.0
 10
29.508104112413193
 20
278.88874782986107
 30
0.0
 10
29.666578504774304
 20
278.81450602213539
 30
0.0
 10
29.825052897135414
 20
278.74026421440971
 30
0.0
 10
29.904290093315968
 20
278.62657606336802
 30
0.0
 10
29.904290093315968
 20
278.47344156901039
 30
0.0
  0
SPLINE
  5
86
100
AcDbEntity
  8
CALQUE_1
 62
     7
100
AcDbSpline
210
0.0
220
0.0
230
1.0
 70
     8
 71
     3
 72
    26
 73
    22
 74
     0
 42
0.00000001
 43
0.00000001
 40
0.0
 40
0.0
 40
0.0
 40
0.0
 40
1.0
 40
1.0
 40
1.0
 40
2.0
 40
2.0
 40
2.0
 40
3.0
 40
3.0
 40
3.0
 40
4.0
 40
4.0
 40
4.0
 40
5.0
 40
5.0
 40
5.0
 40
6.0
 40
6.0
 40
6.0
 40
7.0
 40
7.0
 40
7.0
 40
7.0
 10
29.308977593315969
 20
278.47809244791665
 30
0.0
 10
29.308977593315969
 20
278.53631456163191
 30
0.0
 10
29.279694281684026
 20
278.57868923611107
 30
0.0
 10
29.220783148871526
 20
278.60521647135414
 30
0.0
 10
29.161872016059025
 20
278.63157145182288
 30
0.0
 10
29.065064832899303
 20
278.64483506944441
 30
0.0
 10
28.930361599392359
 20
278.64483506944441
 30
0.0
 10
28.930361599392359
 20
278.64483506944441
 30
0.0
 10
28.851468912760414
 20
278.64483506944441
 30
0.0
 10
28.851468912760414
 20
278.64483506944441
 30
0.0
 10
28.851468912760414
 20
278.64483506944441
 30
0.0
 10
28.851468912760414
 20
278.31410590277773
 30
0.0
 10
28.851468912760414
 20
278.31410590277773
 30
0.0
 10
28.851468912760414
 20
278.31410590277773
 30
0.0
 10
28.924504937065969
 20
278.31410590277773
 30
0.0
 10
28.924504937065969
 20
278.31410590277773
 30
0.0
 10
29.064031304253469
 20
278.31410590277773
 30
0.0
 10
29.163250054253471
 20
278.32685275607639
 30
0.0
 10
29.221472167968749
 20
278.35200195312495
 30
0.0
 10
29.279694281684026
 20
278.37749565972217
 30
0.0
 10
29.308977593315969
 20
278.41952582465274
 30
0.0
 10
29.308977593315969
 20
278.47809244791665
 30
0.0
  0
POLYLINE
  5
78
100
AcDbEntity
  8
CALQUE_1
 62
     7
100
AcDb2dPolyline
 66
     1
 10
0.0
 20
0.0
 30
0.0
 70
     1
  0
VERTEX
  5
79
100
AcDbEntity
  8
CALQUE_1
 62
     7
100
AcDbVertex
100
AcDb2dVertex
 10
31.45355
 20
277.597526
 30
0.0
  0
VERTEX
  5
7A
100
AcDbEntity
  8
CALQUE_1
 62
     7
100
AcDbVertex
100
AcDb2dVertex
 10
30.191267
 20
277.597526
 30
0.0
  0
VERTEX
  5
7B
100
AcDbEntity
  8
CALQUE_1
 62
     7
100
AcDbVertex
100
AcDb2dVertex
 10
30.191267
 20
278.925955
 30
0.0
  0
VERTEX
  5
7C
100
AcDbEntity
  8
CALQUE_1
 62
     7
100
AcDbVertex
100
AcDb2dVertex
 10
31.45355
 20
278.925955
 30
0.0
  0
VERTEX
  5
7D
100
AcDbEntity
  8
CALQUE_1
 62
     7
100
AcDbVertex
100
AcDb2dVertex
 10
31.45355
 20
278.633811
 30
0.0
  0
VERTEX
  5
7E
100
AcDbEntity
  8
CALQUE_1
 62
     7
100
AcDbVertex
100
AcDb2dVertex
 10
30.76453
 20
278.633811
 30
0.0
  0
VERTEX
  5
7F
100
AcDbEntity
  8
CALQUE_1
 62
     7
100
AcDbVertex
100
AcDb2dVertex
 10
30.76453
 20
278.413325
 30
0.0
  0
VERTEX
  5
80
100
AcDbEntity
  8
CALQUE_1
 62
     7
100
AcDbVertex
100
AcDb2dVertex
 10
31.425989
 20
278.413325
 30
0.0
  0
VERTEX
  5
81
100
AcDbEntity
  8
CALQUE_1
 62
     7
100
AcDbVertex
100
AcDb2dVertex
 10
31.425989
 20
278.132205
 30
0.0
  0
VERTEX
  5
82
100
AcDbEntity
  8
CALQUE_1
 62
     7
100
AcDbVertex
100
AcDb2dVertex
 10
30.76453
 20
278.132205
 30
0.0
  0
VERTEX
  5
83
100
AcDbEntity
  8
CALQUE_1
 62
     7
100
AcDbVertex
100
AcDb2dVertex
 10
30.76453
 20
277.88967
 30
0.0
  0
VERTEX
  5
84
100
AcDbEntity
  8
CALQUE_1
 62
     7
100
AcDbVertex
100
AcDb2dVertex
 10
31.45355
 20
277.88967
 30
0.0
  0
SEQEND
  5
85
100
AcDbEntity
  8
CALQUE_1
 62
     7
  0
POLYLINE
  5
6E
100
AcDbEntity
  8
CALQUE_1
 62
     7
100
AcDb2dPolyline
 66
     1
 10
0.0
 20
0.0
 30
0.0
 70
     1
  0
VERTEX
  5
6F
100
AcDbEntity
  8
CALQUE_1
 62
     7
100
AcDbVertex
100
AcDb2dVertex
 10
21.03248
 20
275.480859
 30
0.0
  0
VERTEX
  5
70
100
AcDbEntity
  8
CALQUE_1
 62
     7
100
AcDbVertex
100
AcDb2dVertex
 10
20.418564
 20
275.480859
 30
0.0
  0
VERTEX
  5
71
100
AcDbEntity
  8
CALQUE_1
 62
     7
100
AcDbVertex
100
AcDb2dVertex
 10
20.298675
 20
275.717882
 30
0.0
  0
VERTEX
  5
72
100
AcDbEntity
  8
CALQUE_1
 62
     7
100
AcDbVertex
100
AcDb2dVertex
 10
19.456349
 20
275.717882
 30
0.0
  0
VERTEX
  5
73
100
AcDbEntity
  8
CALQUE_1
 62
     7
100
AcDbVertex
100
AcDb2dVertex
 10
19.333704
 20
275.480859
 30
0.0
  0
VERTEX
  5
74
100
AcDbEntity
  8
CALQUE_1
 62
     7
100
AcDbVertex
100
AcDb2dVertex
 10
18.717376
 20
275.480859
 30
0.0
  0
VERTEX
  5
75
100
AcDbEntity
  8
CALQUE_1
 62
     7
100
AcDbVertex
100
AcDb2dVertex
 10
19.503547
 20
276.809288
 30
0.0
  0
VERTEX
  5
76
100
AcDbEntity
  8
CALQUE_1
 62
     7
100
AcDbVertex
100
AcDb2dVertex
 10
20.248721
 20
276.809288
 30
0.0
  0
SEQEND
  5
77
100
AcDbEntity
  8
CALQUE_1
 62
     7
  0
POLYLINE
  5
69
100
AcDbEntity
  8
CALQUE_1
 62
     7
100
AcDb2dPolyline
 66
     1
 10
0.0
 20
0.0
 30
0.0
 70
     1
  0
VERTEX
  5
6A
100
AcDbEntity
  8
CALQUE_1
 62
     7
100
AcDbVertex
100
AcDb2dVertex
 10
20.172929
 20
275.971441
 30
0.0
  0
VERTEX
  5
6B
100
AcDbEntity
  8
CALQUE_1
 62
     7
100
AcDbVertex
100
AcDb2dVertex
 10
19.88044
 20
276.536437
 30
0.0
  0
VERTEX
  5
6C
100
AcDbEntity
  8
CALQUE_1
 62
     7
100
AcDbVertex
100
AcDb2dVertex
 10
19.584851
 20
275.971441
 30
0.0
  0
SEQEND
  5
6D
100
AcDbEntity
  8
CALQUE_1
 62
     7
  0
POLYLINE
  5
63
100
AcDbEntity
  8
CALQUE_1
 62
     7
100
AcDb2dPolyline
 66
     1
 10
0.0
 20
0.0
 30
0.0
 70
     1
  0
VERTEX
  5
64
100
AcDbEntity
  8
CALQUE_1
 62
     7
100
AcDbVertex
100
AcDb2dVertex
 10
21.780755
 20
275.480859
 30
0.0
  0
VERTEX
  5
65
100
AcDbEntity
  8
CALQUE_1
 62
     7
100
AcDbVertex
100
AcDb2dVertex
 10
21.207491
 20
275.480859
 30
0.0
  0
VERTEX
  5
66
100
AcDbEntity
  8
CALQUE_1
 62
     7
100
AcDbVertex
100
AcDb2dVertex
 10
21.207491
 20
276.809288
 30
0.0
  0
VERTEX
  5
67
100
AcDbEntity
  8
CALQUE_1
 62
     7
100
AcDbVertex
100
AcDb2dVertex
 10
21.780755
 20
276.809288
 30
0.0
  0
SEQEND
  5
68
100
AcDbEntity
  8
CALQUE_1
 62
     7
  0
SPLINE
  5
62
100
AcDbEntity
  8
CALQUE_1
 62
     7
100
AcDbSpline
210
0.0
220
0.0
230
1.0
 70
     8
 71
     3
 72
    38
 73
    34
 74
     0
 42
0.00000001
 43
0.00000001
 40
0.0
 40
0.0
 40
0.0
 40
0.0
 40
1.0
 40
1.0
 40
1.0
 40
2.0
 40
2.0
 40
2.0
 40
3.0
 40
3.0
 40
3.0
 40
4.0
 40
4.0
 40
4.0
 40
5.0
 40
5.0
 40
5.0
 40
6.0
 40
6.0
 40
6.0
 40
7.0
 40
7.0
 40
7.0
 40
8.0
 40
8.0
 40
8.0
 40
9.0
 40
9.0
 40
9.0
 40
10.0
 40
10.0
 40
10.0
 40
11.0
 40
11.0
 40
11.0
 40
11.0
 10
23.977347819010415
 20
275.48085937499997
 30
0.0
 10
23.977347819010415
 20
275.48085937499997
 30
0.0
 10
23.29969753689236
 20
275.48085937499997
 30
0.0
 10
23.29969753689236
 20
275.48085937499997
 30
0.0
 10
23.29969753689236
 20
275.48085937499997
 30
0.0
 10
22.792234971788194
 20
275.99348958333331
 30
0.0
 10
22.792234971788194
 20
275.99348958333331
 30
0.0
 10
22.792234971788194
 20
275.99348958333331
 30
0.0
 10
22.792234971788194
 20
275.48085937499997
 30
0.0
 10
22.792234971788194
 20
275.48085937499997
 30
0.0
 10
22.792234971788194
 20
275.48085937499997
 30
0.0
 10
22.218971082899305
 20
275.48085937499997
 30
0.0
 10
22.218971082899305
 20
275.48085937499997
 30
0.0
 10
22.218971082899305
 20
275.48085937499997
 30
0.0
 10
22.218971082899305
 20
276.80928819444443
 30
0.0
 10
22.218971082899305
 20
276.80928819444443
 30
0.0
 10
22.218971082899305
 20
276.80928819444443
 30
0.0
 10
22.891798231336804
 20
276.80928819444443
 30
0.0
 10
22.891798231336804
 20
276.80928819444443
 30
0.0
 10
23.251466200086803
 20
276.80928819444443
 30
0.0
 10
23.503647189670136
 20
276.77535400390622
 30
0.0
 10
23.649030219184027
 20
276.70765787760416
 30
0.0
 10
23.794413248697914
 20
276.63996175130205
 30
0.0
 10
23.867104763454858
 20
276.53299153645833
 30
0.0
 10
23.867104763454858
 20
276.3865749782986
 30
0.0
 10
23.867104763454858
 20
276.28391113281248
 30
0.0
 10
23.825074598524303
 20
276.2001953125
 30
0.0
 10
23.741358778211804
 20
276.13542751736111
 30
0.0
 10
23.657642957899302
 20
276.07065972222222
 30
0.0
 10
23.536031087239582
 20
276.02776828342013
 30
0.0
 10
23.376178656684026
 20
276.00709771050344
 30
0.0
 10
23.376178656684026
 20
276.00709771050344
 30
0.0
 10
23.977347819010415
 20
275.48085937499997
 30
0.0
 10
23.977347819010415
 20
275.48085937499997
 30
0.0
  0
SPLINE
  5
61
100
AcDbEntity
  8
CALQUE_1
 62
     7
100
AcDbSpline
210
0.0
220
0.0
230
1.0
 70
     8
 71
     3
 72
    26
 73
    22
 74
     0
 42
0.00000001
 43
0.00000001
 40
0.0
 40
0.0
 40
0.0
 40
0.0
 40
1.0
 40
1.0
 40
1.0
 40
2.0
 40
2.0
 40
2.0
 40
3.0
 40
3.0
 40
3.0
 40
4.0
 40
4.0
 40
4.0
 40
5.0
 40
5.0
 40
5.0
 40
6.0
 40
6.0
 40
6.0
 40
7.0
 40
7.0
 40
7.0
 40
7.0
 10
23.271792263454859
 20
276.34213324652774
 30
0.0
 10
23.271792263454859
 20
276.4084513346354
 30
0.0
 10
23.24423149956597
 20
276.45616590711802
 30
0.0
 10
23.18876546223958
 20
276.48493245442705
 30
0.0
 10
23.133299424913194
 20
276.51369900173609
 30
0.0
 10
23.039592827690971
 20
276.52816840277774
 30
0.0
 10
22.907990180121526
 20
276.52816840277774
 30
0.0
 10
22.907990180121526
 20
276.52816840277774
 30
0.0
 10
22.792234971788194
 20
276.52816840277774
 30
0.0
 10
22.792234971788194
 20
276.52816840277774
 30
0.0
 10
22.792234971788194
 20
276.52816840277774
 30
0.0
 10
22.792234971788194
 20
276.16987847222219
 30
0.0
 10
22.792234971788194
 20
276.16987847222219
 30
0.0
 10
22.792234971788194
 20
276.16987847222219
 30
0.0
 10
22.897654893663191
 20
276.16987847222219
 30
0.0
 10
22.897654893663191
 20
276.16987847222219
 30
0.0
 10
23.025812445746524
 20
276.16987847222219
 30
0.0
 10
23.12020806206597
 20
276.18383110894092
 30
0.0
 10
23.180841742621524
 20
276.21190863715276
 30
0.0
 10
23.241475423177082
 20
276.23981391059027
 30
0.0
 10
23.271792263454859
 20
276.28322211371523
 30
0.0
 10
23.271792263454859
 20
276.34213324652774
 30
0.0
  0
POLYLINE
  5
55
100
AcDbEntity
  8
CALQUE_1
 62
     7
100
AcDb2dPolyline
 66
     1
 10
0.0
 20
0.0
 30
0.0
 70
     1
  0
VERTEX
  5
56
100
AcDbEntity
  8
CALQUE_1
 62
     7
100
AcDbVertex
100
AcDb2dVertex
 10
26.502947
 20
276.528168
 30
0.0
  0
VERTEX
  5
57
100
AcDbEntity
  8
CALQUE_1
 62
     7
100
AcDbVertex
100
AcDb2dVertex
 10
25.79188
 20
276.528168
 30
0.0
  0
VERTEX
  5
58
100
AcDbEntity
  8
CALQUE_1
 62
     7
100
AcDbVertex
100
AcDb2dVertex
 10
25.79188
 20
276.296658
 30
0.0
  0
VERTEX
  5
59
100
AcDbEntity
  8
CALQUE_1
 62
     7
100
AcDbVertex
100
AcDb2dVertex
 10
26.45885
 20
276.296658
 30
0.0
  0
VERTEX
  5
5A
100
AcDbEntity
  8
CALQUE_1
 62
     7
100
AcDbVertex
100
AcDb2dVertex
 10
26.45885
 20
276.015538
 30
0.0
  0
VERTEX
  5
5B
100
AcDbEntity
  8
CALQUE_1
 62
     7
100
AcDbVertex
100
AcDb2dVertex
 10
25.79188
 20
276.015538
 30
0.0
  0
VERTEX
  5
5C
100
AcDbEntity
  8
CALQUE_1
 62
     7
100
AcDbVertex
100
AcDb2dVertex
 10
25.79188
 20
275.480859
 30
0.0
  0
VERTEX
  5
5D
100
AcDbEntity
  8
CALQUE_1
 62
     7
100
AcDbVertex
100
AcDb2dVertex
 10
25.218616
 20
275.480859
 30
0.0
  0
VERTEX
  5
5E
100
AcDbEntity
  8
CALQUE_1
 62
     7
100
AcDbVertex
100
AcDb2dVertex
 10
25.218616
 20
276.809288
 30
0.0
  0
VERTEX
  5
5F
100
AcDbEntity
  8
CALQUE_1
 62
     7
100
AcDbVertex
100
AcDb2dVertex
 10
26.502947
 20
276.809288
 30
0.0
  0
SEQEND
  5
60
100
AcDbEntity
  8
CALQUE_1
 62
     7
  0
SPLINE
  5
54
100
AcDbEntity
  8
CALQUE_1
 62
     7
100
AcDbSpline
210
0.0
220
0.0
230
1.0
 70
     8
 71
     3
 72
    38
 73
    34
 74
     0
 42
0.00000001
 43
0.00000001
 40
0.0
 40
0.0
 40
0.0
 40
0.0
 40
1.0
 40
1.0
 40
1.0
 40
2.0
 40
2.0
 40
2.0
 40
3.0
 40
3.0
 40
3.0
 40
4.0
 40
4.0
 40
4.0
 40
5.0
 40
5.0
 40
5.0
 40
6.0
 40
6.0
 40
6.0
 40
7.0
 40
7.0
 40
7.0
 40
8.0
 40
8.0
 40
8.0
 40
9.0
 40
9.0
 40
9.0
 40
10.0
 40
10.0
 40
10.0
 40
11.0
 40
11.0
 40
11.0
 40
11.0
 10
28.564147949218746
 20
275.48085937499997
 30
0.0
 10
28.564147949218746
 20
275.48085937499997
 30
0.0
 10
27.88615315755208
 20
275.48085937499997
 30
0.0
 10
27.88615315755208
 20
275.48085937499997
 30
0.0
 10
27.88615315755208
 20
275.48085937499997
 30
0.0
 10
27.379035101996525
 20
275.99348958333331
 30
0.0
 10
27.379035101996525
 20
275.99348958333331
 30
0.0
 10
27.379035101996525
 20
275.99348958333331
 30
0.0
 10
27.379035101996525
 20
275.48085937499997
 30
0.0
 10
27.379035101996525
 20
275.48085937499997
 30
0.0
 10
27.379035101996525
 20
275.48085937499997
 30
0.0
 10
26.805771213107636
 20
275.48085937499997
 30
0.0
 10
26.805771213107636
 20
275.48085937499997
 30
0.0
 10
26.805771213107636
 20
275.48085937499997
 30
0.0
 10
26.805771213107636
 20
276.80928819444443
 30
0.0
 10
26.805771213107636
 20
276.80928819444443
 30
0.0
 10
26.805771213107636
 20
276.80928819444443
 30
0.0
 10
27.478598361545135
 20
276.80928819444443
 30
0.0
 10
27.478598361545135
 20
276.80928819444443
 30
0.0
 10
27.837921820746526
 20
276.80928819444443
 30
0.0
 10
28.090447319878471
 20
276.77535400390622
 30
0.0
 10
28.235830349392359
 20
276.70765787760416
 30
0.0
 10
28.381213378906246
 20
276.63996175130205
 30
0.0
 10
28.453904893663193
 20
276.53299153645833
 30
0.0
 10
28.453904893663193
 20
276.3865749782986
 30
0.0
 10
28.453904893663193
 20
276.28391113281248
 30
0.0
 10
28.411874728732638
 20
276.2001953125
 30
0.0
 10
28.328158908420136
 20
276.13542751736111
 30
0.0
 10
28.244443088107637
 20
276.07065972222222
 30
0.0
 10
28.122486707899302
 20
276.02776828342013
 30
0.0
 10
27.962634277343746
 20
276.00709771050344
 30
0.0
 10
27.962634277343746
 20
276.00709771050344
 30
0.0
 10
28.564147949218746
 20
275.48085937499997
 30
0.0
 10
28.564147949218746
 20
275.48085937499997
 30
0.0
  0
SPLINE
  5
53
100
AcDbEntity
  8
CALQUE_1
 62
     7
100
AcDbSpline
210
0.0
220
0.0
230
1.0
 70
     8
 71
     3
 72
    26
 73
    22
 74
     0
 42
0.00000001
 43
0.00000001
 40
0.0
 40
0.0
 40
0.0
 40
0.0
 40
1.0
 40
1.0
 40
1.0
 40
2.0
 40
2.0
 40
2.0
 40
3.0
 40
3.0
 40
3.0
 40
4.0
 40
4.0
 40
4.0
 40
5.0
 40
5.0
 40
5.0
 40
6.0
 40
6.0
 40
6.0
 40
7.0
 40
7.0
 40
7.0
 40
7.0
 10
27.858592393663191
 20
276.34213324652774
 30
0.0
 10
27.858592393663191
 20
276.4084513346354
 30
0.0
 10
27.830687120225694
 20
276.45616590711802
 30
0.0
 10
27.775221082899304
 20
276.48493245442705
 30
0.0
 10
27.720099555121525
 20
276.51369900173609
 30
0.0
 10
27.626392957899302
 20
276.52816840277774
 30
0.0
 10
27.494445800781246
 20
276.52816840277774
 30
0.0
 10
27.494445800781246
 20
276.52816840277774
 30
0.0
 10
27.379035101996525
 20
276.52816840277774
 30
0.0
 10
27.379035101996525
 20
276.52816840277774
 30
0.0
 10
27.379035101996525
 20
276.52816840277774
 30
0.0
 10
27.379035101996525
 20
276.16987847222219
 30
0.0
 10
27.379035101996525
 20
276.16987847222219
 30
0.0
 10
27.379035101996525
 20
276.16987847222219
 30
0.0
 10
27.484455023871526
 20
276.16987847222219
 30
0.0
 10
27.484455023871526
 20
276.16987847222219
 30
0.0
 10
27.612268066406248
 20
276.16987847222219
 30
0.0
 10
27.706663682725694
 20
276.18383110894092
 30
0.0
 10
27.767297363281248
 20
276.21190863715276
 30
0.0
 10
27.827931043836802
 20
276.23981391059027
 30
0.0
 10
27.858592393663191
 20
276.28322211371523
 30
0.0
 10
27.858592393663191
 20
276.34213324652774
 30
0.0
  0
POLYLINE
  5
49
100
AcDbEntity
  8
CALQUE_1
 62
     7
100
AcDb2dPolyline
 66
     1
 10
0.0
 20
0.0
 30
0.0
 70
     1
  0
VERTEX
  5
4A
100
AcDbEntity
  8
CALQUE_1
 62
     7
100
AcDbVertex
100
AcDb2dVertex
 10
30.940575
 20
275.480859
 30
0.0
  0
VERTEX
  5
4B
100
AcDbEntity
  8
CALQUE_1
 62
     7
100
AcDbVertex
100
AcDb2dVertex
 10
30.326659
 20
275.480859
 30
0.0
  0
VERTEX
  5
4C
100
AcDbEntity
  8
CALQUE_1
 62
     7
100
AcDbVertex
100
AcDb2dVertex
 10
30.206769
 20
275.717882
 30
0.0
  0
VERTEX
  5
4D
100
AcDbEntity
  8
CALQUE_1
 62
     7
100
AcDbVertex
100
AcDb2dVertex
 10
29.364444
 20
275.717882
 30
0.0
  0
VERTEX
  5
4E
100
AcDbEntity
  8
CALQUE_1
 62
     7
100
AcDbVertex
100
AcDb2dVertex
 10
29.241454
 20
275.480859
 30
0.0
  0
VERTEX
  5
4F
100
AcDbEntity
  8
CALQUE_1
 62
     7
100
AcDbVertex
100
AcDb2dVertex
 10
28.625471
 20
275.480859
 30
0.0
  0
VERTEX
  5
50
100
AcDbEntity
  8
CALQUE_1
 62
     7
100
AcDbVertex
100
AcDb2dVertex
 10
29.411297
 20
276.809288
 30
0.0
  0
VERTEX
  5
51
100
AcDbEntity
  8
CALQUE_1
 62
     7
100
AcDbVertex
100
AcDb2dVertex
 10
30.156816
 20
276.809288
 30
0.0
  0
SEQEND
  5
52
100
AcDbEntity
  8
CALQUE_1
 62
     7
  0
POLYLINE
  5
44
100
AcDbEntity
  8
CALQUE_1
 62
     7
100
AcDb2dPolyline
 66
     1
 10
0.0
 20
0.0
 30
0.0
 70
     1
  0
VERTEX
  5
45
100
AcDbEntity
  8
CALQUE_1
 62
     7
100
AcDbVertex
100
AcDb2dVertex
 10
30.081023
 20
275.971441
 30
0.0
  0
VERTEX
  5
46
100
AcDbEntity
  8
CALQUE_1
 62
     7
100
AcDbVertex
100
AcDb2dVertex
 10
29.78819
 20
276.536437
 30
0.0
  0
VERTEX
  5
47
100
AcDbEntity
  8
CALQUE_1
 62
     7
100
AcDbVertex
100
AcDb2dVertex
 10
29.492946
 20
275.971441
 30
0.0
  0
SEQEND
  5
48
100
AcDbEntity
  8
CALQUE_1
 62
     7
  0
POLYLINE
  5
38
100
AcDbEntity
  8
CALQUE_1
 62
     7
100
AcDb2dPolyline
 66
     1
 10
0.0
 20
0.0
 30
0.0
 70
     1
  0
VERTEX
  5
39
100
AcDbEntity
  8
CALQUE_1
 62
     7
100
AcDbVertex
100
AcDb2dVertex
 10
33.303566
 20
275.480859
 30
0.0
  0
VERTEX
  5
3A
100
AcDbEntity
  8
CALQUE_1
 62
     7
100
AcDbVertex
100
AcDb2dVertex
 10
32.730302
 20
275.480859
 30
0.0
  0
VERTEX
  5
3B
100
AcDbEntity
  8
CALQUE_1
 62
     7
100
AcDbVertex
100
AcDb2dVertex
 10
31.705042
 20
276.305098
 30
0.0
  0
VERTEX
  5
3C
100
AcDbEntity
  8
CALQUE_1
 62
     7
100
AcDbVertex
100
AcDb2dVertex
 10
31.705042
 20
275.480859
 30
0.0
  0
VERTEX
  5
3D
100
AcDbEntity
  8
CALQUE_1
 62
     7
100
AcDbVertex
100
AcDb2dVertex
 10
31.131778
 20
275.480859
 30
0.0
  0
VERTEX
  5
3E
100
AcDbEntity
  8
CALQUE_1
 62
     7
100
AcDbVertex
100
AcDb2dVertex
 10
31.131778
 20
276.809288
 30
0.0
  0
VERTEX
  5
3F
100
AcDbEntity
  8
CALQUE_1
 62
     7
100
AcDbVertex
100
AcDb2dVertex
 10
31.709865
 20
276.809288
 30
0.0
  0
VERTEX
  5
40
100
AcDbEntity
  8
CALQUE_1
 62
     7
100
AcDbVertex
100
AcDb2dVertex
 10
32.730302
 20
275.983327
 30
0.0
  0
VERTEX
  5
41
100
AcDbEntity
  8
CALQUE_1
 62
     7
100
AcDbVertex
100
AcDb2dVertex
 10
32.730302
 20
276.809288
 30
0.0
  0
VERTEX
  5
42
100
AcDbEntity
  8
CALQUE_1
 62
     7
100
AcDbVertex
100
AcDb2dVertex
 10
33.303566
 20
276.809288
 30
0.0
  0
SEQEND
  5
43
100
AcDbEntity
  8
CALQUE_1
 62
     7
  0
SPLINE
  5
37
100
AcDbEntity
  8
CALQUE_1
 62
     7
100
AcDbSpline
210
0.0
220
0.0
230
1.0
 70
     8
 71
     3
 72
    59
 73
    55
 74
     0
 42
0.00000001
 43
0.00000001
 40
0.0
 40
0.0
 40
0.0
 40
0.0
 40
1.0
 40
1.0
 40
1.0
 40
2.0
 40
2.0
 40
2.0
 40
3.0
 40
3.0
 40
3.0
 40
4.0
 40
4.0
 40
4.0
 40
5.0
 40
5.0
 40
5.0
 40
6.0
 40
6.0
 40
6.0
 40
7.0
 40
7.0
 40
7.0
 40
8.0
 40
8.0
 40
8.0
 40
9.0
 40
9.0
 40
9.0
 40
10.0
 40
10.0
 40
10.0
 40
11.0
 40
11.0
 40
11.0
 40
12.0
 40
12.0
 40
12.0
 40
13.0
 40
13.0
 40
13.0
 40
14.0
 40
14.0
 40
14.0
 40
15.0
 40
15.0
 40
15.0
 40
16.0
 40
16.0
 40
16.0
 40
17.0
 40
17.0
 40
17.0
 40
18.0
 40
18.0
 40
18.0
 40
18.0
 10
35.35201958550347
 20
275.53632541232639
 30
0.0
 10
35.281395128038191
 20
275.50910915798607
 30
0.0
 10
35.196301269531247
 20
275.48861083984372
 30
0.0
 10
35.096393500434026
 20
275.47448594835066
 30
0.0
 10
34.996830240885416
 20
275.46036105685761
 30
0.0
 10
34.886242675781247
 20
275.45329861111111
 30
0.0
 10
34.76531982421875
 20
275.45329861111111
 30
0.0
 10
34.440791829427077
 20
275.45329861111111
 30
0.0
 10
34.171729871961801
 20
275.51858317057287
 30
0.0
 10
33.958133951822916
 20
275.64932454427083
 30
0.0
 10
33.744538031684023
 20
275.7798936631944
 30
0.0
 10
33.63774007161458
 20
275.94456922743052
 30
0.0
 10
33.63774007161458
 20
276.14335123697913
 30
0.0
 10
33.63774007161458
 20
276.34213324652774
 30
0.0
 10
33.744538031684023
 20
276.50749782986111
 30
0.0
 10
33.958822970920139
 20
276.63910047743053
 30
0.0
 10
34.173107910156247
 20
276.77104763454861
 30
0.0
 10
34.441825358072911
 20
276.83684895833329
 30
0.0
 10
34.76531982421875
 20
276.83684895833329
 30
0.0
 10
34.88934326171875
 20
276.83684895833329
 30
0.0
 10
35.000275336371523
 20
276.82995876736106
 30
0.0
 10
35.098460557725694
 20
276.81617838541666
 30
0.0
 10
35.19699028862847
 20
276.80239800347221
 30
0.0
 10
35.281395128038191
 20
276.78155517578125
 30
0.0
 10
35.35201958550347
 20
276.75382215711801
 30
0.0
 10
35.35201958550347
 20
276.75382215711801
 30
0.0
 10
35.35201958550347
 20
276.36280381944442
 30
0.0
 10
35.35201958550347
 20
276.36280381944442
 30
0.0
 10
35.28518473307291
 20
276.40655653211803
 30
0.0
 10
35.205603027343749
 20
276.44031846788192
 30
0.0
 10
35.113274468315971
 20
276.46443413628469
 30
0.0
 10
35.021290418836806
 20
276.48854980468747
 30
0.0
 10
34.925516764322914
 20
276.50060763888888
 30
0.0
 10
34.825953504774304
 20
276.50060763888888
 30
0.0
 10
34.649220106336806
 20
276.50060763888888
 30
0.0
 10
34.506248643663191
 20
276.46719021267359
 30
0.0
 10
34.397039116753469
 20
276.40018310546873
 30
0.0
 10
34.287485080295134
 20
276.33317599826387
 30
0.0
 10
34.233052571614579
 20
276.24532606336805
 30
0.0
 10
34.233052571614579
 20
276.1364610460069
 30
0.0
 10
34.233052571614579
 20
276.03517523871523
 30
0.0
 10
34.288174099392357
 20
275.95180392795135
 30
0.0
 10
34.399106174045137
 20
275.88703613281245
 30
0.0
 10
34.509693739149306
 20
275.82192382812497
 30
0.0
 10
34.652320692274301
 20
275.78953993055552
 30
0.0
 10
34.825953504774304
 20
275.78953993055552
 30
0.0
 10
34.922416178385411
 20
275.78953993055552
 30
0.0
 10
35.017845323350691
 20
275.80159776475693
 30
0.0
 10
35.111896430121526
 20
275.8260579427083
 30
0.0
 10
35.20594753689236
 20
275.85051812065967
 30
0.0
 10
35.285873752170133
 20
275.88428005642356
 30
0.0
 10
35.35201958550347
 20
275.92734374999998
 30
0.0
 10
35.35201958550347
 20
275.92734374999998
 30
0.0
 10
35.35201958550347
 20
275.53632541232639
 30
0.0
 10
35.35201958550347
 20
275.53632541232639
 30
0.0
  0
POLYLINE
  5
29
100
AcDbEntity
  8
CALQUE_1
 62
     7
100
AcDb2dPolyline
 66
     1
 10
0.0
 20
0.0
 30
0.0
 70
     1
  0
VERTEX
  5
2A
100
AcDbEntity
  8
CALQUE_1
 62
     7
100
AcDbVertex
100
AcDb2dVertex
 10
36.932285
 20
275.480859
 30
0.0
  0
VERTEX
  5
2B
100
AcDbEntity
  8
CALQUE_1
 62
     7
100
AcDbVertex
100
AcDb2dVertex
 10
35.670002
 20
275.480859
 30
0.0
  0
VERTEX
  5
2C
100
AcDbEntity
  8
CALQUE_1
 62
     7
100
AcDbVertex
100
AcDb2dVertex
 10
35.670002
 20
276.809288
 30
0.0
  0
VERTEX
  5
2D
100
AcDbEntity
  8
CALQUE_1
 62
     7
100
AcDbVertex
100
AcDb2dVertex
 10
36.932285
 20
276.809288
 30
0.0
  0
VERTEX
  5
2E
100
AcDbEntity
  8
CALQUE_1
 62
     7
100
AcDbVertex
100
AcDb2dVertex
 10
36.932285
 20
276.517144
 30
0.0
  0
VERTEX
  5
2F
100
AcDbEntity
  8
CALQUE_1
 62
     7
100
AcDbVertex
100
AcDb2dVertex
 10
36.243266
 20
276.517144
 30
0.0
  0
VERTEX
  5
30
100
AcDbEntity
  8
CALQUE_1
 62
     7
100
AcDbVertex
100
AcDb2dVertex
 10
36.243266
 20
276.296658
 30
0.0
  0
VERTEX
  5
31
100
AcDbEntity
  8
CALQUE_1
 62
     7
100
AcDbVertex
100
AcDb2dVertex
 10
36.904724
 20
276.296658
 30
0.0
  0
VERTEX
  5
32
100
AcDbEntity
  8
CALQUE_1
 62
     7
100
AcDbVertex
100
AcDb2dVertex
 10
36.904724
 20
276.015538
 30
0.0
  0
VERTEX
  5
33
100
AcDbEntity
  8
CALQUE_1
 62
     7
100
AcDbVertex
100
AcDb2dVertex
 10
36.243266
 20
276.015538
 30
0.0
  0
VERTEX
  5
34
100
AcDbEntity
  8
CALQUE_1
 62
     7
100
AcDbVertex
100
AcDb2dVertex
 10
36.243266
 20
275.773003
 30
0.0
  0
VERTEX
  5
35
100
AcDbEntity
  8
CALQUE_1
 62
     7
100
AcDbVertex
100
AcDb2dVertex
 10
36.932285
 20
275.773003
 30
0.0
  0
SEQEND
  5
36
100
AcDbEntity
  8
CALQUE_1
 62
     7
  0
ENDSEC
  0
SECTION
  2
OBJECTS
  0
DICTIONARY
  5
19
100
AcDbDictionary
280
     0
281
     1
  3
ACAD_GROUP
350
1A
  3
ACAD_MLINESTYLE
350
1B
  3
ACAD_LAYOUT
350
1E
  3
ACAD_PLOTSETTINGS
350
22
  3
ACAD_PLOTSTYLENAME
350
1F
  3
ACAD_WIPEOUT_VARS
350
23
  0
DICTIONARY
  5
1A
102
{ACAD_REACTORS
330
19
102
}
100
AcDbDictionary
280
     0
281
     1
  0
DICTIONARY
  5
1B
102
{ACAD_REACTORS
330
19
102
}
100
AcDbDictionary
280
     0
281
     1
  3
Standard
350
1C
  0
MLINESTYLE
  5
1C
102
{ACAD_REACTORS
330
1B
102
}
100
AcDbMlineStyle
  2
Standard
 70
     0
  3

 62
     0
 51
90.0
 52
90.0
 71
     2
 49
0.5
 62
   256
  6
ByLayer
 49
-0.5
 62
   256
  6
ByLayer
  0
ACDBDICTIONARYWDFLT
  5
1F
102
{ACAD_REACTORS
330
19
102
}
100
AcDbDictionary
281
     1
  3
Normal
350
1D
100
AcDbDictionaryWithDefault
340
1D
  0
ACDBPLACEHOLDER
  5
1D
102
{ACAD_REACTORS
330
1F
102
}
  0
LAYOUT
  5
20
102
{ACAD_REACTORS
330
1E
102
}
100
AcDbPlotSettings
  1

  2

  4

  6

 40
0.0
 41
0.0
 42
0.0
 43
0.0
 44
0.0
 45
0.0
 46
0.0
 47
0.0
 48
0.0
 49
0.0
140
0.0
141
0.0
142
1.0
143
1.0
 70
  1024
 72
     0
 73
     0
 74
     0
  7

 75
     0
147
1.0
148
0.0
149
0.0
100
AcDbLayout
  1
Model
 70
     0
 71
     0
 10
0.0
 20
0.0
 11
0.0
 21
0.0
 12
0.0
 22
0.0
 32
0.0
 14
0.0
 24
0.0
 34
0.0
 15
0.0
 25
0.0
 35
0.0
146
0.0
 13
0.0
 23
0.0
 33
0.0
 16
0.0
 26
0.0
 36
0.0
 17
0.0
 27
0.0
 37
0.0
 76
     0
330
A
331
0
345
0
346
0
  0
LAYOUT
  5
21
102
{ACAD_REACTORS
330
1E
102
}
100
AcDbPlotSettings
  1

  2

  4

  6

 40
0.0
 41
0.0
 42
0.0
 43
0.0
 44
0.0
 45
0.0
 46
0.0
 47
0.0
 48
0.0
 49
0.0
140
0.0
141
0.0
142
1.0
143
1.0
 70
     0
 72
     0
 73
     0
 74
     0
  7

 75
     0
147
1.0
148
0.0
149
0.0
100
AcDbLayout
  1
Layout1
 70
     0
 71
     0
 10
0.0
 20
0.0
 11
0.0
 21
0.0
 12
0.0
 22
0.0
 32
0.0
 14
0.0
 24
0.0
 34
0.0
 15
0.0
 25
0.0
 35
0.0
146
0.0
 13
0.0
 23
0.0
 33
0.0
 16
0.0
 26
0.0
 36
0.0
 17
0.0
 27
0.0
 37
0.0
 76
     0
330
B
331
0
345
0
346
0
  0
DICTIONARY
  5
1E
102
{ACAD_REACTORS
330
19
102
}
100
AcDbDictionary
280
     0
281
     1
  3
Layout1
350
21
  3
Model
350
20
  0
DICTIONARY
  5
22
102
{ACAD_REACTORS
330
19
102
}
100
AcDbDictionary
280
     0
281
     1
  0
WIPEOUTVARIABLES
  5
23
100
AcDbWipeoutVariables
 70
     1
  0
ENDSEC
  0
EOF
