  0
SECTION
  2
HEADER
  9
$ACADVER
  1
AC1018
  9
$ACADMAINTVER
 70
     0
  9
$DWGCODEPAGE
  3
ANSI_1252
  9
$INSBASE
 10
0.0
 20
0.0
 30
0.0
  9
$EXTMIN
 10
1.000000000000000E+20
 20
1.000000000000000E+20
 30
1.000000000000000E+20
  9
$EXTMAX
 10
-1.000000000000000E+20
 20
-1.000000000000000E+20
 30
-1.000000000000000E+20
  9
$LIMMIN
 10
0.0
 20
0.0
  9
$LIMMAX
 10
12.0
 20
9.0
  9
$ORTHOMODE
 70
     0
  9
$REGENMODE
 70
     1
  9
$FILLMODE
 70
     1
  9
$QTEXTMODE
 70
     0
  9
$MIRRTEXT
 70
     1
  9
$LTSCALE
 40
1.0
  9
$ATTMODE
 70
     1
  9
$TEXTSIZE
 40
0.2
  9
$TRACEWID
 40
0.05
  9
$TEXTSTYLE
  7
Standard
  9
$CLAYER
  8
0
  9
$CELTYPE
  6
ByLayer
  9
$CECOLOR
 62
   256
  9
$CELTSCALE
 40
1.0
  9
$DISPSILH
 70
     0
  9
$DIMSCALE
 40
1.0
  9
$DIMASZ
 40
0.18
  9
$DIMEXO
 40
0.0625
  9
$DIMDLI
 40
0.38
  9
$DIMRND
 40
0.0
  9
$DIMDLE
 40
0.0
  9
$DIMEXE
 40
0.18
  9
$DIMTP
 40
0.0
  9
$DIMTM
 40
0.0
  9
$DIMTXT
 40
0.18
  9
$DIMCEN
 40
0.09
  9
$DIMTSZ
 40
0.0
  9
$DIMTOL
 70
     0
  9
$DIMLIM
 70
     0
  9
$DIMTIH
 70
     1
  9
$DIMTOH
 70
     1
  9
$DIMSE1
 70
     0
  9
$DIMSE2
 70
     0
  9
$DIMTAD
 70
     0
  9
$DIMZIN
 70
     0
  9
$DIMBLK
  1

  9
$DIMASO
 70
     1
  9
$DIMSHO
 70
     1
  9
$DIMPOST
  1

  9
$DIMAPOST
  1

  9
$DIMALT
 70
     0
  9
$DIMALTD
 70
     2
  9
$DIMALTF
 40
25.4
  9
$DIMLFAC
 40
1.0
  9
$DIMTOFL
 70
     0
  9
$DIMTVP
 40
0.0
  9
$DIMTIX
 70
     0
  9
$DIMSOXD
 70
     0
  9
$DIMSAH
 70
     0
  9
$DIMBLK1
  1

  9
$DIMBLK2
  1

  9
$DIMSTYLE
  2
Standard
  9
$DIMCLRD
 70
     0
  9
$DIMCLRE
 70
     0
  9
$DIMCLRT
 70
     0
  9
$DIMTFAC
 40
1.0
  9
$DIMGAP
 40
0.09
  9
$DIMJUST
 70
     0
  9
$DIMSD1
 70
     0
  9
$DIMSD2
 70
     0
  9
$DIMTOLJ
 70
     1
  9
$DIMTZIN
 70
     0
  9
$DIMALTZ
 70
     0
  9
$DIMALTTZ
 70
     0
  9
$DIMUPT
 70
     0
  9
$DIMDEC
 70
     4
  9
$DIMTDEC
 70
     4
  9
$DIMALTU
 70
     2
  9
$DIMALTTD
 70
     2
  9
$DIMTXSTY
  7
Standard
  9
$DIMAUNIT
 70
     0
  9
$DIMADEC
 70
     0
  9
$DIMALTRND
 40
0.0
  9
$DIMAZIN
 70
     0
  9
$DIMDSEP
 70
    46
  9
$DIMATFIT
 70
     3
  9
$DIMFRAC
 70
     0
  9
$DIMLDRBLK
  1

  9
$DIMLUNIT
 70
     2
  9
$DIMLWD
 70
    -2
  9
$DIMLWE
 70
    -2
  9
$DIMTMOVE
 70
     0
  9
$LUNITS
 70
     2
  9
$LUPREC
 70
     4
  9
$SKETCHINC
 40
0.1
  9
$FILLETRAD
 40
0.5
  9
$AUNITS
 70
     0
  9
$AUPREC
 70
     0
  9
$MENU
  1
.
  9
$ELEVATION
 40
0.0
  9
$PELEVATION
 40
0.0
  9
$THICKNESS
 40
0.0
  9
$LIMCHECK
 70
     0
  9
$CHAMFERA
 40
0.5
  9
$CHAMFERB
 40
0.5
  9
$CHAMFERC
 40
1.0
  9
$CHAMFERD
 40
0.0
  9
$SKPOLY
 70
     0
  9
$TDCREATE
 40
2460282.633203484
  9
$TDUCREATE
 40
2460282.591536817
  9
$TDUPDATE
 40
2460282.633203495
  9
$TDUUPDATE
 40
2460282.591536829
  9
$TDINDWG
 40
0.0000000116
  9
$TDUSRTIMER
 40
0.0000000116
  9
$USRTIMER
 70
     1
  9
$ANGBASE
 50
0.0
  9
$ANGDIR
 70
     0
  9
$PDMODE
 70
     0
  9
$PDSIZE
 40
0.0
  9
$PLINEWID
 40
0.0
  9
$SPLFRAME
 70
     0
  9
$SPLINETYPE
 70
     6
  9
$SPLINESEGS
 70
     8
  9
$HANDSEED
  5
9E
  9
$SURFTAB1
 70
     6
  9
$SURFTAB2
 70
     6
  9
$SURFTYPE
 70
     6
  9
$SURFU
 70
     6
  9
$SURFV
 70
     6
  9
$UCSBASE
  2

  9
$UCSNAME
  2

  9
$UCSORG
 10
0.0
 20
0.0
 30
0.0
  9
$UCSXDIR
 10
1.0
 20
0.0
 30
0.0
  9
$UCSYDIR
 10
0.0
 20
1.0
 30
0.0
  9
$UCSORTHOREF
  2

  9
$UCSORTHOVIEW
 70
     0
  9
$UCSORGTOP
 10
0.0
 20
0.0
 30
0.0
  9
$UCSORGBOTTOM
 10
0.0
 20
0.0
 30
0.0
  9
$UCSORGLEFT
 10
0.0
 20
0.0
 30
0.0
  9
$UCSORGRIGHT
 10
0.0
 20
0.0
 30
0.0
  9
$UCSORGFRONT
 10
0.0
 20
0.0
 30
0.0
  9
$UCSORGBACK
 10
0.0
 20
0.0
 30
0.0
  9
$PUCSBASE
  2

  9
$PUCSNAME
  2

  9
$PUCSORG
 10
0.0
 20
0.0
 30
0.0
  9
$PUCSXDIR
 10
1.0
 20
0.0
 30
0.0
  9
$PUCSYDIR
 10
0.0
 20
1.0
 30
0.0
  9
$PUCSORTHOREF
  2

  9
$PUCSORTHOVIEW
 70
     0
  9
$PUCSORGTOP
 10
0.0
 20
0.0
 30
0.0
  9
$PUCSORGBOTTOM
 10
0.0
 20
0.0
 30
0.0
  9
$PUCSORGLEFT
 10
0.0
 20
0.0
 30
0.0
  9
$PUCSORGRIGHT
 10
0.0
 20
0.0
 30
0.0
  9
$PUCSORGFRONT
 10
0.0
 20
0.0
 30
0.0
  9
$PUCSORGBACK
 10
0.0
 20
0.0
 30
0.0
  9
$USERI1
 70
     0
  9
$USERI2
 70
     0
  9
$USERI3
 70
     0
  9
$USERI4
 70
     0
  9
$USERI5
 70
     0
  9
$USERR1
 40
0.0
  9
$USERR2
 40
0.0
  9
$USERR3
 40
0.0
  9
$USERR4
 40
0.0
  9
$USERR5
 40
0.0
  9
$WORLDVIEW
 70
     1
  9
$SHADEDGE
 70
     3
  9
$SHADEDIF
 70
    70
  9
$TILEMODE
 70
     1
  9
$MAXACTVP
 70
    64
  9
$PINSBASE
 10
0.0
 20
0.0
 30
0.0
  9
$PLIMCHECK
 70
     0
  9
$PEXTMIN
 10
1.000000000000000E+20
 20
1.000000000000000E+20
 30
1.000000000000000E+20
  9
$PEXTMAX
 10
-1.000000000000000E+20
 20
-1.000000000000000E+20
 30
-1.000000000000000E+20
  9
$PLIMMIN
 10
0.0
 20
0.0
  9
$PLIMMAX
 10
12.0
 20
9.0
  9
$UNITMODE
 70
     0
  9
$VISRETAIN
 70
     1
  9
$PLINEGEN
 70
     0
  9
$PSLTSCALE
 70
     1
  9
$TREEDEPTH
 70
  3020
  9
$CMLSTYLE
  2
Standard
  9
$CMLJUST
 70
     0
  9
$CMLSCALE
 40
1.0
  9
$PROXYGRAPHICS
 70
     1
  9
$MEASUREMENT
 70
     0
  9
$CELWEIGHT
370
    -1
  9
$ENDCAPS
280
     0
  9
$JOINSTYLE
280
     0
  9
$LWDISPLAY
290
     1
  9
$INSUNITS
 70
     1
  9
$HYPERLINKBASE
  1

  9
$STYLESHEET
  1

  9
$XEDIT
290
     1
  9
$CEPSNTYPE
380
     0
  9
$PSTYLEMODE
290
     1
  9
$FINGERPRINTGUID
  2
{994AC0FB-F146-4084-9B65-6709FC60E89A}
  9
$VERSIONGUID
  2
{FAEB1C32-E019-11D5-929B-00C0DF256EC4}
  9
$EXTNAMES
290
     1
  9
$PSVPSCALE
 40
0.0
  9
$OLESTARTUP
290
     0
  9
$SORTENTS
280
   127
  9
$INDEXCTL
280
     0
  9
$HIDETEXT
280
     1
  9
$XCLIPFRAME
290
     0
  9
$HALOGAP
280
     0
  9
$OBSCOLOR
 70
   257
  9
$OBSLTYPE
280
     0
  9
$INTERSECTIONDISPLAY
280
     0
  9
$INTERSECTIONCOLOR
 70
   257
  9
$DIMASSOC
280
     2
  9
$PROJECTNAME
  1

  0
ENDSEC
  0
SECTION
  2
CLASSES
  0
CLASS
  1
ACDBDICTIONARYWDFLT
  2
AcDbDictionaryWithDefault
  3
ObjectDBX Classes
 90
        0
 91
        3
280
     0
281
     0
  0
CLASS
  1
VISUALSTYLE
  2
AcDbVisualStyle
  3
ObjectDBX Classes
 90
     4095
 91
        3
280
     0
281
     0
  0
ENDSEC
  0
SECTION
  2
TABLES
  0
TABLE
  2
VPORT
  5
8
330
0
100
AcDbSymbolTable
 70
     1
  0
VPORT
  5
29
330
8
100
AcDbSymbolTableRecord
100
AcDbViewportTableRecord
  2
*Active
 70
     0
 10
0.0
 20
0.0
 11
1.0
 21
1.0
 12
0.0
 22
0.0
 13
0.0
 23
0.0
 14
0.5
 24
0.5
 15
0.5
 25
0.5
 16
0.0
 26
0.0
 36
1.0
 17
500.0008326657984
 27
-149.9992851730037
 37
0.0
 40
299.9985703460073
 41
3.333354769585174
 42
50.0
 43
0.0
 44
0.0
 50
0.0
 51
0.0
 71
     0
 72
   100
 73
     1
 74
     3
 75
     0
 76
     0
 77
     0
 78
     0
281
     0
 65
     1
110
0.0
120
0.0
130
0.0
111
1.0
121
0.0
131
0.0
112
0.0
122
1.0
132
0.0
 79
     0
146
0.0
  0
ENDTAB
  0
TABLE
  2
LTYPE
  5
5
330
0
100
AcDbSymbolTable
 70
     1
  0
LTYPE
  5
14
330
5
100
AcDbSymbolTableRecord
100
AcDbLinetypeTableRecord
  2
ByBlock
 70
     0
  3

 72
    65
 73
     0
 40
0.0
  0
LTYPE
  5
15
330
5
100
AcDbSymbolTableRecord
100
AcDbLinetypeTableRecord
  2
ByLayer
 70
     0
  3

 72
    65
 73
     0
 40
0.0
  0
LTYPE
  5
16
330
5
100
AcDbSymbolTableRecord
100
AcDbLinetypeTableRecord
  2
Continuous
 70
     0
  3
Solid line
 72
    65
 73
     0
 40
0.0
  0
ENDTAB
  0
TABLE
  2
LAYER
  5
2
330
0
100
AcDbSymbolTable
 70
     2
  0
LAYER
  5
10
330
2
100
AcDbSymbolTableRecord
100
AcDbLayerTableRecord
  2
0
 70
     0
 62
     7
  6
Continuous
370
    -3
390
F
  0
LAYER
  5
3B
330
2
100
AcDbSymbolTableRecord
100
AcDbLayerTableRecord
  2
Calque 1
 70
     0
 62
     7
  6
Continuous
370
    -3
390
F
  0
ENDTAB
  0
TABLE
  2
STYLE
  5
3
330
0
100
AcDbSymbolTable
 70
     1
  0
STYLE
  5
11
330
3
100
AcDbSymbolTableRecord
100
AcDbTextStyleTableRecord
  2
Standard
 70
     0
 40
0.0
 41
1.0
 50
0.0
 71
     0
 42
0.2
  3
txt
  4

  0
ENDTAB
  0
TABLE
  2
VIEW
  5
6
330
0
100
AcDbSymbolTable
 70
     0
  0
ENDTAB
  0
TABLE
  2
UCS
  5
7
330
0
100
AcDbSymbolTable
 70
     0
  0
ENDTAB
  0
TABLE
  2
APPID
  5
9
330
0
100
AcDbSymbolTable
 70
     1
  0
APPID
  5
12
330
9
100
AcDbSymbolTableRecord
100
AcDbRegAppTableRecord
  2
ACAD
 70
     0
  0
ENDTAB
  0
TABLE
  2
DIMSTYLE
  5
A
330
0
100
AcDbSymbolTable
 70
     1
100
AcDbDimStyleTable
  0
DIMSTYLE
105
27
330
A
100
AcDbSymbolTableRecord
100
AcDbDimStyleTableRecord
  2
Standard
 70
     0
340
11
  0
ENDTAB
  0
TABLE
  2
BLOCK_RECORD
  5
1
330
0
100
AcDbSymbolTable
 70
    10
  0
BLOCK_RECORD
  5
1F
330
1
100
AcDbSymbolTableRecord
100
AcDbBlockTableRecord
  2
*Model_Space
340
22
  0
BLOCK_RECORD
  5
1B
330
1
100
AcDbSymbolTableRecord
100
AcDbBlockTableRecord
  2
*Paper_Space
340
1E
  0
BLOCK_RECORD
  5
23
330
1
100
AcDbSymbolTableRecord
100
AcDbBlockTableRecord
  2
*Paper_Space0
340
26
  0
BLOCK_RECORD
  5
3C
330
1
100
AcDbSymbolTableRecord
100
AcDbBlockTableRecord
  2
block 2
340
0
102
{BLKREFS
331
3D
102
}
  0
BLOCK_RECORD
  5
43
330
1
100
AcDbSymbolTableRecord
100
AcDbBlockTableRecord
  2
block 3
340
0
102
{BLKREFS
331
44
102
}
  0
BLOCK_RECORD
  5
4A
330
1
100
AcDbSymbolTableRecord
100
AcDbBlockTableRecord
  2
block 4
340
0
102
{BLKREFS
331
4B
102
}
  0
BLOCK_RECORD
  5
51
330
1
100
AcDbSymbolTableRecord
100
AcDbBlockTableRecord
  2
block 5
340
0
102
{BLKREFS
331
52
102
}
  0
BLOCK_RECORD
  5
58
330
1
100
AcDbSymbolTableRecord
100
AcDbBlockTableRecord
  2
block 6
340
0
102
{BLKREFS
331
59
102
}
  0
BLOCK_RECORD
  5
5F
330
1
100
AcDbSymbolTableRecord
100
AcDbBlockTableRecord
  2
block 7
340
0
102
{BLKREFS
331
60
102
}
  0
BLOCK_RECORD
  5
72
330
1
100
AcDbSymbolTableRecord
100
AcDbBlockTableRecord
  2
block 8
340
0
102
{BLKREFS
331
73
102
}
  0
BLOCK_RECORD
  5
79
330
1
100
AcDbSymbolTableRecord
100
AcDbBlockTableRecord
  2
block 9
340
0
102
{BLKREFS
331
7A
102
}
  0
BLOCK_RECORD
  5
96
330
1
100
AcDbSymbolTableRecord
100
AcDbBlockTableRecord
  2
block 10
340
0
102
{BLKREFS
331
97
102
}
  0
ENDTAB
  0
ENDSEC
  0
SECTION
  2
BLOCKS
  0
BLOCK
  5
20
330
1F
100
AcDbEntity
  8
0
100
AcDbBlockBegin
  2
*Model_Space
 70
     0
 71
     0
 10
0.0
 20
0.0
 30
0.0
  3
*Model_Space
  1

  0
ENDBLK
  5
21
330
1F
100
AcDbEntity
  8
0
100
AcDbBlockEnd
  0
BLOCK
  5
1C
330
1B
100
AcDbEntity
 67
     1
  8
0
100
AcDbBlockBegin
  2
*Paper_Space
 70
     0
 71
     0
 10
0.0
 20
0.0
 30
0.0
  3
*Paper_Space
  1

  0
ENDBLK
  5
1D
330
1B
100
AcDbEntity
 67
     1
  8
0
100
AcDbBlockEnd
  0
BLOCK
  5
24
330
23
100
AcDbEntity
  8
0
100
AcDbBlockBegin
  2
*Paper_Space0
 70
     0
 71
     0
 10
0.0
 20
0.0
 30
0.0
  3
*Paper_Space0
  1

  0
ENDBLK
  5
25
330
23
100
AcDbEntity
  8
0
100
AcDbBlockEnd
  0
BLOCK
  5
3E
330
3C
100
AcDbEntity
  8
0
100
AcDbBlockBegin
  2
block 2
 70
     0
 71
     0
 10
0.0
 20
0.0
 30
0.0
  3
block 2
  1

  0
SPLINE
  5
40
330
3C
100
AcDbEntity
  8
Calque 1
 62
   250
370
    35
100
AcDbSpline
210
0.0
220
0.0
230
1.0
 70
    11
 71
     3
 72
    17
 73
    13
 74
     0
 42
0.0000000001
 43
0.0000000001
 40
0.0
 40
0.0
 40
0.0
 40
0.0
 40
1.0
 40
1.0
 40
1.0
 40
2.0
 40
2.0
 40
2.0
 40
3.0
 40
3.0
 40
3.0
 40
4.0
 40
4.0
 40
4.0
 40
4.0
 10
639.5464923531342
 20
-85.82869735267478
 30
0.0
 10
620.2164060949459
 20
-85.82869735267478
 30
0.0
 10
604.5467337898356
 20
-101.4987141673337
 30
0.0
 10
604.5467337898356
 20
-120.828800425522
 30
0.0
 10
604.5467337898356
 20
-140.1588866837103
 30
0.0
 10
620.2164060949459
 20
-155.8289034983692
 30
0.0
 10
639.5464923531342
 20
-155.8289034983692
 30
0.0
 10
658.8765786113225
 20
-155.8289034983692
 30
0.0
 10
674.5462509164329
 20
-140.1588866837103
 30
0.0
 10
674.5462509164329
 20
-120.828800425522
 30
0.0
 10
674.5462509164329
 20
-101.4987141673337
 30
0.0
 10
658.8765786113225
 20
-85.82869735267478
 30
0.0
 10
639.5464923531342
 20
-85.82869735267478
 30
0.0
  0
SPLINE
  5
41
330
3C
100
AcDbEntity
  8
Calque 1
 62
   250
370
    35
100
AcDbSpline
210
0.0
220
0.0
230
1.0
 70
    11
 71
     3
 72
    17
 73
    13
 74
     0
 42
0.0000000001
 43
0.0000000001
 40
0.0
 40
0.0
 40
0.0
 40
0.0
 40
1.0
 40
1.0
 40
1.0
 40
2.0
 40
2.0
 40
2.0
 40
3.0
 40
3.0
 40
3.0
 40
4.0
 40
4.0
 40
4.0
 40
4.0
 10
639.5464923531342
 20
-121.82891164489
 30
0.0
 10
638.7179468889317
 20
-121.82891164489
 30
0.0
 10
638.0464977788564
 20
-121.1574625348148
 30
0.0
 10
638.0464977788564
 20
-120.3290893253865
 30
0.0
 10
638.0464977788564
 20
-119.5007161159582
 30
0.0
 10
638.7179468889317
 20
-118.8290947511087
 30
0.0
 10
639.5464923531342
 20
-118.8290947511087
 30
0.0
 10
640.3750378173369
 20
-118.8290947511087
 30
0.0
 10
641.046486927412
 20
-119.5007161159582
 30
0.0
 10
641.046486927412
 20
-120.3290893253865
 30
0.0
 10
641.046486927412
 20
-121.1574625348148
 30
0.0
 10
640.3750378173369
 20
-121.82891164489
 30
0.0
 10
639.5464923531342
 20
-121.82891164489
 30
0.0
  0
SPLINE
  5
42
330
3C
100
AcDbEntity
  8
Calque 1
 62
   250
370
    35
100
AcDbSpline
210
0.0
220
0.0
230
1.0
 70
    11
 71
     3
 72
    17
 73
    13
 74
     0
 42
0.0000000001
 43
0.0000000001
 40
0.0
 40
0.0
 40
0.0
 40
0.0
 40
1.0
 40
1.0
 40
1.0
 40
2.0
 40
2.0
 40
2.0
 40
3.0
 40
3.0
 40
3.0
 40
4.0
 40
4.0
 40
4.0
 40
4.0
 10
641.046486927412
 20
-120.3290893253865
 30
0.0
 10
641.046486927412
 20
-121.1574625348148
 30
0.0
 10
640.3750378173369
 20
-121.82891164489
 30
0.0
 10
639.5464923531342
 20
-121.82891164489
 30
0.0
 10
638.7179468889317
 20
-121.82891164489
 30
0.0
 10
638.0464977788564
 20
-121.1574625348148
 30
0.0
 10
638.0464977788564
 20
-120.3290893253865
 30
0.0
 10
638.0464977788564
 20
-119.5007161159582
 30
0.0
 10
638.7179468889317
 20
-118.8290947511087
 30
0.0
 10
639.5464923531342
 20
-118.8290947511087
 30
0.0
 10
640.3750378173369
 20
-118.8290947511087
 30
0.0
 10
641.046486927412
 20
-119.5007161159582
 30
0.0
 10
641.046486927412
 20
-120.3290893253865
 30
0.0
  0
ENDBLK
  5
3F
330
3C
100
AcDbEntity
  8
0
100
AcDbBlockEnd
  0
BLOCK
  5
45
330
43
100
AcDbEntity
  8
0
100
AcDbBlockBegin
  2
block 3
 70
     0
 71
     0
 10
0.0
 20
0.0
 30
0.0
  3
block 3
  1

  0
SPLINE
  5
47
330
43
100
AcDbEntity
  8
Calque 1
 62
   250
370
    35
100
AcDbSpline
210
0.0
220
0.0
230
1.0
 70
    11
 71
     3
 72
    17
 73
    13
 74
     0
 42
0.0000000001
 43
0.0000000001
 40
0.0
 40
0.0
 40
0.0
 40
0.0
 40
1.0
 40
1.0
 40
1.0
 40
2.0
 40
2.0
 40
2.0
 40
3.0
 40
3.0
 40
3.0
 40
4.0
 40
4.0
 40
4.0
 40
4.0
 10
715.2087129288367
 20
-85.82869735267478
 30
0.0
 10
695.8789711801969
 20
-85.82869735267478
 30
0.0
 10
680.208954365538
 20
-101.4987141673337
 30
0.0
 10
680.208954365538
 20
-120.828800425522
 30
0.0
 10
680.208954365538
 20
-140.1588866837103
 30
0.0
 10
695.8789711801969
 20
-155.8289034983692
 30
0.0
 10
715.2087129288367
 20
-155.8289034983692
 30
0.0
 10
734.538799187025
 20
-155.8289034983692
 30
0.0
 10
750.2088160016839
 20
-140.1588866837103
 30
0.0
 10
750.2088160016839
 20
-120.828800425522
 30
0.0
 10
750.2088160016839
 20
-101.4987141673337
 30
0.0
 10
734.538799187025
 20
-85.82869735267478
 30
0.0
 10
715.2087129288367
 20
-85.82869735267478
 30
0.0
  0
SPLINE
  5
48
330
43
100
AcDbEntity
  8
Calque 1
 62
   250
370
    35
100
AcDbSpline
210
0.0
220
0.0
230
1.0
 70
    11
 71
     3
 72
    17
 73
    13
 74
     0
 42
0.0000000001
 43
0.0000000001
 40
0.0
 40
0.0
 40
0.0
 40
0.0
 40
1.0
 40
1.0
 40
1.0
 40
2.0
 40
2.0
 40
2.0
 40
3.0
 40
3.0
 40
3.0
 40
4.0
 40
4.0
 40
4.0
 40
4.0
 10
715.2087129288367
 20
-121.82891164489
 30
0.0
 10
714.3805119741827
 20
-121.82891164489
 30
0.0
 10
713.708718354559
 20
-121.1574625348148
 30
0.0
 10
713.708718354559
 20
-120.3290893253865
 30
0.0
 10
713.708718354559
 20
-119.5007161159582
 30
0.0
 10
714.3805119741827
 20
-118.8290947511087
 30
0.0
 10
715.2087129288367
 20
-118.8290947511087
 30
0.0
 10
716.0372583930393
 20
-118.8290947511087
 30
0.0
 10
716.7087075031145
 20
-119.5007161159582
 30
0.0
 10
716.7087075031145
 20
-120.3290893253865
 30
0.0
 10
716.7087075031145
 20
-121.1574625348148
 30
0.0
 10
716.0372583930393
 20
-121.82891164489
 30
0.0
 10
715.2087129288367
 20
-121.82891164489
 30
0.0
  0
SPLINE
  5
49
330
43
100
AcDbEntity
  8
Calque 1
 62
   250
370
    35
100
AcDbSpline
210
0.0
220
0.0
230
1.0
 70
    11
 71
     3
 72
    17
 73
    13
 74
     0
 42
0.0000000001
 43
0.0000000001
 40
0.0
 40
0.0
 40
0.0
 40
0.0
 40
1.0
 40
1.0
 40
1.0
 40
2.0
 40
2.0
 40
2.0
 40
3.0
 40
3.0
 40
3.0
 40
4.0
 40
4.0
 40
4.0
 40
4.0
 10
716.7087075031145
 20
-120.3290893253865
 30
0.0
 10
716.7087075031145
 20
-121.1574625348148
 30
0.0
 10
716.0372583930393
 20
-121.82891164489
 30
0.0
 10
715.2087129288367
 20
-121.82891164489
 30
0.0
 10
714.3805119741827
 20
-121.82891164489
 30
0.0
 10
713.708718354559
 20
-121.1574625348148
 30
0.0
 10
713.708718354559
 20
-120.3290893253865
 30
0.0
 10
713.708718354559
 20
-119.5007161159582
 30
0.0
 10
714.3805119741827
 20
-118.8290947511087
 30
0.0
 10
715.2087129288367
 20
-118.8290947511087
 30
0.0
 10
716.0372583930393
 20
-118.8290947511087
 30
0.0
 10
716.7087075031145
 20
-119.5007161159582
 30
0.0
 10
716.7087075031145
 20
-120.3290893253865
 30
0.0
  0
ENDBLK
  5
46
330
43
100
AcDbEntity
  8
0
100
AcDbBlockEnd
  0
BLOCK
  5
4C
330
4A
100
AcDbEntity
  8
0
100
AcDbBlockBegin
  2
block 4
 70
     0
 71
     0
 10
0.0
 20
0.0
 30
0.0
  3
block 4
  1

  0
SPLINE
  5
4E
330
4A
100
AcDbEntity
  8
Calque 1
 62
   250
370
    35
100
AcDbSpline
210
0.0
220
0.0
230
1.0
 70
    11
 71
     3
 72
    17
 73
    13
 74
     0
 42
0.0000000001
 43
0.0000000001
 40
0.0
 40
0.0
 40
0.0
 40
0.0
 40
1.0
 40
1.0
 40
1.0
 40
2.0
 40
2.0
 40
2.0
 40
3.0
 40
3.0
 40
3.0
 40
4.0
 40
4.0
 40
4.0
 40
4.0
 10
790.8712780140878
 20
-85.82869735267478
 30
0.0
 10
771.541536265448
 20
-85.82869735267478
 30
0.0
 10
755.8711749412406
 20
-101.4987141673337
 30
0.0
 10
755.8711749412406
 20
-120.828800425522
 30
0.0
 10
755.8711749412406
 20
-140.1588866837103
 30
0.0
 10
771.541536265448
 20
-155.8289034983692
 30
0.0
 10
790.8712780140878
 20
-155.8289034983692
 30
0.0
 10
810.2010197627276
 20
-155.8289034983692
 30
0.0
 10
825.871381086935
 20
-140.1588866837103
 30
0.0
 10
825.871381086935
 20
-120.828800425522
 30
0.0
 10
825.871381086935
 20
-101.4987141673337
 30
0.0
 10
810.2010197627276
 20
-85.82869735267478
 30
0.0
 10
790.8712780140878
 20
-85.82869735267478
 30
0.0
  0
SPLINE
  5
4F
330
4A
100
AcDbEntity
  8
Calque 1
 62
   250
370
    35
100
AcDbSpline
210
0.0
220
0.0
230
1.0
 70
    11
 71
     3
 72
    17
 73
    13
 74
     0
 42
0.0000000001
 43
0.0000000001
 40
0.0
 40
0.0
 40
0.0
 40
0.0
 40
1.0
 40
1.0
 40
1.0
 40
2.0
 40
2.0
 40
2.0
 40
3.0
 40
3.0
 40
3.0
 40
4.0
 40
4.0
 40
4.0
 40
4.0
 10
790.8712780140878
 20
-121.82891164489
 30
0.0
 10
790.0430770594337
 20
-121.82891164489
 30
0.0
 10
789.37128343981
 20
-121.1574625348148
 30
0.0
 10
789.37128343981
 20
-120.3290893253865
 30
0.0
 10
789.37128343981
 20
-119.5007161159582
 30
0.0
 10
790.0430770594337
 20
-118.8290947511087
 30
0.0
 10
790.8712780140878
 20
-118.8290947511087
 30
0.0
 10
791.6994789687418
 20
-118.8290947511087
 30
0.0
 10
792.3712725883655
 20
-119.5007161159582
 30
0.0
 10
792.3712725883655
 20
-120.3290893253865
 30
0.0
 10
792.3712725883655
 20
-121.1574625348148
 30
0.0
 10
791.6994789687418
 20
-121.82891164489
 30
0.0
 10
790.8712780140878
 20
-121.82891164489
 30
0.0
  0
SPLINE
  5
50
330
4A
100
AcDbEntity
  8
Calque 1
 62
   250
370
    35
100
AcDbSpline
210
0.0
220
0.0
230
1.0
 70
    11
 71
     3
 72
    17
 73
    13
 74
     0
 42
0.0000000001
 43
0.0000000001
 40
0.0
 40
0.0
 40
0.0
 40
0.0
 40
1.0
 40
1.0
 40
1.0
 40
2.0
 40
2.0
 40
2.0
 40
3.0
 40
3.0
 40
3.0
 40
4.0
 40
4.0
 40
4.0
 40
4.0
 10
792.3712725883655
 20
-120.3290893253865
 30
0.0
 10
792.3712725883655
 20
-121.1574625348148
 30
0.0
 10
791.6994789687418
 20
-121.82891164489
 30
0.0
 10
790.8712780140878
 20
-121.82891164489
 30
0.0
 10
790.0430770594337
 20
-121.82891164489
 30
0.0
 10
789.37128343981
 20
-121.1574625348148
 30
0.0
 10
789.37128343981
 20
-120.3290893253865
 30
0.0
 10
789.37128343981
 20
-119.5007161159582
 30
0.0
 10
790.0430770594337
 20
-118.8290947511087
 30
0.0
 10
790.8712780140878
 20
-118.8290947511087
 30
0.0
 10
791.6994789687418
 20
-118.8290947511087
 30
0.0
 10
792.3712725883655
 20
-119.5007161159582
 30
0.0
 10
792.3712725883655
 20
-120.3290893253865
 30
0.0
  0
ENDBLK
  5
4D
330
4A
100
AcDbEntity
  8
0
100
AcDbBlockEnd
  0
BLOCK
  5
53
330
51
100
AcDbEntity
  8
0
100
AcDbBlockBegin
  2
block 5
 70
     0
 71
     0
 10
0.0
 20
0.0
 30
0.0
  3
block 5
  1

  0
SPLINE
  5
55
330
51
100
AcDbEntity
  8
Calque 1
 62
   250
370
    35
100
AcDbSpline
210
0.0
220
0.0
230
1.0
 70
    11
 71
     3
 72
    17
 73
    13
 74
     0
 42
0.0000000001
 43
0.0000000001
 40
0.0
 40
0.0
 40
0.0
 40
0.0
 40
1.0
 40
1.0
 40
1.0
 40
2.0
 40
2.0
 40
2.0
 40
3.0
 40
3.0
 40
3.0
 40
4.0
 40
4.0
 40
4.0
 40
4.0
 10
866.5334985897903
 20
-7.139960393180288
 30
0.0
 10
847.2037568411505
 20
-7.139960393180288
 30
0.0
 10
831.5333955169431
 20
-22.80997720783918
 30
0.0
 10
831.5333955169431
 20
-42.14006346602748
 30
0.0
 10
831.5333955169431
 20
-61.4701497242158
 30
0.0
 10
847.2037568411505
 20
-77.14033879364895
 30
0.0
 10
866.5334985897903
 20
-77.14033879364895
 30
0.0
 10
885.86324033843
 20
-77.14033879364895
 30
0.0
 10
901.5336016626375
 20
-61.4701497242158
 30
0.0
 10
901.5336016626375
 20
-42.14006346602748
 30
0.0
 10
901.5336016626375
 20
-22.80997720783918
 30
0.0
 10
885.86324033843
 20
-7.139960393180288
 30
0.0
 10
866.5334985897903
 20
-7.139960393180288
 30
0.0
  0
SPLINE
  5
56
330
51
100
AcDbEntity
  8
Calque 1
 62
   250
370
    35
100
AcDbSpline
210
0.0
220
0.0
230
1.0
 70
    11
 71
     3
 72
    17
 73
    13
 74
     0
 42
0.0000000001
 43
0.0000000001
 40
0.0
 40
0.0
 40
0.0
 40
0.0
 40
1.0
 40
1.0
 40
1.0
 40
2.0
 40
2.0
 40
2.0
 40
3.0
 40
3.0
 40
3.0
 40
4.0
 40
4.0
 40
4.0
 40
4.0
 10
866.5334985897903
 20
-43.14034694016978
 30
0.0
 10
865.7052976351362
 20
-43.14034694016978
 30
0.0
 10
865.0335040155124
 20
-42.46872557532032
 30
0.0
 10
865.0335040155124
 20
-41.64018011111774
 30
0.0
 10
865.0335040155124
 20
-40.81215141123793
 30
0.0
 10
865.7052976351362
 20
-40.14018553683996
 30
0.0
 10
866.5334985897903
 20
-40.14018553683996
 30
0.0
 10
867.3616995444444
 20
-40.14018553683996
 30
0.0
 10
868.0334931640681
 20
-40.81215141123793
 30
0.0
 10
868.0334931640681
 20
-41.64018011111774
 30
0.0
 10
868.0334931640681
 20
-42.46872557532032
 30
0.0
 10
867.3616995444444
 20
-43.14034694016978
 30
0.0
 10
866.5334985897903
 20
-43.14034694016978
 30
0.0
  0
SPLINE
  5
57
330
51
100
AcDbEntity
  8
Calque 1
 62
   250
370
    35
100
AcDbSpline
210
0.0
220
0.0
230
1.0
 70
    11
 71
     3
 72
    17
 73
    13
 74
     0
 42
0.0000000001
 43
0.0000000001
 40
0.0
 40
0.0
 40
0.0
 40
0.0
 40
1.0
 40
1.0
 40
1.0
 40
2.0
 40
2.0
 40
2.0
 40
3.0
 40
3.0
 40
3.0
 40
4.0
 40
4.0
 40
4.0
 40
4.0
 10
868.0334931640681
 20
-41.64018011111774
 30
0.0
 10
868.0334931640681
 20
-42.46872557532032
 30
0.0
 10
867.3616995444444
 20
-43.14034694016978
 30
0.0
 10
866.5334985897903
 20
-43.14034694016978
 30
0.0
 10
865.7052976351362
 20
-43.14034694016978
 30
0.0
 10
865.0335040155124
 20
-42.46872557532032
 30
0.0
 10
865.0335040155124
 20
-41.64018011111774
 30
0.0
 10
865.0335040155124
 20
-40.81215141123793
 30
0.0
 10
865.7052976351362
 20
-40.14018553683996
 30
0.0
 10
866.5334985897903
 20
-40.14018553683996
 30
0.0
 10
867.3616995444444
 20
-40.14018553683996
 30
0.0
 10
868.0334931640681
 20
-40.81215141123793
 30
0.0
 10
868.0334931640681
 20
-41.64018011111774
 30
0.0
  0
ENDBLK
  5
54
330
51
100
AcDbEntity
  8
0
100
AcDbBlockEnd
  0
BLOCK
  5
5A
330
58
100
AcDbEntity
  8
0
100
AcDbBlockBegin
  2
block 6
 70
     0
 71
     0
 10
0.0
 20
0.0
 30
0.0
  3
block 6
  1

  0
SPLINE
  5
5C
330
58
100
AcDbEntity
  8
Calque 1
 62
   250
370
    35
100
AcDbSpline
210
0.0
220
0.0
230
1.0
 70
    11
 71
     3
 72
    17
 73
    13
 74
     0
 42
0.0000000001
 43
0.0000000001
 40
0.0
 40
0.0
 40
0.0
 40
0.0
 40
1.0
 40
1.0
 40
1.0
 40
2.0
 40
2.0
 40
2.0
 40
3.0
 40
3.0
 40
3.0
 40
4.0
 40
4.0
 40
4.0
 40
4.0
 10
866.5334985897903
 20
-85.82869735267478
 30
0.0
 10
847.2037568411505
 20
-85.82869735267478
 30
0.0
 10
831.5333955169431
 20
-101.4987141673337
 30
0.0
 10
831.5333955169431
 20
-120.828800425522
 30
0.0
 10
831.5333955169431
 20
-140.1588866837103
 30
0.0
 10
847.2037568411505
 20
-155.8289034983692
 30
0.0
 10
866.5334985897903
 20
-155.8289034983692
 30
0.0
 10
885.86324033843
 20
-155.8289034983692
 30
0.0
 10
901.5336016626375
 20
-140.1588866837103
 30
0.0
 10
901.5336016626375
 20
-120.828800425522
 30
0.0
 10
901.5336016626375
 20
-101.4987141673337
 30
0.0
 10
885.86324033843
 20
-85.82869735267478
 30
0.0
 10
866.5334985897903
 20
-85.82869735267478
 30
0.0
  0
SPLINE
  5
5D
330
58
100
AcDbEntity
  8
Calque 1
 62
   250
370
    35
100
AcDbSpline
210
0.0
220
0.0
230
1.0
 70
    11
 71
     3
 72
    17
 73
    13
 74
     0
 42
0.0000000001
 43
0.0000000001
 40
0.0
 40
0.0
 40
0.0
 40
0.0
 40
1.0
 40
1.0
 40
1.0
 40
2.0
 40
2.0
 40
2.0
 40
3.0
 40
3.0
 40
3.0
 40
4.0
 40
4.0
 40
4.0
 40
4.0
 10
866.5334985897903
 20
-121.82891164489
 30
0.0
 10
865.7052976351362
 20
-121.82891164489
 30
0.0
 10
865.0335040155124
 20
-121.1574625348148
 30
0.0
 10
865.0335040155124
 20
-120.3290893253865
 30
0.0
 10
865.0335040155124
 20
-119.5007161159582
 30
0.0
 10
865.7052976351362
 20
-118.8290947511087
 30
0.0
 10
866.5334985897903
 20
-118.8290947511087
 30
0.0
 10
867.3616995444444
 20
-118.8290947511087
 30
0.0
 10
868.0334931640681
 20
-119.5007161159582
 30
0.0
 10
868.0334931640681
 20
-120.3290893253865
 30
0.0
 10
868.0334931640681
 20
-121.1574625348148
 30
0.0
 10
867.3616995444444
 20
-121.82891164489
 30
0.0
 10
866.5334985897903
 20
-121.82891164489
 30
0.0
  0
SPLINE
  5
5E
330
58
100
AcDbEntity
  8
Calque 1
 62
   250
370
    35
100
AcDbSpline
210
0.0
220
0.0
230
1.0
 70
    11
 71
     3
 72
    17
 73
    13
 74
     0
 42
0.0000000001
 43
0.0000000001
 40
0.0
 40
0.0
 40
0.0
 40
0.0
 40
1.0
 40
1.0
 40
1.0
 40
2.0
 40
2.0
 40
2.0
 40
3.0
 40
3.0
 40
3.0
 40
4.0
 40
4.0
 40
4.0
 40
4.0
 10
868.0334931640681
 20
-120.3290893253865
 30
0.0
 10
868.0334931640681
 20
-121.1574625348148
 30
0.0
 10
867.3616995444444
 20
-121.82891164489
 30
0.0
 10
866.5334985897903
 20
-121.82891164489
 30
0.0
 10
865.7052976351362
 20
-121.82891164489
 30
0.0
 10
865.0335040155124
 20
-121.1574625348148
 30
0.0
 10
865.0335040155124
 20
-120.3290893253865
 30
0.0
 10
865.0335040155124
 20
-119.5007161159582
 30
0.0
 10
865.7052976351362
 20
-118.8290947511087
 30
0.0
 10
866.5334985897903
 20
-118.8290947511087
 30
0.0
 10
867.3616995444444
 20
-118.8290947511087
 30
0.0
 10
868.0334931640681
 20
-119.5007161159582
 30
0.0
 10
868.0334931640681
 20
-120.3290893253865
 30
0.0
  0
ENDBLK
  5
5B
330
58
100
AcDbEntity
  8
0
100
AcDbBlockEnd
  0
BLOCK
  5
61
330
5F
100
AcDbEntity
  8
0
100
AcDbBlockBegin
  2
block 7
 70
     0
 71
     0
 10
0.0
 20
0.0
 30
0.0
  3
block 7
  1

  0
SPLINE
  5
63
330
5F
100
AcDbEntity
  8
Calque 1
 62
   250
370
    35
100
AcDbSpline
210
0.0
220
0.0
230
1.0
 70
    11
 71
     3
 72
    17
 73
    13
 74
     0
 42
0.0000000001
 43
0.0000000001
 40
0.0
 40
0.0
 40
0.0
 40
0.0
 40
1.0
 40
1.0
 40
1.0
 40
2.0
 40
2.0
 40
2.0
 40
3.0
 40
3.0
 40
3.0
 40
4.0
 40
4.0
 40
4.0
 40
4.0
 10
942.1957191654927
 20
-7.139960393180288
 30
0.0
 10
922.865977416853
 20
-7.139960393180288
 30
0.0
 10
907.1956160926455
 20
-22.80997720783918
 30
0.0
 10
907.1956160926455
 20
-42.14006346602748
 30
0.0
 10
907.1956160926455
 20
-61.4701497242158
 30
0.0
 10
922.865977416853
 20
-77.14033879364895
 30
0.0
 10
942.1957191654927
 20
-77.14033879364895
 30
0.0
 10
961.5254609141326
 20
-77.14033879364895
 30
0.0
 10
977.1958222383399
 20
-61.4701497242158
 30
0.0
 10
977.1958222383399
 20
-42.14006346602748
 30
0.0
 10
977.1958222383399
 20
-22.80997720783918
 30
0.0
 10
961.5254609141326
 20
-7.139960393180288
 30
0.0
 10
942.1957191654927
 20
-7.139960393180288
 30
0.0
  0
SPLINE
  5
64
330
5F
100
AcDbEntity
  8
Calque 1
 62
   250
370
    35
100
AcDbSpline
210
0.0
220
0.0
230
1.0
 70
    11
 71
     3
 72
    17
 73
    13
 74
     0
 42
0.0000000001
 43
0.0000000001
 40
0.0
 40
0.0
 40
0.0
 40
0.0
 40
1.0
 40
1.0
 40
1.0
 40
2.0
 40
2.0
 40
2.0
 40
3.0
 40
3.0
 40
3.0
 40
4.0
 40
4.0
 40
4.0
 40
4.0
 10
942.1957191654927
 20
-43.14034694016978
 30
0.0
 10
941.3675182108387
 20
-43.14034694016978
 30
0.0
 10
940.695724591215
 20
-42.46872557532032
 30
0.0
 10
940.695724591215
 20
-41.64018011111774
 30
0.0
 10
940.695724591215
 20
-40.81215141123793
 30
0.0
 10
941.3675182108387
 20
-40.14018553683996
 30
0.0
 10
942.1957191654927
 20
-40.14018553683996
 30
0.0
 10
943.0239201201468
 20
-40.14018553683996
 30
0.0
 10
943.6957137397706
 20
-40.81215141123793
 30
0.0
 10
943.6957137397706
 20
-41.64018011111774
 30
0.0
 10
943.6957137397706
 20
-42.46872557532032
 30
0.0
 10
943.0239201201468
 20
-43.14034694016978
 30
0.0
 10
942.1957191654927
 20
-43.14034694016978
 30
0.0
  0
SPLINE
  5
65
330
5F
100
AcDbEntity
  8
Calque 1
 62
   250
370
    35
100
AcDbSpline
210
0.0
220
0.0
230
1.0
 70
    11
 71
     3
 72
    17
 73
    13
 74
     0
 42
0.0000000001
 43
0.0000000001
 40
0.0
 40
0.0
 40
0.0
 40
0.0
 40
1.0
 40
1.0
 40
1.0
 40
2.0
 40
2.0
 40
2.0
 40
3.0
 40
3.0
 40
3.0
 40
4.0
 40
4.0
 40
4.0
 40
4.0
 10
943.6957137397706
 20
-41.64018011111774
 30
0.0
 10
943.6957137397706
 20
-42.46872557532032
 30
0.0
 10
943.0239201201468
 20
-43.14034694016978
 30
0.0
 10
942.1957191654927
 20
-43.14034694016978
 30
0.0
 10
941.3675182108387
 20
-43.14034694016978
 30
0.0
 10
940.695724591215
 20
-42.46872557532032
 30
0.0
 10
940.695724591215
 20
-41.64018011111774
 30
0.0
 10
940.695724591215
 20
-40.81215141123793
 30
0.0
 10
941.3675182108387
 20
-40.14018553683996
 30
0.0
 10
942.1957191654927
 20
-40.14018553683996
 30
0.0
 10
943.0239201201468
 20
-40.14018553683996
 30
0.0
 10
943.6957137397706
 20
-40.81215141123793
 30
0.0
 10
943.6957137397706
 20
-41.64018011111774
 30
0.0
  0
ENDBLK
  5
62
330
5F
100
AcDbEntity
  8
0
100
AcDbBlockEnd
  0
BLOCK
  5
74
330
72
100
AcDbEntity
  8
0
100
AcDbBlockBegin
  2
block 8
 70
     0
 71
     0
 10
0.0
 20
0.0
 30
0.0
  3
block 8
  1

  0
SPLINE
  5
76
330
72
100
AcDbEntity
  8
Calque 1
 62
   250
370
    35
100
AcDbSpline
210
0.0
220
0.0
230
1.0
 70
    11
 71
     3
 72
    74
 73
    70
 74
     0
 42
0.0000000001
 43
0.0000000001
 40
0.0
 40
0.0
 40
0.0
 40
0.0
 40
1.0
 40
1.0
 40
1.0
 40
2.0
 40
2.0
 40
2.0
 40
3.0
 40
3.0
 40
3.0
 40
4.0
 40
4.0
 40
4.0
 40
5.0
 40
5.0
 40
5.0
 40
6.0
 40
6.0
 40
6.0
 40
7.0
 40
7.0
 40
7.0
 40
8.0
 40
8.0
 40
8.0
 40
9.0
 40
9.0
 40
9.0
 40
10.0
 40
10.0
 40
10.0
 40
11.0
 40
11.0
 40
11.0
 40
12.0
 40
12.0
 40
12.0
 40
13.0
 40
13.0
 40
13.0
 40
14.0
 40
14.0
 40
14.0
 40
15.0
 40
15.0
 40
15.0
 40
16.0
 40
16.0
 40
16.0
 40
17.0
 40
17.0
 40
17.0
 40
18.0
 40
18.0
 40
18.0
 40
19.0
 40
19.0
 40
19.0
 40
20.0
 40
20.0
 40
20.0
 40
21.0
 40
21.0
 40
21.0
 40
22.0
 40
22.0
 40
22.0
 40
23.0
 40
23.0
 40
23.0
 40
23.0
 10
587.108349462598
 20
-239.0496635687098
 30
0.0
 10
587.108349462598
 20
-239.0496635687098
 30
0.0
 10
559.5062444347762
 20
-228.9341742049192
 30
0.0
 10
559.5062444347762
 20
-228.9341742049192
 30
0.0
 10
559.5062444347762
 20
-228.9341742049192
 30
0.0
 10
502.0709905428851
 20
-228.9190157847841
 30
0.0
 10
502.0709905428851
 20
-228.9190157847841
 30
0.0
 10
414.366610953266
 20
-231.9651692128421
 30
0.0
 10
295.4102199239773
 20
-235.8953341424151
 30
0.0
 10
261.0429808917705
 20
-235.893956104221
 30
0.0
 10
256.3085584211659
 20
-235.893956104221
 30
0.0
 10
253.2767021393718
 20
-235.7940483351487
 30
0.0
 10
252.0316446310025
 20
-235.5969888733924
 30
0.0
 10
236.3628335997635
 20
-233.1144530667214
 30
0.0
 10
229.7870075922928
 20
-228.4256781112964
 30
0.0
 10
228.5776068221959
 20
-221.4397134863067
 30
0.0
 10
225.248611054799
 20
-202.2057453921569
 30
0.0
 10
240.7274250700265
 20
-179.7657714394336
 30
0.0
 10
247.5347614941059
 20
-168.864111285909
 30
0.0
 10
247.5347614941059
 20
-168.864111285909
 30
0.0
 10
249.4605698703606
 20
-165.8069335522983
 30
0.0
 10
249.4605698703606
 20
-165.8069335522983
 30
0.0
 10
169.3808756086964
 20
-150.4294053443371
 30
0.0
 10
150.5701374949095
 20
-154.2844671923317
 30
0.0
 10
139.1269083311037
 20
-159.4810492222825
 30
0.0
 10
139.1269083311037
 20
-159.4810492222825
 30
0.0
 10
94.18839380240777
 20
-214.7472709966604
 30
0.0
 10
94.18839380240777
 20
-214.7472709966604
 30
0.0
 10
94.18839380240777
 20
-214.7472709966604
 30
0.0
 10
93.48197697315729
 20
-214.8871418733616
 30
0.0
 10
93.48197697315729
 20
-214.8871418733616
 30
0.0
 10
93.26924232694311
 20
-214.9291720382816
 30
0.0
 10
72.94559053080874
 20
-218.9854274626148
 30
0.0
 10
51.84696450526743
 20
-226.0850802386176
 30
0.0
 10
51.84696450526743
 20
-226.0850802386176
 30
0.0
 10
51.49522025622342
 20
-226.2042805424073
 30
0.0
 10
51.49522025622342
 20
-226.2042805424073
 30
0.0
 10
50.59742837276731
 20
-226.5074489451092
 30
0.0
 10
49.69860296066563
 20
-226.8161295005876
 30
0.0
 10
48.79994980333821
 20
-227.1303222088424
 30
0.0
 10
34.96754692051159
 20
-231.9686143083273
 30
0.0
 10
24.19525010245813
 20
-237.0384168244209
 30
0.0
 10
16.78243814684606
 20
-242.1984808422282
 30
0.0
 10
9.159647621408006
 20
-247.505305927707
 30
0.0
 10
5.294594996506213
 20
-252.785948287498
 30
0.0
 10
5.294594996506213
 20
-257.8943358730264
 30
0.0
 10
5.294594996506213
 20
-263.8770886927113
 30
0.0
 10
10.17336696794277
 20
-269.2976019292034
 30
0.0
 10
19.79551865824557
 20
-274.0049804002488
 30
0.0
 10
29.08969725835258
 20
-278.5525064407785
 30
0.0
 10
42.74812281917409
 20
-282.392409868638
 30
0.0
 10
60.39131807300981
 20
-285.4185817428815
 30
0.0
 10
99.30573863619787
 20
-292.0931097360045
 30
0.0
 10
149.3586696675214
 20
-294.9942246441334
 30
0.0
 10
184.4953707763588
 20
-294.9945691536819
 30
0.0
 10
184.4953707763588
 20
-294.9945691536819
 30
0.0
 10
184.4986436170698
 20
-294.9945691536819
 30
0.0
 10
184.4986436170698
 20
-294.9945691536819
 30
0.0
 10
203.0597845629503
 20
-294.9945691536819
 30
0.0
 10
222.0872191827595
 20
-294.6135415930133
 30
0.0
 10
241.0522975742855
 20
-293.8621662676803
 30
0.0
 10
241.0522975742855
 20
-293.8621662676803
 30
0.0
 10
245.2797742442356
 20
-293.8001545489458
 30
0.0
 10
245.2797742442356
 20
-293.8001545489458
 30
0.0
 10
245.2797742442356
 20
-293.8001545489458
 30
0.0
 10
243.1107421267223
 20
-280.7601236277267
 30
0.0
 10
243.1107421267223
 20
-280.7601236277267
 30
0.0
 10
243.1107421267223
 20
-280.7601236277267
 30
0.0
 10
587.108349462598
 20
-239.0496635687098
 30
0.0
 10
587.108349462598
 20
-239.0496635687098
 30
0.0
  0
SPLINE
  5
77
330
72
100
AcDbEntity
  8
Calque 1
 62
   250
370
    35
100
AcDbSpline
210
0.0
220
0.0
230
1.0
 70
    11
 71
     3
 72
    17
 73
    13
 74
     0
 42
0.0000000001
 43
0.0000000001
 40
0.0
 40
0.0
 40
0.0
 40
0.0
 40
1.0
 40
1.0
 40
1.0
 40
2.0
 40
2.0
 40
2.0
 40
3.0
 40
3.0
 40
3.0
 40
4.0
 40
4.0
 40
4.0
 40
4.0
 10
174.9953477210081
 20
-291.9949245146749
 30
0.0
 10
174.1669745115798
 20
-291.9949245146749
 30
0.0
 10
173.4953531467303
 20
-291.3234754045997
 30
0.0
 10
173.4953531467303
 20
-290.4949299403971
 30
0.0
 10
173.4953531467303
 20
-289.6663844761945
 30
0.0
 10
174.1669745115798
 20
-288.9949353661193
 30
0.0
 10
174.9953477210081
 20
-288.9949353661193
 30
0.0
 10
175.8237209304365
 20
-288.9949353661193
 30
0.0
 10
176.4953422952859
 20
-289.6663844761945
 30
0.0
 10
176.4953422952859
 20
-290.4949299403971
 30
0.0
 10
176.4953422952859
 20
-291.3234754045997
 30
0.0
 10
175.8237209304365
 20
-291.9949245146749
 30
0.0
 10
174.9953477210081
 20
-291.9949245146749
 30
0.0
  0
SPLINE
  5
78
330
72
100
AcDbEntity
  8
Calque 1
 62
   250
370
    35
100
AcDbSpline
210
0.0
220
0.0
230
1.0
 70
    11
 71
     3
 72
    29
 73
    25
 74
     0
 42
0.0000000001
 43
0.0000000001
 40
0.0
 40
0.0
 40
0.0
 40
0.0
 40
1.0
 40
1.0
 40
1.0
 40
2.0
 40
2.0
 40
2.0
 40
3.0
 40
3.0
 40
3.0
 40
4.0
 40
4.0
 40
4.0
 40
5.0
 40
5.0
 40
5.0
 40
6.0
 40
6.0
 40
6.0
 40
7.0
 40
7.0
 40
7.0
 40
8.0
 40
8.0
 40
8.0
 40
8.0
 10
223.1955064003643
 20
-244.6341633502998
 30
0.0
 10
205.6777126221917
 20
-244.6341633502998
 30
0.0
 10
199.2827541276967
 20
-247.8539495908143
 30
0.0
 10
193.0981187125762
 20
-250.9683159094802
 30
0.0
 10
193.0981187125762
 20
-250.9683159094802
 30
0.0
 10
191.847893560979
 20
-251.5491590082933
 30
0.0
 10
191.847893560979
 20
-251.5491590082933
 30
0.0
 10
191.847893560979
 20
-251.5491590082933
 30
0.0
 10
191.847893560979
 20
-248.6483886097129
 30
0.0
 10
191.847893560979
 20
-248.6483886097129
 30
0.0
 10
192.206872510542
 20
-248.4692436444799
 30
0.0
 10
192.5649901862338
 20
-248.2894096601499
 30
0.0
 10
192.9246581548938
 20
-248.1081976376258
 30
0.0
 10
199.1475341299006
 20
-244.9745387842425
 30
0.0
 10
205.5822834772503
 20
-241.7347709899135
 30
0.0
 10
223.1968844385584
 20
-241.7347709899135
 30
0.0
 10
243.7570420397552
 20
-241.7347709899135
 30
0.0
 10
276.3831298137167
 20
-246.3401746345955
 30
0.0
 10
323.0212822000607
 20
-255.8155652572267
 30
0.0
 10
323.0212822000607
 20
-255.8155652572267
 30
0.0
 10
323.0137029899931
 20
-258.674305490887
 30
0.0
 10
323.0137029899931
 20
-258.674305490887
 30
0.0
 10
276.4000107815945
 20
-249.2051160401293
 30
0.0
 10
243.7275864733563
 20
-244.6341633502998
 30
0.0
 10
223.1955064003643
 20
-244.6341633502998
 30
0.0
  0
ENDBLK
  5
75
330
72
100
AcDbEntity
  8
0
100
AcDbBlockEnd
  0
BLOCK
  5
7B
330
79
100
AcDbEntity
  8
0
100
AcDbBlockBegin
  2
block 9
 70
     0
 71
     0
 10
0.0
 20
0.0
 30
0.0
  3
block 9
  1

  0
SPLINE
  5
7D
330
79
100
AcDbEntity
  8
Calque 1
 62
   250
370
    35
100
AcDbSpline
210
0.0
220
0.0
230
1.0
 70
    11
 71
     3
 72
    74
 73
    70
 74
     0
 42
0.0000000001
 43
0.0000000001
 40
0.0
 40
0.0
 40
0.0
 40
0.0
 40
1.0
 40
1.0
 40
1.0
 40
2.0
 40
2.0
 40
2.0
 40
3.0
 40
3.0
 40
3.0
 40
4.0
 40
4.0
 40
4.0
 40
5.0
 40
5.0
 40
5.0
 40
6.0
 40
6.0
 40
6.0
 40
7.0
 40
7.0
 40
7.0
 40
8.0
 40
8.0
 40
8.0
 40
9.0
 40
9.0
 40
9.0
 40
10.0
 40
10.0
 40
10.0
 40
11.0
 40
11.0
 40
11.0
 40
12.0
 40
12.0
 40
12.0
 40
13.0
 40
13.0
 40
13.0
 40
14.0
 40
14.0
 40
14.0
 40
15.0
 40
15.0
 40
15.0
 40
16.0
 40
16.0
 40
16.0
 40
17.0
 40
17.0
 40
17.0
 40
18.0
 40
18.0
 40
18.0
 40
19.0
 40
19.0
 40
19.0
 40
20.0
 40
20.0
 40
20.0
 40
21.0
 40
21.0
 40
21.0
 40
22.0
 40
22.0
 40
22.0
 40
23.0
 40
23.0
 40
23.0
 40
23.0
 10
243.1107421267223
 20
-19.22897270569623
 30
0.0
 10
243.1107421267223
 20
-19.22897270569623
 30
0.0
 10
245.2797742442356
 20
-6.189114039251333
 30
0.0
 10
245.2797742442356
 20
-6.189114039251333
 30
0.0
 10
245.2797742442356
 20
-6.189114039251333
 30
0.0
 10
241.0522975742855
 20
-6.127102320516836
 30
0.0
 10
241.0522975742855
 20
-6.127102320516836
 30
0.0
 10
222.0872191827595
 20
-5.375899249958109
 30
0.0
 10
203.0597845629503
 20
-4.994699434515215
 30
0.0
 10
184.4986436170698
 20
-4.994699434515215
 30
0.0
 10
184.4986436170698
 20
-4.994699434515215
 30
0.0
 10
184.4953707763588
 20
-4.994699434515215
 30
0.0
 10
184.4953707763588
 20
-4.994699434515215
 30
0.0
 10
149.3586696675214
 20
-4.995043944063739
 30
0.0
 10
99.30573863619787
 20
-7.895986597418365
 30
0.0
 10
60.39131807300981
 20
-14.57068684531566
 30
0.0
 10
42.74812281917409
 20
-17.59703097433338
 30
0.0
 10
29.08969725835258
 20
-21.43693440219285
 30
0.0
 10
19.79551865824557
 20
-25.98411593317411
 30
0.0
 10
10.17336696794277
 20
-30.69183891376801
 30
0.0
 10
5.294594996506213
 20
-36.11235215026011
 30
0.0
 10
5.294594996506213
 20
-42.09476046039645
 30
0.0
 10
5.294594996506213
 20
-47.20314804592491
 30
0.0
 10
9.159647621408006
 20
-52.48379040571586
 30
0.0
 10
16.78243814684606
 20
-57.79061549119471
 30
0.0
 10
24.19525010245813
 20
-62.95102401855044
 30
0.0
 10
34.96754692051159
 20
-68.0208265346441
 30
0.0
 10
48.79994980333821
 20
-72.85911863412898
 30
0.0
 10
49.69860296066563
 20
-73.17331134238376
 30
0.0
 10
50.59742837276731
 20
-73.48164738831362
 30
0.0
 10
51.49522025622342
 20
-73.78516030056413
 30
0.0
 10
51.49522025622342
 20
-73.78516030056413
 30
0.0
 10
51.84696450526743
 20
-73.90436060435377
 30
0.0
 10
51.84696450526743
 20
-73.90436060435377
 30
0.0
 10
72.94559053080874
 20
-81.00401338035664
 30
0.0
 10
93.26924232694311
 20
-85.0602688046898
 30
0.0
 10
93.48197697315729
 20
-85.10229896960985
 30
0.0
 10
93.48197697315729
 20
-85.10229896960985
 30
0.0
 10
94.18839380240777
 20
-85.24216984631099
 30
0.0
 10
94.18839380240777
 20
-85.24216984631099
 30
0.0
 10
94.18839380240777
 20
-85.24216984631099
 30
0.0
 10
139.1269083311037
 20
-140.5083916206889
 30
0.0
 10
139.1269083311037
 20
-140.5083916206889
 30
0.0
 10
150.5701374949095
 20
-145.7046291410912
 30
0.0
 10
169.3808756086964
 20
-149.5596909890858
 30
0.0
 10
249.4605698703606
 20
-134.1825072906731
 30
0.0
 10
249.4605698703606
 20
-134.1825072906731
 30
0.0
 10
247.5347614941059
 20
-131.1249850475139
 30
0.0
 10
247.5347614941059
 20
-131.1249850475139
 30
0.0
 10
240.7274250700265
 20
-120.2233248939893
 30
0.0
 10
225.248611054799
 20
-97.78335094126598
 30
0.0
 10
228.5776068221959
 20
-78.54972735666466
 30
0.0
 10
229.7870075922928
 20
-71.56341822212651
 30
0.0
 10
236.3628335997635
 20
-66.87464326670148
 30
0.0
 10
252.0316446310025
 20
-64.39245196957897
 30
0.0
 10
253.2767021393718
 20
-64.19504799827416
 30
0.0
 10
256.3085584211659
 20
-64.09514022920192
 30
0.0
 10
261.0429808917705
 20
-64.09514022920192
 30
0.0
 10
295.4102199239773
 20
-64.09410670055634
 30
0.0
 10
414.366610953266
 20
-68.02392712058082
 30
0.0
 10
502.0709905428851
 20
-71.07008054863873
 30
0.0
 10
502.0709905428851
 20
-71.07008054863873
 30
0.0
 10
559.5062444347762
 20
-71.05492212850363
 30
0.0
 10
559.5062444347762
 20
-71.05492212850363
 30
0.0
 10
559.5062444347762
 20
-71.05492212850363
 30
0.0
 10
587.108349462598
 20
-60.93943276471306
 30
0.0
 10
587.108349462598
 20
-60.93943276471306
 30
0.0
 10
587.108349462598
 20
-60.93943276471306
 30
0.0
 10
243.1107421267223
 20
-19.22897270569623
 30
0.0
 10
243.1107421267223
 20
-19.22897270569623
 30
0.0
  0
SPLINE
  5
7E
330
79
100
AcDbEntity
  8
Calque 1
 62
   250
370
    35
100
AcDbSpline
210
0.0
220
0.0
230
1.0
 70
    11
 71
     3
 72
    17
 73
    13
 74
     0
 42
0.0000000001
 43
0.0000000001
 40
0.0
 40
0.0
 40
0.0
 40
0.0
 40
1.0
 40
1.0
 40
1.0
 40
2.0
 40
2.0
 40
2.0
 40
3.0
 40
3.0
 40
3.0
 40
4.0
 40
4.0
 40
4.0
 40
4.0
 10
176.4953422952859
 20
-9.494510902574289
 30
0.0
 10
176.4953422952859
 20
-10.32288411200261
 30
0.0
 10
175.8237209304365
 20
-10.99450547685207
 30
0.0
 10
174.9953477210081
 20
-10.99450547685207
 30
0.0
 10
174.1669745115798
 20
-10.99450547685207
 30
0.0
 10
173.4953531467303
 20
-10.32288411200261
 30
0.0
 10
173.4953531467303
 20
-9.494510902574289
 30
0.0
 10
173.4953531467303
 20
-8.66579318359744
 30
0.0
 10
174.1669745115798
 20
-7.994344073522248
 30
0.0
 10
174.9953477210081
 20
-7.994344073522248
 30
0.0
 10
175.8237209304365
 20
-7.994344073522248
 30
0.0
 10
176.4953422952859
 20
-8.66579318359744
 30
0.0
 10
176.4953422952859
 20
-9.494510902574289
 30
0.0
  0
SPLINE
  5
7F
330
79
100
AcDbEntity
  8
Calque 1
 62
   250
370
    35
100
AcDbSpline
210
0.0
220
0.0
230
1.0
 70
    11
 71
     3
 72
    29
 73
    25
 74
     0
 42
0.0000000001
 43
0.0000000001
 40
0.0
 40
0.0
 40
0.0
 40
0.0
 40
1.0
 40
1.0
 40
1.0
 40
2.0
 40
2.0
 40
2.0
 40
3.0
 40
3.0
 40
3.0
 40
4.0
 40
4.0
 40
4.0
 40
5.0
 40
5.0
 40
5.0
 40
6.0
 40
6.0
 40
6.0
 40
7.0
 40
7.0
 40
7.0
 40
8.0
 40
8.0
 40
8.0
 40
8.0
 10
323.0137029899931
 20
-41.31479084253588
 30
0.0
 10
323.0137029899931
 20
-41.31479084253588
 30
0.0
 10
323.0212822000607
 20
-44.17387558574472
 30
0.0
 10
323.0212822000607
 20
-44.17387558574472
 30
0.0
 10
276.3831298137167
 20
-53.64892169882736
 30
0.0
 10
243.7570420397552
 20
-58.25466985305786
 30
0.0
 10
223.1968844385584
 20
-58.25466985305786
 30
0.0
 10
205.5822834772503
 20
-58.25466985305786
 30
0.0
 10
199.1475341299006
 20
-55.01455754918039
 30
0.0
 10
192.9246581548938
 20
-51.88124320534566
 30
0.0
 10
192.5649901862338
 20
-51.70003118282152
 30
0.0
 10
192.206872510542
 20
-51.51985268894295
 30
0.0
 10
191.847893560979
 20
-51.34105223325849
 30
0.0
 10
191.847893560979
 20
-51.34105223325849
 30
0.0
 10
191.847893560979
 20
-48.4399373251296
 30
0.0
 10
191.847893560979
 20
-48.4399373251296
 30
0.0
 10
191.847893560979
 20
-48.4399373251296
 30
0.0
 10
193.0981187125762
 20
-49.02112493349125
 30
0.0
 10
193.0981187125762
 20
-49.02112493349125
 30
0.0
 10
199.2827541276967
 20
-52.13514674260858
 30
0.0
 10
205.6777126221917
 20
-55.3552774926716
 30
0.0
 10
223.1955064003643
 20
-55.3552774926716
 30
0.0
 10
243.7275864733563
 20
-55.3552774926716
 30
0.0
 10
276.4000107815945
 20
-50.78432480284211
 30
0.0
 10
323.0137029899931
 20
-41.31479084253588
 30
0.0
  0
ENDBLK
  5
7C
330
79
100
AcDbEntity
  8
0
100
AcDbBlockEnd
  0
BLOCK
  5
98
330
96
100
AcDbEntity
  8
0
100
AcDbBlockBegin
  2
block 10
 70
     0
 71
     0
 10
0.0
 20
0.0
 30
0.0
  3
block 10
  1

  0
SPLINE
  5
9A
330
96
100
AcDbEntity
  8
Calque 1
 62
   250
370
    35
100
AcDbSpline
210
0.0
220
0.0
230
1.0
 70
    11
 71
     3
 72
    17
 73
    13
 74
     0
 42
0.0000000001
 43
0.0000000001
 40
0.0
 40
0.0
 40
0.0
 40
0.0
 40
1.0
 40
1.0
 40
1.0
 40
2.0
 40
2.0
 40
2.0
 40
3.0
 40
3.0
 40
3.0
 40
4.0
 40
4.0
 40
4.0
 40
4.0
 10
581.5338404579152
 20
-173.6806992838368
 30
0.0
 10
581.5338404579152
 20
-174.2329480901223
 30
0.0
 10
576.9367050423978
 20
-174.6808105032048
 30
0.0
 10
571.2643553259339
 20
-174.6808105032048
 30
0.0
 10
565.5920056094701
 20
-174.6808105032048
 30
0.0
 10
560.9948701939527
 20
-174.2329480901223
 30
0.0
 10
560.9948701939527
 20
-173.6806992838368
 30
0.0
 10
560.9948701939527
 20
-173.1284504775512
 30
0.0
 10
565.5920056094701
 20
-172.6805880644687
 30
0.0
 10
571.2643553259339
 20
-172.6805880644687
 30
0.0
 10
576.9367050423978
 20
-172.6805880644687
 30
0.0
 10
581.5338404579152
 20
-173.1284504775512
 30
0.0
 10
581.5338404579152
 20
-173.6806992838368
 30
0.0
  0
SPLINE
  5
9B
330
96
100
AcDbEntity
  8
Calque 1
 62
   250
370
    35
100
AcDbSpline
210
0.0
220
0.0
230
1.0
 70
    11
 71
     3
 72
    17
 73
    13
 74
     0
 42
0.0000000001
 43
0.0000000001
 40
0.0
 40
0.0
 40
0.0
 40
0.0
 40
1.0
 40
1.0
 40
1.0
 40
2.0
 40
2.0
 40
2.0
 40
3.0
 40
3.0
 40
3.0
 40
4.0
 40
4.0
 40
4.0
 40
4.0
 10
581.5338404579152
 20
-190.8393418576721
 30
0.0
 10
581.5338404579152
 20
-191.3915906639577
 30
0.0
 10
576.9367050423978
 20
-191.8394530770401
 30
0.0
 10
571.2643553259339
 20
-191.8394530770401
 30
0.0
 10
565.5920056094701
 20
-191.8394530770401
 30
0.0
 10
560.9948701939527
 20
-191.3915906639577
 30
0.0
 10
560.9948701939527
 20
-190.8393418576721
 30
0.0
 10
560.9948701939527
 20
-190.2870930513866
 30
0.0
 10
565.5920056094701
 20
-189.8392306383041
 30
0.0
 10
571.2643553259339
 20
-189.8392306383041
 30
0.0
 10
576.9367050423978
 20
-189.8392306383041
 30
0.0
 10
581.5338404579152
 20
-190.2870930513866
 30
0.0
 10
581.5338404579152
 20
-190.8393418576721
 30
0.0
  0
SPLINE
  5
9C
330
96
100
AcDbEntity
  8
Calque 1
 62
   250
370
    35
100
AcDbSpline
210
0.0
220
0.0
230
1.0
 70
    11
 71
     3
 72
    38
 73
    34
 74
     0
 42
0.0000000001
 43
0.0000000001
 40
0.0
 40
0.0
 40
0.0
 40
0.0
 40
1.0
 40
1.0
 40
1.0
 40
2.0
 40
2.0
 40
2.0
 40
3.0
 40
3.0
 40
3.0
 40
4.0
 40
4.0
 40
4.0
 40
5.0
 40
5.0
 40
5.0
 40
6.0
 40
6.0
 40
6.0
 40
7.0
 40
7.0
 40
7.0
 40
8.0
 40
8.0
 40
8.0
 40
9.0
 40
9.0
 40
9.0
 40
10.0
 40
10.0
 40
10.0
 40
11.0
 40
11.0
 40
11.0
 40
11.0
 10
547.4687362997648
 20
-180.764849130156
 30
0.0
 10
547.4687362997648
 20
-180.764849130156
 30
0.0
 10
587.108349462598
 20
-180.764849130156
 30
0.0
 10
587.108349462598
 20
-180.764849130156
 30
0.0
 10
587.108349462598
 20
-180.764849130156
 30
0.0
 10
587.108349462598
 20
-171.9299017582328
 30
0.0
 10
587.108349462598
 20
-171.9299017582328
 30
0.0
 10
587.108349462598
 20
-171.9299017582328
 30
0.0
 10
464.8078042457772
 20
-164.6907226150773
 30
0.0
 10
366.6577228901064
 20
-159.5099880243586
 30
0.0
 10
298.5964164835106
 20
-156.0145941450241
 30
0.0
 10
284.0898084142206
 20
-177.6956135623469
 30
0.0
 10
257.9194850700687
 20
-177.6956135623469
 30
0.0
 10
257.9194850700687
 20
-177.6956135623469
 30
0.0
 10
257.9194850700687
 20
-186.8278726746472
 30
0.0
 10
257.9194850700687
 20
-186.8278726746472
 30
0.0
 10
284.0898084142206
 20
-186.8278726746472
 30
0.0
 10
298.5964164835106
 20
-208.508203072873
 30
0.0
 10
366.6577228901064
 20
-205.013153703087
 30
0.0
 10
464.8078042457772
 20
-199.8324191123683
 30
0.0
 10
587.108349462598
 20
-192.5935844787613
 30
0.0
 10
587.108349462598
 20
-192.5935844787613
 30
0.0
 10
587.108349462598
 20
-192.5935844787613
 30
0.0
 10
587.108349462598
 20
-183.7586371068381
 30
0.0
 10
587.108349462598
 20
-183.7586371068381
 30
0.0
 10
587.108349462598
 20
-183.7586371068381
 30
0.0
 10
547.4687362997648
 20
-183.7586371068381
 30
0.0
 10
547.4687362997648
 20
-183.7586371068381
 30
0.0
 10
547.4687362997648
 20
-183.7586371068381
 30
0.0
 10
547.4687362997648
 20
-180.7586479582826
 30
0.0
 10
547.4687362997648
 20
-180.7586479582826
 30
0.0
 10
547.4687362997648
 20
-180.7586479582826
 30
0.0
 10
547.4687362997648
 20
-180.764849130156
 30
0.0
 10
547.4687362997648
 20
-180.764849130156
 30
0.0
  0
ENDBLK
  5
99
330
96
100
AcDbEntity
  8
0
100
AcDbBlockEnd
  0
ENDSEC
  0
SECTION
  2
ENTITIES
  0
INSERT
  5
3D
330
1F
100
AcDbEntity
  8
Calque 1
100
AcDbBlockReference
  2
block 2
 10
0.0
 20
0.0
 30
0.0
  0
INSERT
  5
44
330
1F
100
AcDbEntity
  8
Calque 1
100
AcDbBlockReference
  2
block 3
 10
0.0
 20
0.0
 30
0.0
  0
INSERT
  5
4B
330
1F
100
AcDbEntity
  8
Calque 1
100
AcDbBlockReference
  2
block 4
 10
0.0
 20
0.0
 30
0.0
  0
INSERT
  5
52
330
1F
100
AcDbEntity
  8
Calque 1
100
AcDbBlockReference
  2
block 5
 10
0.0
 20
0.0
 30
0.0
  0
INSERT
  5
59
330
1F
100
AcDbEntity
  8
Calque 1
100
AcDbBlockReference
  2
block 6
 10
0.0
 20
0.0
 30
0.0
  0
INSERT
  5
60
330
1F
100
AcDbEntity
  8
Calque 1
100
AcDbBlockReference
  2
block 7
 10
0.0
 20
0.0
 30
0.0
  0
SPLINE
  5
66
330
1F
100
AcDbEntity
  8
Calque 1
 62
   250
370
    35
100
AcDbSpline
210
0.0
220
0.0
230
1.0
 70
    11
 71
     3
 72
    17
 73
    13
 74
     0
 42
0.0000000001
 43
0.0000000001
 40
0.0
 40
0.0
 40
0.0
 40
0.0
 40
1.0
 40
1.0
 40
1.0
 40
2.0
 40
2.0
 40
2.0
 40
3.0
 40
3.0
 40
3.0
 40
4.0
 40
4.0
 40
4.0
 40
4.0
 10
607.131933441967
 20
-172.9479274741241
 30
0.0
 10
601.8888426229653
 20
-172.9479274741241
 30
0.0
 10
597.6475855710743
 20
-173.2380045139822
 30
0.0
 10
594.1046493740433
 20
-173.7258300346936
 30
0.0
 10
605.7600964197405
 20
-203.2365179613437
 30
0.0
 10
623.2515352174511
 20
-208.4131184374801
 30
0.0
 10
672.5246688856884
 20
-208.4131184374801
 30
0.0
 10
672.5246688856884
 20
-208.4131184374801
 30
0.0
 10
664.1389619650416
 20
-179.0381672729488
 30
0.0
 10
664.1389619650416
 20
-179.0381672729488
 30
0.0
 10
639.5068737550539
 20
-174.9529730465395
 30
0.0
 10
620.6818384950031
 20
-172.9479274741241
 30
0.0
 10
607.131933441967
 20
-172.9479274741241
 30
0.0
  0
SPLINE
  5
67
330
1F
100
AcDbEntity
  8
Calque 1
 62
   250
370
    35
100
AcDbSpline
210
0.0
220
0.0
230
1.0
 70
    11
 71
     3
 72
    17
 73
    13
 74
     0
 42
0.0000000001
 43
0.0000000001
 40
0.0
 40
0.0
 40
0.0
 40
0.0
 40
1.0
 40
1.0
 40
1.0
 40
2.0
 40
2.0
 40
2.0
 40
3.0
 40
3.0
 40
3.0
 40
4.0
 40
4.0
 40
4.0
 40
4.0
 10
681.2359373296911
 20
-172.9479274741241
 30
0.0
 10
675.9925020011408
 20
-172.9479274741241
 30
0.0
 10
671.7515894587982
 20
-173.2380045139822
 30
0.0
 10
668.2086532617673
 20
-173.7258300346936
 30
0.0
 10
679.8641003074646
 20
-203.2365179613437
 30
0.0
 10
697.355539105175
 20
-208.4131184374801
 30
0.0
 10
746.6286727734123
 20
-208.4131184374801
 30
0.0
 10
746.6286727734123
 20
-208.4131184374801
 30
0.0
 10
738.2426213432171
 20
-179.0381672729488
 30
0.0
 10
738.2426213432171
 20
-179.0381672729488
 30
0.0
 10
713.6108776427778
 20
-174.9529730465395
 30
0.0
 10
694.7854978731787
 20
-172.9479274741241
 30
0.0
 10
681.2359373296911
 20
-172.9479274741241
 30
0.0
  0
SPLINE
  5
68
330
1F
100
AcDbEntity
  8
Calque 1
 62
   250
370
    35
100
AcDbSpline
210
0.0
220
0.0
230
1.0
 70
    11
 71
     3
 72
    17
 73
    13
 74
     0
 42
0.0000000001
 43
0.0000000001
 40
0.0
 40
0.0
 40
0.0
 40
0.0
 40
1.0
 40
1.0
 40
1.0
 40
2.0
 40
2.0
 40
2.0
 40
3.0
 40
3.0
 40
3.0
 40
4.0
 40
4.0
 40
4.0
 40
4.0
 10
607.131933441967
 20
-214.948464572999
 30
0.0
 10
601.8888426229653
 20
-214.948464572999
 30
0.0
 10
597.6475855710743
 20
-215.238541612857
 30
0.0
 10
594.1046493740433
 20
-215.7263671335684
 30
0.0
 10
605.7600964197405
 20
-245.2370550602185
 30
0.0
 10
623.2515352174511
 20
-250.4136555363549
 30
0.0
 10
672.5246688856884
 20
-250.4136555363549
 30
0.0
 10
672.5246688856884
 20
-250.4136555363549
 30
0.0
 10
664.1389619650416
 20
-221.0387043718237
 30
0.0
 10
664.1389619650416
 20
-221.0387043718237
 30
0.0
 10
639.5068737550539
 20
-216.9535101454144
 30
0.0
 10
620.6818384950031
 20
-214.948464572999
 30
0.0
 10
607.131933441967
 20
-214.948464572999
 30
0.0
  0
SPLINE
  5
69
330
1F
100
AcDbEntity
  8
Calque 1
 62
   250
370
    35
100
AcDbSpline
210
0.0
220
0.0
230
1.0
 70
    11
 71
     3
 72
    17
 73
    13
 74
     0
 42
0.0000000001
 43
0.0000000001
 40
0.0
 40
0.0
 40
0.0
 40
0.0
 40
1.0
 40
1.0
 40
1.0
 40
2.0
 40
2.0
 40
2.0
 40
3.0
 40
3.0
 40
3.0
 40
4.0
 40
4.0
 40
4.0
 40
4.0
 10
681.2359373296911
 20
-214.948464572999
 30
0.0
 10
675.9925020011408
 20
-214.948464572999
 30
0.0
 10
671.7515894587982
 20
-215.238541612857
 30
0.0
 10
668.2086532617673
 20
-215.7263671335684
 30
0.0
 10
679.8641003074646
 20
-245.2370550602185
 30
0.0
 10
697.355539105175
 20
-250.4136555363549
 30
0.0
 10
746.6286727734123
 20
-250.4136555363549
 30
0.0
 10
746.6286727734123
 20
-250.4136555363549
 30
0.0
 10
738.2426213432171
 20
-221.0387043718237
 30
0.0
 10
738.2426213432171
 20
-221.0387043718237
 30
0.0
 10
713.6108776427778
 20
-216.9535101454144
 30
0.0
 10
694.7854978731787
 20
-214.948464572999
 30
0.0
 10
681.2359373296911
 20
-214.948464572999
 30
0.0
  0
SPLINE
  5
6A
330
1F
100
AcDbEntity
  8
Calque 1
 62
   250
370
    35
100
AcDbSpline
210
0.0
220
0.0
230
1.0
 70
    11
 71
     3
 72
    17
 73
    13
 74
     0
 42
0.0000000001
 43
0.0000000001
 40
0.0
 40
0.0
 40
0.0
 40
0.0
 40
1.0
 40
1.0
 40
1.0
 40
2.0
 40
2.0
 40
2.0
 40
3.0
 40
3.0
 40
3.0
 40
4.0
 40
4.0
 40
4.0
 40
4.0
 10
607.131933441967
 20
-256.9490016718739
 30
0.0
 10
601.8888426229653
 20
-256.9490016718739
 30
0.0
 10
597.6475855710743
 20
-257.2390787117319
 30
0.0
 10
594.1046493740433
 20
-257.7269042324433
 30
0.0
 10
605.7600964197405
 20
-287.2375921590934
 30
0.0
 10
623.2515352174511
 20
-292.4141926352298
 30
0.0
 10
672.5246688856884
 20
-292.4141926352298
 30
0.0
 10
672.5246688856884
 20
-292.4141926352298
 30
0.0
 10
664.1389619650416
 20
-263.0392414706985
 30
0.0
 10
664.1389619650416
 20
-263.0392414706985
 30
0.0
 10
639.5068737550539
 20
-258.9540472442893
 30
0.0
 10
620.6818384950031
 20
-256.9490016718739
 30
0.0
 10
607.131933441967
 20
-256.9490016718739
 30
0.0
  0
SPLINE
  5
6B
330
1F
100
AcDbEntity
  8
Calque 1
 62
   250
370
    35
100
AcDbSpline
210
0.0
220
0.0
230
1.0
 70
    11
 71
     3
 72
    17
 73
    13
 74
     0
 42
0.0000000001
 43
0.0000000001
 40
0.0
 40
0.0
 40
0.0
 40
0.0
 40
1.0
 40
1.0
 40
1.0
 40
2.0
 40
2.0
 40
2.0
 40
3.0
 40
3.0
 40
3.0
 40
4.0
 40
4.0
 40
4.0
 40
4.0
 10
681.2359373296911
 20
-256.9490016718739
 30
0.0
 10
675.9925020011408
 20
-256.9490016718739
 30
0.0
 10
671.7515894587982
 20
-257.2390787117319
 30
0.0
 10
668.2086532617673
 20
-257.7269042324433
 30
0.0
 10
679.8641003074646
 20
-287.2375921590934
 30
0.0
 10
697.355539105175
 20
-292.4141926352298
 30
0.0
 10
746.6286727734123
 20
-292.4141926352298
 30
0.0
 10
746.6286727734123
 20
-292.4141926352298
 30
0.0
 10
738.2426213432171
 20
-263.0392414706985
 30
0.0
 10
738.2426213432171
 20
-263.0392414706985
 30
0.0
 10
713.6108776427778
 20
-258.9540472442893
 30
0.0
 10
694.7854978731787
 20
-256.9490016718739
 30
0.0
 10
681.2359373296911
 20
-256.9490016718739
 30
0.0
  0
SPLINE
  5
6C
330
1F
100
AcDbEntity
  8
Calque 1
 62
   250
370
    35
100
AcDbSpline
210
0.0
220
0.0
230
1.0
 70
    11
 71
     3
 72
    17
 73
    13
 74
     0
 42
0.0000000001
 43
0.0000000001
 40
0.0
 40
0.0
 40
0.0
 40
0.0
 40
1.0
 40
1.0
 40
1.0
 40
2.0
 40
2.0
 40
2.0
 40
3.0
 40
3.0
 40
3.0
 40
4.0
 40
4.0
 40
4.0
 40
4.0
 10
755.3395967078666
 20
-172.9479274741241
 30
0.0
 10
750.0965058888648
 20
-172.9479274741241
 30
0.0
 10
745.8552488369737
 20
-173.2380045139822
 30
0.0
 10
742.3123126399428
 20
-173.7258300346936
 30
0.0
 10
753.9677596856401
 20
-203.2365179613437
 30
0.0
 10
771.4591984833505
 20
-208.4131184374801
 30
0.0
 10
820.7323321515878
 20
-208.4131184374801
 30
0.0
 10
820.7323321515878
 20
-208.4131184374801
 30
0.0
 10
812.3466252309412
 20
-179.0381672729488
 30
0.0
 10
812.3466252309412
 20
-179.0381672729488
 30
0.0
 10
787.7145370209533
 20
-174.9529730465395
 30
0.0
 10
768.8895017609027
 20
-172.9479274741241
 30
0.0
 10
755.3395967078666
 20
-172.9479274741241
 30
0.0
  0
SPLINE
  5
6D
330
1F
100
AcDbEntity
  8
Calque 1
 62
   250
370
    35
100
AcDbSpline
210
0.0
220
0.0
230
1.0
 70
    11
 71
     3
 72
    17
 73
    13
 74
     0
 42
0.0000000001
 43
0.0000000001
 40
0.0
 40
0.0
 40
0.0
 40
0.0
 40
1.0
 40
1.0
 40
1.0
 40
2.0
 40
2.0
 40
2.0
 40
3.0
 40
3.0
 40
3.0
 40
4.0
 40
4.0
 40
4.0
 40
4.0
 10
755.3395967078666
 20
-214.948464572999
 30
0.0
 10
750.0965058888648
 20
-214.948464572999
 30
0.0
 10
745.8552488369737
 20
-215.238541612857
 30
0.0
 10
742.3123126399428
 20
-215.7263671335684
 30
0.0
 10
753.9677596856401
 20
-245.2370550602185
 30
0.0
 10
771.4591984833505
 20
-250.4136555363549
 30
0.0
 10
820.7323321515878
 20
-250.4136555363549
 30
0.0
 10
820.7323321515878
 20
-250.4136555363549
 30
0.0
 10
812.3466252309412
 20
-221.0387043718237
 30
0.0
 10
812.3466252309412
 20
-221.0387043718237
 30
0.0
 10
787.7145370209533
 20
-216.9535101454144
 30
0.0
 10
768.8895017609027
 20
-214.948464572999
 30
0.0
 10
755.3395967078666
 20
-214.948464572999
 30
0.0
  0
SPLINE
  5
6E
330
1F
100
AcDbEntity
  8
Calque 1
 62
   250
370
    35
100
AcDbSpline
210
0.0
220
0.0
230
1.0
 70
    11
 71
     3
 72
    17
 73
    13
 74
     0
 42
0.0000000001
 43
0.0000000001
 40
0.0
 40
0.0
 40
0.0
 40
0.0
 40
1.0
 40
1.0
 40
1.0
 40
2.0
 40
2.0
 40
2.0
 40
3.0
 40
3.0
 40
3.0
 40
4.0
 40
4.0
 40
4.0
 40
4.0
 10
829.443256086042
 20
-172.9479274741241
 30
0.0
 10
824.2005097765888
 20
-172.9479274741241
 30
0.0
 10
819.9589082151492
 20
-173.2380045139822
 30
0.0
 10
816.4159720181183
 20
-173.7258300346936
 30
0.0
 10
828.0714190638155
 20
-203.2365179613437
 30
0.0
 10
845.562857861526
 20
-208.4131184374801
 30
0.0
 10
894.8359915297633
 20
-208.4131184374801
 30
0.0
 10
894.8359915297633
 20
-208.4131184374801
 30
0.0
 10
886.4506291186651
 20
-179.0381672729488
 30
0.0
 10
886.4506291186651
 20
-179.0381672729488
 30
0.0
 10
861.8181963991289
 20
-174.9529730465395
 30
0.0
 10
842.9935056486266
 20
-172.9479274741241
 30
0.0
 10
829.443256086042
 20
-172.9479274741241
 30
0.0
  0
SPLINE
  5
6F
330
1F
100
AcDbEntity
  8
Calque 1
 62
   250
370
    35
100
AcDbSpline
210
0.0
220
0.0
230
1.0
 70
    11
 71
     3
 72
    17
 73
    13
 74
     0
 42
0.0000000001
 43
0.0000000001
 40
0.0
 40
0.0
 40
0.0
 40
0.0
 40
1.0
 40
1.0
 40
1.0
 40
2.0
 40
2.0
 40
2.0
 40
3.0
 40
3.0
 40
3.0
 40
4.0
 40
4.0
 40
4.0
 40
4.0
 10
829.443256086042
 20
-214.948464572999
 30
0.0
 10
824.2005097765888
 20
-214.948464572999
 30
0.0
 10
819.9589082151492
 20
-215.238541612857
 30
0.0
 10
816.4159720181183
 20
-215.7263671335684
 30
0.0
 10
828.0714190638155
 20
-245.2370550602185
 30
0.0
 10
845.562857861526
 20
-250.4136555363549
 30
0.0
 10
894.8359915297633
 20
-250.4136555363549
 30
0.0
 10
894.8359915297633
 20
-250.4136555363549
 30
0.0
 10
886.4506291186651
 20
-221.0387043718237
 30
0.0
 10
886.4506291186651
 20
-221.0387043718237
 30
0.0
 10
861.8181963991289
 20
-216.9535101454144
 30
0.0
 10
842.9935056486266
 20
-214.948464572999
 30
0.0
 10
829.443256086042
 20
-214.948464572999
 30
0.0
  0
SPLINE
  5
70
330
1F
100
AcDbEntity
  8
Calque 1
 62
   250
370
    35
100
AcDbSpline
210
0.0
220
0.0
230
1.0
 70
    11
 71
     3
 72
    17
 73
    13
 74
     0
 42
0.0000000001
 43
0.0000000001
 40
0.0
 40
0.0
 40
0.0
 40
0.0
 40
1.0
 40
1.0
 40
1.0
 40
2.0
 40
2.0
 40
2.0
 40
3.0
 40
3.0
 40
3.0
 40
4.0
 40
4.0
 40
4.0
 40
4.0
 10
829.443256086042
 20
-256.9490016718739
 30
0.0
 10
824.2005097765888
 20
-256.9490016718739
 30
0.0
 10
819.9589082151492
 20
-257.2390787117319
 30
0.0
 10
816.4159720181183
 20
-257.7269042324433
 30
0.0
 10
828.0714190638155
 20
-287.2375921590934
 30
0.0
 10
845.562857861526
 20
-292.4141926352298
 30
0.0
 10
894.8359915297633
 20
-292.4141926352298
 30
0.0
 10
894.8359915297633
 20
-292.4141926352298
 30
0.0
 10
886.4506291186651
 20
-263.0392414706985
 30
0.0
 10
886.4506291186651
 20
-263.0392414706985
 30
0.0
 10
861.8181963991289
 20
-258.9540472442893
 30
0.0
 10
842.9935056486266
 20
-256.9490016718739
 30
0.0
 10
829.443256086042
 20
-256.9490016718739
 30
0.0
  0
SPLINE
  5
71
330
1F
100
AcDbEntity
  8
Calque 1
 62
   250
370
    35
100
AcDbSpline
210
0.0
220
0.0
230
1.0
 70
    11
 71
     3
 72
    17
 73
    13
 74
     0
 42
0.0000000001
 43
0.0000000001
 40
0.0
 40
0.0
 40
0.0
 40
0.0
 40
1.0
 40
1.0
 40
1.0
 40
2.0
 40
2.0
 40
2.0
 40
3.0
 40
3.0
 40
3.0
 40
4.0
 40
4.0
 40
4.0
 40
4.0
 10
755.3395967078666
 20
-256.9490016718739
 30
0.0
 10
750.0965058888648
 20
-256.9490016718739
 30
0.0
 10
745.8552488369737
 20
-257.2390787117319
 30
0.0
 10
742.3123126399428
 20
-257.7269042324433
 30
0.0
 10
753.9677596856401
 20
-287.2375921590934
 30
0.0
 10
771.4591984833505
 20
-292.4141926352298
 30
0.0
 10
820.7323321515878
 20
-292.4141926352298
 30
0.0
 10
820.7323321515878
 20
-292.4141926352298
 30
0.0
 10
812.3466252309412
 20
-263.0392414706985
 30
0.0
 10
812.3466252309412
 20
-263.0392414706985
 30
0.0
 10
787.7145370209533
 20
-258.9540472442893
 30
0.0
 10
768.8895017609027
 20
-256.9490016718739
 30
0.0
 10
755.3395967078666
 20
-256.9490016718739
 30
0.0
  0
INSERT
  5
73
330
1F
100
AcDbEntity
  8
Calque 1
100
AcDbBlockReference
  2
block 8
 10
0.0
 20
0.0
 30
0.0
  0
INSERT
  5
7A
330
1F
100
AcDbEntity
  8
Calque 1
100
AcDbBlockReference
  2
block 9
 10
0.0
 20
0.0
 30
0.0
  0
SPLINE
  5
80
330
1F
100
AcDbEntity
  8
Calque 1
 62
   250
370
    35
100
AcDbSpline
210
0.0
220
0.0
230
1.0
 70
    11
 71
     3
 72
    17
 73
    13
 74
     0
 42
0.0000000001
 43
0.0000000001
 40
0.0
 40
0.0
 40
0.0
 40
0.0
 40
1.0
 40
1.0
 40
1.0
 40
2.0
 40
2.0
 40
2.0
 40
3.0
 40
3.0
 40
3.0
 40
4.0
 40
4.0
 40
4.0
 40
4.0
 10
67.76141084460478
 20
-117.6005737010686
 30
0.0
 10
29.84141709323409
 20
-117.5786973447373
 30
0.0
 10
8.447718639381126
 20
-106.1199652512478
 30
0.0
 10
8.447718639381126
 20
-106.1199652512478
 30
0.0
 10
8.447718639381126
 20
-106.1199652512478
 30
0.0
 10
8.447718639381126
 20
-106.0924044873658
 30
0.0
 10
8.447718639381126
 20
-106.0924044873658
 30
0.0
 10
24.04194335336452
 20
-103.8806531858354
 30
0.0
 10
43.4323187825447
 20
-100.4932630499635
 30
0.0
 10
67.76141084460478
 20
-95.55041230250129
 30
0.0
 10
67.76141084460478
 20
-95.55041230250129
 30
0.0
 10
67.76141084460478
 20
-117.6005737010686
 30
0.0
 10
67.76141084460478
 20
-117.6005737010686
 30
0.0
  0
SPLINE
  5
81
330
1F
100
AcDbEntity
  8
Calque 1
 62
   250
370
    35
100
AcDbSpline
210
0.0
220
0.0
230
1.0
 70
    11
 71
     3
 72
    17
 73
    13
 74
     0
 42
0.0000000001
 43
0.0000000001
 40
0.0
 40
0.0
 40
0.0
 40
0.0
 40
1.0
 40
1.0
 40
1.0
 40
2.0
 40
2.0
 40
2.0
 40
3.0
 40
3.0
 40
3.0
 40
4.0
 40
4.0
 40
4.0
 40
4.0
 10
8.447546384606865
 20
-79.33383108910752
 30
0.0
 10
46.36771239075183
 20
-79.3555351906646
 30
0.0
 10
67.76141084460478
 20
-90.81426728415407
 30
0.0
 10
67.76141084460478
 20
-90.81426728415407
 30
0.0
 10
67.76141084460478
 20
-90.81426728415407
 30
0.0
 10
67.76141084460478
 20
-90.84182804803608
 30
0.0
 10
67.76141084460478
 20
-90.84182804803608
 30
0.0
 10
52.1671861306214
 20
-93.05357934956648
 30
0.0
 10
32.77681070144121
 20
-96.44096948543837
 30
0.0
 10
8.447546384606865
 20
-101.3838202329006
 30
0.0
 10
8.447546384606865
 20
-101.3838202329006
 30
0.0
 10
8.447546384606865
 20
-79.33383108910752
 30
0.0
 10
8.447546384606865
 20
-79.33383108910752
 30
0.0
  0
SPLINE
  5
82
330
1F
100
AcDbEntity
  8
Calque 1
 62
   250
370
    35
100
AcDbSpline
210
0.0
220
0.0
230
1.0
 70
    11
 71
     3
 72
    17
 73
    13
 74
     0
 42
0.0000000001
 43
0.0000000001
 40
0.0
 40
0.0
 40
0.0
 40
0.0
 40
1.0
 40
1.0
 40
1.0
 40
2.0
 40
2.0
 40
2.0
 40
3.0
 40
3.0
 40
3.0
 40
4.0
 40
4.0
 40
4.0
 40
4.0
 10
67.76141084460478
 20
-155.8671440582554
 30
0.0
 10
29.84141709323409
 20
-155.8450954471498
 30
0.0
 10
8.447718639381126
 20
-144.3865356084346
 30
0.0
 10
8.447718639381126
 20
-144.3865356084346
 30
0.0
 10
8.447718639381126
 20
-144.3865356084346
 30
0.0
 10
8.447718639381126
 20
-144.3589748445526
 30
0.0
 10
8.447718639381126
 20
-144.3589748445526
 30
0.0
 10
24.04194335336452
 20
-142.1472235430222
 30
0.0
 10
43.4323187825447
 20
-138.7596611523761
 30
0.0
 10
67.76141084460478
 20
-133.8169826596881
 30
0.0
 10
67.76141084460478
 20
-133.8169826596881
 30
0.0
 10
67.76141084460478
 20
-155.8671440582554
 30
0.0
 10
67.76141084460478
 20
-155.8671440582554
 30
0.0
  0
SPLINE
  5
83
330
1F
100
AcDbEntity
  8
Calque 1
 62
   250
370
    35
100
AcDbSpline
210
0.0
220
0.0
230
1.0
 70
    11
 71
     3
 72
    17
 73
    13
 74
     0
 42
0.0000000001
 43
0.0000000001
 40
0.0
 40
0.0
 40
0.0
 40
0.0
 40
1.0
 40
1.0
 40
1.0
 40
2.0
 40
2.0
 40
2.0
 40
3.0
 40
3.0
 40
3.0
 40
4.0
 40
4.0
 40
4.0
 40
4.0
 10
8.447546384606865
 20
-117.6005737010686
 30
0.0
 10
46.36771239075183
 20
-117.6221055478514
 30
0.0
 10
67.76141084460478
 20
-129.0808376413409
 30
0.0
 10
67.76141084460478
 20
-129.0808376413409
 30
0.0
 10
67.76141084460478
 20
-129.0808376413409
 30
0.0
 10
67.76141084460478
 20
-129.1083984052229
 30
0.0
 10
67.76141084460478
 20
-129.1083984052229
 30
0.0
 10
52.1671861306214
 20
-131.3201497067533
 30
0.0
 10
32.77681070144121
 20
-134.7075398426252
 30
0.0
 10
8.447546384606865
 20
-139.6503905900874
 30
0.0
 10
8.447546384606865
 20
-139.6503905900874
 30
0.0
 10
8.447546384606865
 20
-117.6005737010686
 30
0.0
 10
8.447546384606865
 20
-117.6005737010686
 30
0.0
  0
SPLINE
  5
84
330
1F
100
AcDbEntity
  8
Calque 1
 62
   250
370
    35
100
AcDbSpline
210
0.0
220
0.0
230
1.0
 70
    11
 71
     3
 72
    17
 73
    13
 74
     0
 42
0.0000000001
 43
0.0000000001
 40
0.0
 40
0.0
 40
0.0
 40
0.0
 40
1.0
 40
1.0
 40
1.0
 40
2.0
 40
2.0
 40
2.0
 40
3.0
 40
3.0
 40
3.0
 40
4.0
 40
4.0
 40
4.0
 40
4.0
 10
67.76141084460478
 20
-194.133542160668
 30
0.0
 10
29.84141709323409
 20
-194.1118380591109
 30
0.0
 10
8.447718639381126
 20
-182.6531059656214
 30
0.0
 10
8.447718639381126
 20
-182.6531059656214
 30
0.0
 10
8.447718639381126
 20
-182.6531059656214
 30
0.0
 10
8.447718639381126
 20
-182.6255452017394
 30
0.0
 10
8.447718639381126
 20
-182.6255452017394
 30
0.0
 10
24.04194335336452
 20
-180.4137939002091
 30
0.0
 10
43.4323187825447
 20
-177.0262315095629
 30
0.0
 10
67.76141084460478
 20
-172.083553016875
 30
0.0
 10
67.76141084460478
 20
-172.083553016875
 30
0.0
 10
67.76141084460478
 20
-194.133542160668
 30
0.0
 10
67.76141084460478
 20
-194.133542160668
 30
0.0
  0
SPLINE
  5
85
330
1F
100
AcDbEntity
  8
Calque 1
 62
   250
370
    35
100
AcDbSpline
210
0.0
220
0.0
230
1.0
 70
    11
 71
     3
 72
    17
 73
    13
 74
     0
 42
0.0000000001
 43
0.0000000001
 40
0.0
 40
0.0
 40
0.0
 40
0.0
 40
1.0
 40
1.0
 40
1.0
 40
2.0
 40
2.0
 40
2.0
 40
3.0
 40
3.0
 40
3.0
 40
4.0
 40
4.0
 40
4.0
 40
4.0
 10
8.447546384606865
 20
-155.8671440582554
 30
0.0
 10
46.36771239075183
 20
-155.888503650264
 30
0.0
 10
67.76141084460478
 20
-167.347580253302
 30
0.0
 10
67.76141084460478
 20
-167.347580253302
 30
0.0
 10
67.76141084460478
 20
-167.347580253302
 30
0.0
 10
67.76141084460478
 20
-167.375141017184
 30
0.0
 10
67.76141084460478
 20
-167.375141017184
 30
0.0
 10
52.1671861306214
 20
-169.5868923187144
 30
0.0
 10
32.77681070144121
 20
-172.974110199812
 30
0.0
 10
8.447546384606865
 20
-177.9171332020485
 30
0.0
 10
8.447546384606865
 20
-177.9171332020485
 30
0.0
 10
8.447546384606865
 20
-155.8671440582554
 30
0.0
 10
8.447546384606865
 20
-155.8671440582554
 30
0.0
  0
POLYLINE
  5
86
330
1F
100
AcDbEntity
  8
Calque 1
 62
   250
370
    35
100
AcDb2dPolyline
 66
     1
 10
0.0
 20
0.0
 30
0.0
  0
VERTEX
  5
87
330
86
100
AcDbEntity
  8
Calque 1
 62
   250
370
    35
100
AcDbVertex
100
AcDb2dVertex
 10
1000.294498447843
 20
-299.9947807409736
 30
0.0
  0
VERTEX
  5
88
330
86
100
AcDbEntity
  8
Calque 1
 62
   250
370
    35
100
AcDbVertex
100
AcDb2dVertex
 10
0.2945556639888611
 20
-299.9947807409736
 30
0.0
  0
VERTEX
  5
89
330
86
100
AcDbEntity
  8
Calque 1
 62
   250
370
    35
100
AcDbVertex
100
AcDb2dVertex
 10
0.2945556639888611
 20
0.0053398980021372
 30
0.0
  0
VERTEX
  5
8A
330
86
100
AcDbEntity
  8
Calque 1
 62
   250
370
    35
100
AcDbVertex
100
AcDb2dVertex
 10
1000.294498447843
 20
0.0053398980021372
 30
0.0
  0
VERTEX
  5
8B
330
86
100
AcDbEntity
  8
Calque 1
 62
   250
370
    35
100
AcDbVertex
100
AcDb2dVertex
 10
1000.294498447843
 20
-299.9947807409736
 30
0.0
  0
SEQEND
  5
8C
330
86
100
AcDbEntity
  8
Calque 1
370
    35
  0
POLYLINE
  5
8D
330
1F
100
AcDbEntity
  8
Calque 1
 62
   250
370
    35
100
AcDb2dPolyline
 66
     1
 10
0.0
 20
0.0
 30
0.0
  0
VERTEX
  5
8E
330
8D
100
AcDbEntity
  8
Calque 1
 62
   250
370
    35
100
AcDbVertex
100
AcDb2dVertex
 10
119.8559054604874
 20
-157.8418727904007
 30
0.0
  0
VERTEX
  5
8F
330
8D
100
AcDbEntity
  8
Calque 1
 62
   250
370
    35
100
AcDbVertex
100
AcDb2dVertex
 10
77.8560573807096
 20
-157.8418727904007
 30
0.0
  0
VERTEX
  5
90
330
8D
100
AcDbEntity
  8
Calque 1
 62
   250
370
    35
100
AcDbVertex
100
AcDb2dVertex
 10
77.8560573807096
 20
-121.842003007734
 30
0.0
  0
VERTEX
  5
91
330
8D
100
AcDbEntity
  8
Calque 1
 62
   250
370
    35
100
AcDbVertex
100
AcDb2dVertex
 10
119.8559054604874
 20
-121.842003007734
 30
0.0
  0
VERTEX
  5
92
330
8D
100
AcDbEntity
  8
Calque 1
 62
   250
370
    35
100
AcDbVertex
100
AcDb2dVertex
 10
119.8559054604874
 20
-157.8418727904007
 30
0.0
  0
SEQEND
  5
93
330
8D
100
AcDbEntity
  8
Calque 1
370
    35
  0
SPLINE
  5
94
330
1F
100
AcDbEntity
  8
Calque 1
 62
   250
370
    35
100
AcDbSpline
210
0.0
220
0.0
230
1.0
 70
    11
 71
     3
 72
    20
 73
    16
 74
     0
 42
0.0000000001
 43
0.0000000001
 40
0.0
 40
0.0
 40
0.0
 40
0.0
 40
1.0
 40
1.0
 40
1.0
 40
2.0
 40
2.0
 40
2.0
 40
3.0
 40
3.0
 40
3.0
 40
4.0
 40
4.0
 40
4.0
 40
5.0
 40
5.0
 40
5.0
 40
5.0
 10
820.7323321515878
 20
-56.48182371634829
 30
0.0
 10
820.7323321515878
 20
-56.48182371634829
 30
0.0
 10
820.7323321515878
 20
-4.994699434515215
 30
0.0
 10
820.7323321515878
 20
-4.994699434515215
 30
0.0
 10
772.3952309266929
 20
-4.994699434515215
 30
0.0
 10
434.9777559676445
 20
-26.44627549252038
 30
0.0
 10
434.9777559676445
 20
-26.44627549252038
 30
0.0
 10
434.9777559676445
 20
-26.44627549252038
 30
0.0
 10
434.9777559676445
 20
-30.73800319327036
 30
0.0
 10
434.9777559676445
 20
-30.73800319327036
 30
0.0
 10
434.9777559676445
 20
-30.73800319327036
 30
0.0
 10
434.9777559676445
 20
-35.02990314879461
 30
0.0
 10
434.9777559676445
 20
-35.02990314879461
 30
0.0
 10
434.9777559676445
 20
-35.02990314879461
 30
0.0
 10
772.3952309266929
 20
-56.48182371634829
 30
0.0
 10
820.7323321515878
 20
-56.48182371634829
 30
0.0
  0
SPLINE
  5
95
330
1F
100
AcDbEntity
  8
Calque 1
 62
     7
370
    35
100
AcDbSpline
210
0.0
220
0.0
230
1.0
 70
    11
 71
     3
 72
    29
 73
    25
 74
     0
 42
0.0000000001
 43
0.0000000001
 40
0.0
 40
0.0
 40
0.0
 40
0.0
 40
1.0
 40
1.0
 40
1.0
 40
2.0
 40
2.0
 40
2.0
 40
3.0
 40
3.0
 40
3.0
 40
4.0
 40
4.0
 40
4.0
 40
5.0
 40
5.0
 40
5.0
 40
6.0
 40
6.0
 40
6.0
 40
7.0
 40
7.0
 40
7.0
 40
8.0
 40
8.0
 40
8.0
 40
8.0
 10
585.9549314941363
 20
-104.4065470116588
 30
0.0
 10
585.9549314941363
 20
-104.4065470116588
 30
0.0
 10
585.9549314941363
 20
-152.4068901528705
 30
0.0
 10
585.9549314941363
 20
-152.4068901528705
 30
0.0
 10
585.9549314941363
 20
-152.4068901528705
 30
0.0
 10
447.1556517436799
 20
-152.4075791719676
 30
0.0
 10
418.2819619722524
 20
-152.4075791719676
 30
0.0
 10
393.0793659499072
 20
-152.4075791719676
 30
0.0
 10
353.8965724484182
 20
-136.4083834836931
 30
0.0
 10
339.6759073044039
 20
-136.4083834836931
 30
0.0
 10
330.5746540514709
 20
-136.4083834836931
 30
0.0
 10
300.6126586162531
 20
-152.4075791719676
 30
0.0
 10
261.070197146104
 20
-152.4075791719676
 30
0.0
 10
261.070197146104
 20
-152.4075791719676
 30
0.0
 10
261.070197146104
 20
-104.4065470116588
 30
0.0
 10
261.070197146104
 20
-104.4065470116588
 30
0.0
 10
300.6126586162531
 20
-104.4065470116588
 30
0.0
 10
330.5746540514709
 20
-120.405570445159
 30
0.0
 10
339.6759073044039
 20
-120.405570445159
 30
0.0
 10
353.8965724484182
 20
-120.405570445159
 30
0.0
 10
393.0793659499072
 20
-104.4065470116588
 30
0.0
 10
418.2819619722524
 20
-104.4065470116588
 30
0.0
 10
418.2819619722524
 20
-104.4065470116588
 30
0.0
 10
585.9549314941363
 20
-104.4065470116588
 30
0.0
 10
585.9549314941363
 20
-104.4065470116588
 30
0.0
  0
INSERT
  5
97
330
1F
100
AcDbEntity
  8
Calque 1
100
AcDbBlockReference
  2
block 10
 10
0.0
 20
0.0
 30
0.0
  0
ENDSEC
  0
SECTION
  2
OBJECTS
  0
DICTIONARY
  5
C
330
0
100
AcDbDictionary
281
     1
  3
ACAD_GROUP
350
D
  3
ACAD_LAYOUT
350
1A
  3
ACAD_MLINESTYLE
350
17
  3
ACAD_PLOTSETTINGS
350
19
  3
ACAD_PLOTSTYLENAME
350
E
  3
ACAD_TABLESTYLE
350
9D
  3
ACAD_VISUALSTYLE
350
2A
  0
DICTIONARY
  5
D
102
{ACAD_REACTORS
330
C
102
}
330
C
100
AcDbDictionary
281
     1
  0
DICTIONARY
  5
1A
102
{ACAD_REACTORS
330
C
102
}
330
C
100
AcDbDictionary
281
     1
  3
Layout1
350
1E
  3
Layout2
350
26
  3
Model
350
22
  0
DICTIONARY
  5
17
102
{ACAD_REACTORS
330
C
102
}
330
C
100
AcDbDictionary
281
     1
  3
Standard
350
18
  0
DICTIONARY
  5
19
102
{ACAD_REACTORS
330
C
102
}
330
C
100
AcDbDictionary
281
     1
  0
ACDBDICTIONARYWDFLT
  5
E
102
{ACAD_REACTORS
330
C
102
}
330
C
100
AcDbDictionary
281
     1
  3
Normal
350
F
100
AcDbDictionaryWithDefault
340
F
  0
DICTIONARY
  5
9D
102
{ACAD_REACTORS
330
C
102
}
330
C
100
AcDbDictionary
281
     1
  0
DICTIONARY
  5
2A
102
{ACAD_REACTORS
330
C
102
}
330
C
100
AcDbDictionary
281
     1
  3
2dWireframe
350
2F
  3
3D Hidden
350
31
  3
3dWireframe
350
30
  3
Basic
350
32
  3
Brighten
350
36
  3
ColorChange
350
3A
  3
Conceptual
350
34
  3
Dim
350
35
  3
Facepattern
350
39
  3
Flat
350
2B
  3
FlatWithEdges
350
2C
  3
Gouraud
350
2D
  3
GouraudWithEdges
350
2E
  3
Linepattern
350
38
  3
Realistic
350
33
  3
Thicken
350
37
  0
LAYOUT
  5
1E
102
{ACAD_REACTORS
330
1A
102
}
330
1A
100
AcDbPlotSettings
  1

  2
none_device
  4

  6

 40
0.0
 41
0.0
 42
0.0
 43
0.0
 44
0.0
 45
0.0
 46
0.0
 47
0.0
 48
0.0
 49
0.0
140
0.0
141
0.0
142
1.0
143
1.0
 70
   688
 72
     0
 73
     0
 74
     5
  7

 75
    16
 76
     0
 77
     2
 78
   300
147
1.0
148
0.0
149
0.0
100
AcDbLayout
  1
Layout1
 70
     1
 71
     1
 10
0.0
 20
0.0
 11
12.0
 21
9.0
 12
0.0
 22
0.0
 32
0.0
 14
1.000000000000000E+20
 24
1.000000000000000E+20
 34
1.000000000000000E+20
 15
-1.000000000000000E+20
 25
-1.000000000000000E+20
 35
-1.000000000000000E+20
146
0.0
 13
0.0
 23
0.0
 33
0.0
 16
1.0
 26
0.0
 36
0.0
 17
0.0
 27
1.0
 37
0.0
 76
     0
330
1B
  0
LAYOUT
  5
26
102
{ACAD_REACTORS
330
1A
102
}
330
1A
100
AcDbPlotSettings
  1

  2
none_device
  4

  6

 40
0.0
 41
0.0
 42
0.0
 43
0.0
 44
0.0
 45
0.0
 46
0.0
 47
0.0
 48
0.0
 49
0.0
140
0.0
141
0.0
142
1.0
143
1.0
 70
   688
 72
     0
 73
     0
 74
     5
  7

 75
    16
 76
     0
 77
     2
 78
   300
147
1.0
148
0.0
149
0.0
100
AcDbLayout
  1
Layout2
 70
     1
 71
     2
 10
0.0
 20
0.0
 11
0.0
 21
0.0
 12
0.0
 22
0.0
 32
0.0
 14
0.0
 24
0.0
 34
0.0
 15
0.0
 25
0.0
 35
0.0
146
0.0
 13
0.0
 23
0.0
 33
0.0
 16
1.0
 26
0.0
 36
0.0
 17
0.0
 27
1.0
 37
0.0
 76
     0
330
23
  0
LAYOUT
  5
22
102
{ACAD_REACTORS
330
1A
102
}
330
1A
100
AcDbPlotSettings
  1

  2
none_device
  4

  6

 40
0.0
 41
0.0
 42
0.0
 43
0.0
 44
0.0
 45
0.0
 46
0.0
 47
0.0
 48
0.0
 49
0.0
140
0.0
141
0.0
142
1.0
143
1.0
 70
  1712
 72
     0
 73
     0
 74
     0
  7

 75
     0
 76
     0
 77
     2
 78
   300
147
1.0
148
0.0
149
0.0
100
AcDbLayout
  1
Model
 70
     1
 71
     0
 10
0.0
 20
0.0
 11
12.0
 21
9.0
 12
0.0
 22
0.0
 32
0.0
 14
1.000000000000000E+20
 24
1.000000000000000E+20
 34
1.000000000000000E+20
 15
-1.000000000000000E+20
 25
-1.000000000000000E+20
 35
-1.000000000000000E+20
146
0.0
 13
0.0
 23
0.0
 33
0.0
 16
1.0
 26
0.0
 36
0.0
 17
0.0
 27
1.0
 37
0.0
 76
     0
330
1F
331
29
  0
MLINESTYLE
  5
18
102
{ACAD_REACTORS
330
17
102
}
330
17
100
AcDbMlineStyle
  2
Standard
 70
     0
  3

 62
   256
 51
90.0
 52
90.0
 71
     2
 49
0.5
 62
   256
  6
BYLAYER
 49
-0.5
 62
   256
  6
BYLAYER
  0
ACDBPLACEHOLDER
  5
F
102
{ACAD_REACTORS
330
E
102
}
330
E
  0
VISUALSTYLE
  5
2F
102
{ACAD_REACTORS
330
2A
102
}
330
2A
100
AcDbVisualStyle
  2
2dWireframe
 70
     4
 71
     0
 72
     2
 73
     0
 90
        0
 40
-0.6
 41
-30.0
 62
     5
 63
     7
421
 16777215
 74
     1
 91
        4
 64
     7
 65
   257
 75
     1
175
     1
 42
1.0
 92
        0
 66
   257
 43
1.0
 76
     1
 77
     6
 78
     2
 67
     7
 79
     5
170
     0
171
     0
290
     0
174
     0
 93
        1
 44
0.0
173
     0
291
     0
 45
0.0
1001
ACAD
1000
AcDbSavedByObjectVersion
1070
     0
  0
VISUALSTYLE
  5
31
102
{ACAD_REACTORS
330
2A
102
}
330
2A
100
AcDbVisualStyle
  2
3D Hidden
 70
     6
 71
     1
 72
     2
 73
     2
 90
        0
 40
-0.6
 41
-30.0
 62
     5
 63
     7
421
 16777215
 74
     2
 91
        2
 64
     7
 65
   257
 75
     2
175
     1
 42
40.0
 92
        0
 66
   257
 43
1.0
 76
     1
 77
     6
 78
     2
 67
     7
 79
     3
170
     0
171
     0
290
     0
174
     0
 93
        1
 44
0.0
173
     0
291
     0
 45
0.0
1001
ACAD
1000
AcDbSavedByObjectVersion
1070
     0
  0
VISUALSTYLE
  5
30
102
{ACAD_REACTORS
330
2A
102
}
330
2A
100
AcDbVisualStyle
  2
3dWireframe
 70
     5
 71
     0
 72
     2
 73
     0
 90
        0
 40
-0.6
 41
-30.0
 62
     5
 63
     7
421
 16777215
 74
     1
 91
        4
 64
     7
 65
   257
 75
     1
175
     1
 42
1.0
 92
        0
 66
   257
 43
1.0
 76
     1
 77
     6
 78
     2
 67
     7
 79
     5
170
     0
171
     0
290
     0
174
     0
 93
        1
 44
0.0
173
     0
291
     0
 45
0.0
1001
ACAD
1000
AcDbSavedByObjectVersion
1070
     0
  0
VISUALSTYLE
  5
32
102
{ACAD_REACTORS
330
2A
102
}
330
2A
100
AcDbVisualStyle
  2
Basic
 70
     7
 71
     1
 72
     0
 73
     1
 90
        0
 40
-0.6
 41
-30.0
 62
     5
 63
     7
421
 16777215
 74
     0
 91
        4
 64
     7
 65
   257
 75
     1
175
     1
 42
1.0
 92
        8
 66
     7
 43
1.0
 76
     1
 77
     6
 78
     2
 67
     7
 79
     5
170
     0
171
     0
290
     0
174
     0
 93
        1
 44
0.0
173
     0
291
     1
 45
0.0
1001
ACAD
1000
AcDbSavedByObjectVersion
1070
     0
  0
VISUALSTYLE
  5
36
102
{ACAD_REACTORS
330
2A
102
}
330
2A
100
AcDbVisualStyle
  2
Brighten
 70
    12
 71
     2
 72
     2
 73
     0
 90
        0
 40
-0.6
 41
-30.0
 62
     5
 63
     7
421
 16777215
 74
     1
 91
        4
 64
     7
 65
   257
 75
     1
175
     1
 42
1.0
 92
        8
 66
     7
 43
1.0
 76
     1
 77
     6
 78
     2
 67
     7
 79
     5
170
     0
171
     0
290
     0
174
     0
 93
        1
 44
50.0
173
     0
291
     1
 45
0.0
1001
ACAD
1000
AcDbSavedByObjectVersion
1070
     0
  0
VISUALSTYLE
  5
3A
102
{ACAD_REACTORS
330
2A
102
}
330
2A
100
AcDbVisualStyle
  2
ColorChange
 70
    16
 71
     2
 72
     2
 73
     3
 90
        0
 40
-0.6
 41
-30.0
 62
     5
 63
     8
421
  8421504
 74
     1
 91
        4
 64
     7
 65
   257
 75
     1
175
     1
 42
1.0
 92
        8
 66
     8
424
  8421504
 43
1.0
 76
     1
 77
     6
 78
     2
 67
     7
 79
     5
170
     0
171
     0
290
     0
174
     0
 93
        1
 44
0.0
173
     0
291
     1
 45
0.0
1001
ACAD
1000
AcDbSavedByObjectVersion
1070
     0
  0
VISUALSTYLE
  5
34
102
{ACAD_REACTORS
330
2A
102
}
330
2A
100
AcDbVisualStyle
  2
Conceptual
 70
     9
 71
     3
 72
     2
 73
     0
 90
        0
 40
-0.6
 41
-30.0
 62
     5
 63
     7
421
 16777215
 74
     2
 91
        2
 64
     7
 65
   257
 75
     1
175
     1
 42
40.0
 92
        8
 66
     7
 43
1.0
 76
     1
 77
     6
 78
     2
 67
     7
 79
     3
170
     0
171
     0
290
     0
174
     0
 93
        1
 44
0.0
173
     0
291
     0
 45
0.0
1001
ACAD
1000
AcDbSavedByObjectVersion
1070
     0
  0
VISUALSTYLE
  5
35
102
{ACAD_REACTORS
330
2A
102
}
330
2A
100
AcDbVisualStyle
  2
Dim
 70
    11
 71
     2
 72
     2
 73
     0
 90
        0
 40
-0.6
 41
-30.0
 62
     5
 63
     7
421
 16777215
 74
     1
 91
        4
 64
     7
 65
   257
 75
     1
175
     1
 42
1.0
 92
        8
 66
     7
 43
1.0
 76
     1
 77
     6
 78
     2
 67
     7
 79
     5
170
     0
171
     0
290
     0
174
     0
 93
        1
 44
-50.0
173
     0
291
     1
 45
0.0
1001
ACAD
1000
AcDbSavedByObjectVersion
1070
     0
  0
VISUALSTYLE
  5
39
102
{ACAD_REACTORS
330
2A
102
}
330
2A
100
AcDbVisualStyle
  2
Facepattern
 70
    15
 71
     2
 72
     2
 73
     0
 90
        0
 40
-0.6
 41
-30.0
 62
     5
 63
     7
421
 16777215
 74
     1
 91
        4
 64
     7
 65
   257
 75
     1
175
     1
 42
1.0
 92
        8
 66
     7
 43
1.0
 76
     1
 77
     6
 78
     2
 67
     7
 79
     5
170
     0
171
     0
290
     0
174
     0
 93
        1
 44
0.0
173
     0
291
     1
 45
0.0
1001
ACAD
1000
AcDbSavedByObjectVersion
1070
     0
  0
VISUALSTYLE
  5
2B
102
{ACAD_REACTORS
330
2A
102
}
330
2A
100
AcDbVisualStyle
  2
Flat
 70
     0
 71
     2
 72
     1
 73
     1
 90
        2
 40
-0.6
 41
30.0
 62
     5
 63
     7
421
 16777215
 74
     0
 91
        4
 64
     7
 65
   257
 75
     1
175
     1
 42
1.0
 92
        8
 66
     7
 43
1.0
 76
     1
 77
     6
 78
     2
 67
     7
 79
     5
170
     0
171
     0
290
     0
174
     0
 93
       13
 44
0.0
173
     0
291
     1
 45
0.0
1001
ACAD
1000
AcDbSavedByObjectVersion
1070
     0
  0
VISUALSTYLE
  5
2C
102
{ACAD_REACTORS
330
2A
102
}
330
2A
100
AcDbVisualStyle
  2
FlatWithEdges
 70
     1
 71
     2
 72
     1
 73
     1
 90
        2
 40
-0.6
 41
30.0
 62
     5
 63
     7
421
 16777215
 74
     1
 91
        4
 64
     7
 65
   257
 75
     1
175
     1
 42
1.0
 92
        0
 66
   257
 43
1.0
 76
     1
 77
     6
 78
     2
 67
     7
 79
     5
170
     0
171
     0
290
     0
174
     0
 93
       13
 44
0.0
173
     0
291
     1
 45
0.0
1001
ACAD
1000
AcDbSavedByObjectVersion
1070
     0
  0
VISUALSTYLE
  5
2D
102
{ACAD_REACTORS
330
2A
102
}
330
2A
100
AcDbVisualStyle
  2
Gouraud
 70
     2
 71
     2
 72
     2
 73
     1
 90
        2
 40
-0.6
 41
30.0
 62
     5
 63
     7
421
 16777215
 74
     0
 91
        4
 64
     7
 65
   257
 75
     1
175
     1
 42
1.0
 92
        0
 66
     7
 43
1.0
 76
     1
 77
     6
 78
     2
 67
     7
 79
     5
170
     0
171
     0
290
     0
174
     0
 93
       13
 44
0.0
173
     0
291
     1
 45
0.0
1001
ACAD
1000
AcDbSavedByObjectVersion
1070
     0
  0
VISUALSTYLE
  5
2E
102
{ACAD_REACTORS
330
2A
102
}
330
2A
100
AcDbVisualStyle
  2
GouraudWithEdges
 70
     3
 71
     2
 72
     2
 73
     1
 90
        2
 40
-0.6
 41
30.0
 62
     5
 63
     7
421
 16777215
 74
     1
 91
        4
 64
     7
 65
   257
 75
     1
175
     1
 42
1.0
 92
        0
 66
   257
 43
1.0
 76
     1
 77
     6
 78
     2
 67
     7
 79
     5
170
     0
171
     0
290
     0
174
     0
 93
       13
 44
0.0
173
     0
291
     1
 45
0.0
1001
ACAD
1000
AcDbSavedByObjectVersion
1070
     0
  0
VISUALSTYLE
  5
38
102
{ACAD_REACTORS
330
2A
102
}
330
2A
100
AcDbVisualStyle
  2
Linepattern
 70
    14
 71
     2
 72
     2
 73
     0
 90
        0
 40
-0.6
 41
-30.0
 62
     5
 63
     7
421
 16777215
 74
     1
 91
        4
 64
     7
 65
   257
 75
     7
175
     7
 42
1.0
 92
        8
 66
     7
 43
1.0
 76
     1
 77
     6
 78
     2
 67
     7
 79
     5
170
     0
171
     0
290
     0
174
     0
 93
        1
 44
0.0
173
     0
291
     1
 45
0.0
1001
ACAD
1000
AcDbSavedByObjectVersion
1070
     0
  0
VISUALSTYLE
  5
33
102
{ACAD_REACTORS
330
2A
102
}
330
2A
100
AcDbVisualStyle
  2
Realistic
 70
     8
 71
     2
 72
     2
 73
     0
 90
        0
 40
-0.6
 41
-30.0
 62
     5
 63
     7
421
 16777215
 74
     1
 91
        0
 64
     7
 65
   257
 75
     1
175
     1
 42
1.0
 92
        8
 66
     8
424
  7895160
 43
1.0
 76
     1
 77
     6
 78
     2
 67
     7
 79
     5
170
     0
171
     0
290
     0
174
     0
 93
       13
 44
0.0
173
     0
291
     0
 45
0.0
1001
ACAD
1000
AcDbSavedByObjectVersion
1070
     0
  0
VISUALSTYLE
  5
37
102
{ACAD_REACTORS
330
2A
102
}
330
2A
100
AcDbVisualStyle
  2
Thicken
 70
    13
 71
     2
 72
     2
 73
     0
 90
        0
 40
-0.6
 41
-30.0
 62
     5
 63
     7
421
 16777215
 74
     1
 91
        4
 64
     7
 65
   257
 75
     1
175
     1
 42
1.0
 92
       12
 66
     7
 43
1.0
 76
     1
 77
     6
 78
     2
 67
     7
 79
     5
170
     0
171
     0
290
     0
174
     0
 93
        1
 44
0.0
173
     0
291
     1
 45
0.0
1001
ACAD
1000
AcDbSavedByObjectVersion
1070
     0
  0
ENDSEC
  0
EOF
