  0
SECTION
  2
HEADER
  9
$ACADVER
  1
AC1018
  9
$ACADMAINTVER
 70
     0
  9
$DWGCODEPAGE
  3
ANSI_1252
  9
$INSBASE
 10
0.0
 20
0.0
 30
0.0
  9
$EXTMIN
 10
1.000000000000000E+20
 20
1.000000000000000E+20
 30
1.000000000000000E+20
  9
$EXTMAX
 10
-1.000000000000000E+20
 20
-1.000000000000000E+20
 30
-1.000000000000000E+20
  9
$LIMMIN
 10
0.0
 20
0.0
  9
$LIMMAX
 10
12.0
 20
9.0
  9
$ORTHOMODE
 70
     0
  9
$REGENMODE
 70
     1
  9
$FILLMODE
 70
     1
  9
$QTEXTMODE
 70
     0
  9
$MIRRTEXT
 70
     1
  9
$LTSCALE
 40
1.0
  9
$ATTMODE
 70
     1
  9
$TEXTSIZE
 40
0.2
  9
$TRACEWID
 40
0.05
  9
$TEXTSTYLE
  7
Standard
  9
$CLAYER
  8
0
  9
$CELTYPE
  6
ByLayer
  9
$CECOLOR
 62
   256
  9
$CELTSCALE
 40
1.0
  9
$DISPSILH
 70
     0
  9
$DIMSCALE
 40
1.0
  9
$DIMASZ
 40
0.18
  9
$DIMEXO
 40
0.0625
  9
$DIMDLI
 40
0.38
  9
$DIMRND
 40
0.0
  9
$DIMDLE
 40
0.0
  9
$DIMEXE
 40
0.18
  9
$DIMTP
 40
0.0
  9
$DIMTM
 40
0.0
  9
$DIMTXT
 40
0.18
  9
$DIMCEN
 40
0.09
  9
$DIMTSZ
 40
0.0
  9
$DIMTOL
 70
     0
  9
$DIMLIM
 70
     0
  9
$DIMTIH
 70
     1
  9
$DIMTOH
 70
     1
  9
$DIMSE1
 70
     0
  9
$DIMSE2
 70
     0
  9
$DIMTAD
 70
     0
  9
$DIMZIN
 70
     0
  9
$DIMBLK
  1

  9
$DIMASO
 70
     1
  9
$DIMSHO
 70
     1
  9
$DIMPOST
  1

  9
$DIMAPOST
  1

  9
$DIMALT
 70
     0
  9
$DIMALTD
 70
     2
  9
$DIMALTF
 40
25.4
  9
$DIMLFAC
 40
1.0
  9
$DIMTOFL
 70
     0
  9
$DIMTVP
 40
0.0
  9
$DIMTIX
 70
     0
  9
$DIMSOXD
 70
     0
  9
$DIMSAH
 70
     0
  9
$DIMBLK1
  1

  9
$DIMBLK2
  1

  9
$DIMSTYLE
  2
Standard
  9
$DIMCLRD
 70
     0
  9
$DIMCLRE
 70
     0
  9
$DIMCLRT
 70
     0
  9
$DIMTFAC
 40
1.0
  9
$DIMGAP
 40
0.09
  9
$DIMJUST
 70
     0
  9
$DIMSD1
 70
     0
  9
$DIMSD2
 70
     0
  9
$DIMTOLJ
 70
     1
  9
$DIMTZIN
 70
     0
  9
$DIMALTZ
 70
     0
  9
$DIMALTTZ
 70
     0
  9
$DIMUPT
 70
     0
  9
$DIMDEC
 70
     4
  9
$DIMTDEC
 70
     4
  9
$DIMALTU
 70
     2
  9
$DIMALTTD
 70
     2
  9
$DIMTXSTY
  7
Standard
  9
$DIMAUNIT
 70
     0
  9
$DIMADEC
 70
     0
  9
$DIMALTRND
 40
0.0
  9
$DIMAZIN
 70
     0
  9
$DIMDSEP
 70
    46
  9
$DIMATFIT
 70
     3
  9
$DIMFRAC
 70
     0
  9
$DIMLDRBLK
  1

  9
$DIMLUNIT
 70
     2
  9
$DIMLWD
 70
    -2
  9
$DIMLWE
 70
    -2
  9
$DIMTMOVE
 70
     0
  9
$LUNITS
 70
     2
  9
$LUPREC
 70
     4
  9
$SKETCHINC
 40
0.1
  9
$FILLETRAD
 40
0.5
  9
$AUNITS
 70
     0
  9
$AUPREC
 70
     0
  9
$MENU
  1
.
  9
$ELEVATION
 40
0.0
  9
$PELEVATION
 40
0.0
  9
$THICKNESS
 40
0.0
  9
$LIMCHECK
 70
     0
  9
$CHAMFERA
 40
0.5
  9
$CHAMFERB
 40
0.5
  9
$CHAMFERC
 40
1.0
  9
$CHAMFERD
 40
0.0
  9
$SKPOLY
 70
     0
  9
$TDCREATE
 40
2457686.836436007
  9
$TDUCREATE
 40
2457686.753102674
  9
$TDUPDATE
 40
2457686.836436018
  9
$TDUUPDATE
 40
2457686.753102685
  9
$TDINDWG
 40
0.0000000116
  9
$TDUSRTIMER
 40
0.0000000116
  9
$USRTIMER
 70
     1
  9
$ANGBASE
 50
0.0
  9
$ANGDIR
 70
     0
  9
$PDMODE
 70
     0
  9
$PDSIZE
 40
0.0
  9
$PLINEWID
 40
0.0
  9
$SPLFRAME
 70
     0
  9
$SPLINETYPE
 70
     6
  9
$SPLINESEGS
 70
     8
  9
$HANDSEED
  5
81
  9
$SURFTAB1
 70
     6
  9
$SURFTAB2
 70
     6
  9
$SURFTYPE
 70
     6
  9
$SURFU
 70
     6
  9
$SURFV
 70
     6
  9
$UCSBASE
  2

  9
$UCSNAME
  2

  9
$UCSORG
 10
0.0
 20
0.0
 30
0.0
  9
$UCSXDIR
 10
1.0
 20
0.0
 30
0.0
  9
$UCSYDIR
 10
0.0
 20
1.0
 30
0.0
  9
$UCSORTHOREF
  2

  9
$UCSORTHOVIEW
 70
     0
  9
$UCSORGTOP
 10
0.0
 20
0.0
 30
0.0
  9
$UCSORGBOTTOM
 10
0.0
 20
0.0
 30
0.0
  9
$UCSORGLEFT
 10
0.0
 20
0.0
 30
0.0
  9
$UCSORGRIGHT
 10
0.0
 20
0.0
 30
0.0
  9
$UCSORGFRONT
 10
0.0
 20
0.0
 30
0.0
  9
$UCSORGBACK
 10
0.0
 20
0.0
 30
0.0
  9
$PUCSBASE
  2

  9
$PUCSNAME
  2

  9
$PUCSORG
 10
0.0
 20
0.0
 30
0.0
  9
$PUCSXDIR
 10
1.0
 20
0.0
 30
0.0
  9
$PUCSYDIR
 10
0.0
 20
1.0
 30
0.0
  9
$PUCSORTHOREF
  2

  9
$PUCSORTHOVIEW
 70
     0
  9
$PUCSORGTOP
 10
0.0
 20
0.0
 30
0.0
  9
$PUCSORGBOTTOM
 10
0.0
 20
0.0
 30
0.0
  9
$PUCSORGLEFT
 10
0.0
 20
0.0
 30
0.0
  9
$PUCSORGRIGHT
 10
0.0
 20
0.0
 30
0.0
  9
$PUCSORGFRONT
 10
0.0
 20
0.0
 30
0.0
  9
$PUCSORGBACK
 10
0.0
 20
0.0
 30
0.0
  9
$USERI1
 70
     0
  9
$USERI2
 70
     0
  9
$USERI3
 70
     0
  9
$USERI4
 70
     0
  9
$USERI5
 70
     0
  9
$USERR1
 40
0.0
  9
$USERR2
 40
0.0
  9
$USERR3
 40
0.0
  9
$USERR4
 40
0.0
  9
$USERR5
 40
0.0
  9
$WORLDVIEW
 70
     1
  9
$SHADEDGE
 70
     3
  9
$SHADEDIF
 70
    70
  9
$TILEMODE
 70
     1
  9
$MAXACTVP
 70
    64
  9
$PINSBASE
 10
0.0
 20
0.0
 30
0.0
  9
$PLIMCHECK
 70
     0
  9
$PEXTMIN
 10
1.000000000000000E+20
 20
1.000000000000000E+20
 30
1.000000000000000E+20
  9
$PEXTMAX
 10
-1.000000000000000E+20
 20
-1.000000000000000E+20
 30
-1.000000000000000E+20
  9
$PLIMMIN
 10
0.0
 20
0.0
  9
$PLIMMAX
 10
12.0
 20
9.0
  9
$UNITMODE
 70
     0
  9
$VISRETAIN
 70
     1
  9
$PLINEGEN
 70
     0
  9
$PSLTSCALE
 70
     1
  9
$TREEDEPTH
 70
  3020
  9
$CMLSTYLE
  2
Standard
  9
$CMLJUST
 70
     0
  9
$CMLSCALE
 40
1.0
  9
$PROXYGRAPHICS
 70
     1
  9
$MEASUREMENT
 70
     0
  9
$CELWEIGHT
370
    -1
  9
$ENDCAPS
280
     0
  9
$JOINSTYLE
280
     0
  9
$LWDISPLAY
290
     1
  9
$INSUNITS
 70
     1
  9
$HYPERLINKBASE
  1

  9
$STYLESHEET
  1

  9
$XEDIT
290
     1
  9
$CEPSNTYPE
380
     0
  9
$PSTYLEMODE
290
     1
  9
$FINGERPRINTGUID
  2
{DE7F4F63-C276-42CB-AE25-305CB9290966}
  9
$VERSIONGUID
  2
{FAEB1C32-E019-11D5-929B-00C0DF256EC4}
  9
$EXTNAMES
290
     1
  9
$PSVPSCALE
 40
0.0
  9
$OLESTARTUP
290
     0
  9
$SORTENTS
280
   127
  9
$INDEXCTL
280
     0
  9
$HIDETEXT
280
     1
  9
$XCLIPFRAME
290
     0
  9
$HALOGAP
280
     0
  9
$OBSCOLOR
 70
   257
  9
$OBSLTYPE
280
     0
  9
$INTERSECTIONDISPLAY
280
     0
  9
$INTERSECTIONCOLOR
 70
   257
  9
$DIMASSOC
280
     2
  9
$PROJECTNAME
  1

  0
ENDSEC
  0
SECTION
  2
CLASSES
  0
CLASS
  1
ACDBDICTIONARYWDFLT
  2
AcDbDictionaryWithDefault
  3
ObjectDBX Classes
 90
        0
 91
        3
280
     0
281
     0
  0
CLASS
  1
VISUALSTYLE
  2
AcDbVisualStyle
  3
ObjectDBX Classes
 90
     4095
 91
        3
280
     0
281
     0
  0
ENDSEC
  0
SECTION
  2
TABLES
  0
TABLE
  2
VPORT
  5
8
330
0
100
AcDbSymbolTable
 70
     1
  0
VPORT
  5
29
330
8
100
AcDbSymbolTableRecord
100
AcDbViewportTableRecord
  2
*Active
 70
     0
 10
0.0
 20
0.0
 11
1.0
 21
1.0
 12
0.0
 22
0.0
 13
0.0
 23
0.0
 14
0.5
 24
0.5
 15
0.5
 25
0.5
 16
0.0
 26
0.0
 36
1.0
 17
410.0001246804861
 27
-49.99918754175368
 37
0.0
 40
99.99837508350736
 41
8.200135738967765
 42
50.0
 43
0.0
 44
0.0
 50
0.0
 51
0.0
 71
     0
 72
   100
 73
     1
 74
     3
 75
     0
 76
     0
 77
     0
 78
     0
281
     0
 65
     1
110
0.0
120
0.0
130
0.0
111
1.0
121
0.0
131
0.0
112
0.0
122
1.0
132
0.0
 79
     0
146
0.0
  0
ENDTAB
  0
TABLE
  2
LTYPE
  5
5
330
0
100
AcDbSymbolTable
 70
     1
  0
LTYPE
  5
14
330
5
100
AcDbSymbolTableRecord
100
AcDbLinetypeTableRecord
  2
ByBlock
 70
     0
  3

 72
    65
 73
     0
 40
0.0
  0
LTYPE
  5
15
330
5
100
AcDbSymbolTableRecord
100
AcDbLinetypeTableRecord
  2
ByLayer
 70
     0
  3

 72
    65
 73
     0
 40
0.0
  0
LTYPE
  5
16
330
5
100
AcDbSymbolTableRecord
100
AcDbLinetypeTableRecord
  2
Continuous
 70
     0
  3
Solid line
 72
    65
 73
     0
 40
0.0
  0
ENDTAB
  0
TABLE
  2
LAYER
  5
2
330
0
100
AcDbSymbolTable
 70
     2
  0
LAYER
  5
10
330
2
100
AcDbSymbolTableRecord
100
AcDbLayerTableRecord
  2
0
 70
     0
 62
     7
  6
Continuous
370
    -3
390
F
  0
LAYER
  5
3B
330
2
100
AcDbSymbolTableRecord
100
AcDbLayerTableRecord
  2
Calque 1
 70
     0
 62
     7
  6
Continuous
370
    -3
390
F
  0
ENDTAB
  0
TABLE
  2
STYLE
  5
3
330
0
100
AcDbSymbolTable
 70
     1
  0
STYLE
  5
11
330
3
100
AcDbSymbolTableRecord
100
AcDbTextStyleTableRecord
  2
Standard
 70
     0
 40
0.0
 41
1.0
 50
0.0
 71
     0
 42
0.2
  3
txt
  4

  0
ENDTAB
  0
TABLE
  2
VIEW
  5
6
330
0
100
AcDbSymbolTable
 70
     0
  0
ENDTAB
  0
TABLE
  2
UCS
  5
7
330
0
100
AcDbSymbolTable
 70
     0
  0
ENDTAB
  0
TABLE
  2
APPID
  5
9
330
0
100
AcDbSymbolTable
 70
     1
  0
APPID
  5
12
330
9
100
AcDbSymbolTableRecord
100
AcDbRegAppTableRecord
  2
ACAD
 70
     0
  0
ENDTAB
  0
TABLE
  2
DIMSTYLE
  5
A
330
0
100
AcDbSymbolTable
 70
     1
100
AcDbDimStyleTable
  0
DIMSTYLE
105
27
330
A
100
AcDbSymbolTableRecord
100
AcDbDimStyleTableRecord
  2
Standard
 70
     0
340
11
  0
ENDTAB
  0
TABLE
  2
BLOCK_RECORD
  5
1
330
0
100
AcDbSymbolTable
 70
     4
  0
BLOCK_RECORD
  5
1F
330
1
100
AcDbSymbolTableRecord
100
AcDbBlockTableRecord
  2
*Model_Space
340
22
  0
BLOCK_RECORD
  5
1B
330
1
100
AcDbSymbolTableRecord
100
AcDbBlockTableRecord
  2
*Paper_Space
340
1E
  0
BLOCK_RECORD
  5
23
330
1
100
AcDbSymbolTableRecord
100
AcDbBlockTableRecord
  2
*Paper_Space0
340
26
  0
BLOCK_RECORD
  5
4B
330
1
100
AcDbSymbolTableRecord
100
AcDbBlockTableRecord
  2
block 2
340
0
102
{BLKREFS
331
4C
102
}
  0
BLOCK_RECORD
  5
56
330
1
100
AcDbSymbolTableRecord
100
AcDbBlockTableRecord
  2
block 3
340
0
102
{BLKREFS
331
57
102
}
  0
BLOCK_RECORD
  5
5B
330
1
100
AcDbSymbolTableRecord
100
AcDbBlockTableRecord
  2
block 4
340
0
102
{BLKREFS
331
5C
102
}
  0
ENDTAB
  0
ENDSEC
  0
SECTION
  2
BLOCKS
  0
BLOCK
  5
20
330
1F
100
AcDbEntity
  8
0
100
AcDbBlockBegin
  2
*Model_Space
 70
     0
 71
     0
 10
0.0
 20
0.0
 30
0.0
  3
*Model_Space
  1

  0
ENDBLK
  5
21
330
1F
100
AcDbEntity
  8
0
100
AcDbBlockEnd
  0
BLOCK
  5
1C
330
1B
100
AcDbEntity
 67
     1
  8
0
100
AcDbBlockBegin
  2
*Paper_Space
 70
     0
 71
     0
 10
0.0
 20
0.0
 30
0.0
  3
*Paper_Space
  1

  0
ENDBLK
  5
1D
330
1B
100
AcDbEntity
 67
     1
  8
0
100
AcDbBlockEnd
  0
BLOCK
  5
24
330
23
100
AcDbEntity
  8
0
100
AcDbBlockBegin
  2
*Paper_Space0
 70
     0
 71
     0
 10
0.0
 20
0.0
 30
0.0
  3
*Paper_Space0
  1

  0
ENDBLK
  5
25
330
23
100
AcDbEntity
  8
0
100
AcDbBlockEnd
  0
BLOCK
  5
4D
330
4B
100
AcDbEntity
  8
0
100
AcDbBlockBegin
  2
block 2
 70
     0
 71
     0
 10
0.0
 20
0.0
 30
0.0
  3
block 2
  1

  0
SPLINE
  5
4F
330
4B
100
AcDbEntity
  8
Calque 1
 62
   250
370
    35
100
AcDbSpline
210
0.0
220
0.0
230
1.0
 70
    11
 71
     3
 72
    71
 73
    67
 74
     0
 42
0.0000000001
 43
0.0000000001
 40
0.0
 40
0.0
 40
0.0
 40
0.0
 40
1.0
 40
1.0
 40
1.0
 40
2.0
 40
2.0
 40
2.0
 40
3.0
 40
3.0
 40
3.0
 40
4.0
 40
4.0
 40
4.0
 40
5.0
 40
5.0
 40
5.0
 40
6.0
 40
6.0
 40
6.0
 40
7.0
 40
7.0
 40
7.0
 40
8.0
 40
8.0
 40
8.0
 40
9.0
 40
9.0
 40
9.0
 40
10.0
 40
10.0
 40
10.0
 40
11.0
 40
11.0
 40
11.0
 40
12.0
 40
12.0
 40
12.0
 40
13.0
 40
13.0
 40
13.0
 40
14.0
 40
14.0
 40
14.0
 40
15.0
 40
15.0
 40
15.0
 40
16.0
 40
16.0
 40
16.0
 40
17.0
 40
17.0
 40
17.0
 40
18.0
 40
18.0
 40
18.0
 40
19.0
 40
19.0
 40
19.0
 40
20.0
 40
20.0
 40
20.0
 40
21.0
 40
21.0
 40
21.0
 40
22.0
 40
22.0
 40
22.0
 40
22.0
 10
381.5477700869047
 20
-33.75160046899266
 30
0.0
 10
381.5477700869047
 20
-33.75160046899266
 30
0.0
 10
369.7142116046201
 20
-24.98452147812887
 30
0.0
 10
369.7142116046201
 20
-24.98452147812887
 30
0.0
 10
369.7142116046201
 20
-24.98452147812887
 30
0.0
 10
367.1775877988306
 20
-26.33017577466746
 30
0.0
 10
367.1775877988306
 20
-26.33017577466746
 30
0.0
 10
359.1828992157598
 20
-30.13425020948033
 30
0.0
 10
332.7698688946721
 20
-40.85056422589847
 30
0.0
 10
290.5996608431487
 20
-39.89627277648427
 30
0.0
 10
273.1187295866682
 20
-39.40844725577289
 30
0.0
 10
256.2777248165729
 20
-34.8815917881546
 30
0.0
 10
235.9793944722552
 20
-29.42456053951886
 30
0.0
 10
223.1798312159064
 20
-25.98428818794837
 30
0.0
 10
208.6727063822936
 20
-22.08444009864556
 30
0.0
 10
192.0747530986827
 20
-18.69791123664497
 30
0.0
 10
156.2884792361015
 20
-11.39637586520646
 30
0.0
 10
118.5133517498856
 20
-11.00914713266438
 30
0.0
 10
82.87039385949073
 20
-17.77669270388916
 30
0.0
 10
31.90554605322153
 20
-27.45396592195596
 30
0.0
 10
4.283459471585386
 20
-54.1217610541779
 30
0.0
 10
5.610510252503623
 20
-57.2189018954175
 30
0.0
 10
8.251175941947624
 20
-63.38286673762651
 30
0.0
 10
27.80743271874259
 20
-60.83900823131803
 30
0.0
 10
65.05890569120055
 20
-88.43629012546037
 30
0.0
 10
65.05890569120055
 20
-88.43629012546037
 30
0.0
 10
80.2381686539856
 20
-67.94761825558254
 30
0.0
 10
80.2381686539856
 20
-67.94761825558254
 30
0.0
 10
80.2381686539856
 20
-67.94761825558254
 30
0.0
 10
65.38067760952289
 20
-56.93916014201521
 30
0.0
 10
65.38067760952289
 20
-56.93916014201521
 30
0.0
 10
65.38067760952289
 20
-56.93916014201521
 30
0.0
 10
68.35724010877875
 20
-52.92148978711685
 30
0.0
 10
68.35724010877875
 20
-52.92148978711685
 30
0.0
 10
68.35724010877875
 20
-52.92148978711685
 30
0.0
 10
79.3178113951011
 20
-61.04157984585072
 30
0.0
 10
79.3178113951011
 20
-61.04157984585072
 30
0.0
 10
73.77051864475182
 20
-56.93226995104471
 30
0.0
 10
72.58127168324357
 20
-49.13670788702138
 30
0.0
 10
76.71486950122059
 20
-43.55703123911074
 30
0.0
 10
79.87884519487405
 20
-39.28649087559504
 30
0.0
 10
84.05550670641668
 20
-37.88020289851606
 30
0.0
 10
87.28097735448185
 20
-37.29935979970294
 30
0.0
 10
87.28097735448185
 20
-37.29935979970294
 30
0.0
 10
86.56353621967857
 20
-37.43302950453063
 30
0.0
 10
86.56353621967857
 20
-37.43302950453063
 30
0.0
 10
99.48471134665661
 20
-35.00492620652655
 30
0.0
 10
139.0040906770545
 20
-28.28147785751296
 30
0.0
 10
188.0763752785018
 20
-38.29361435674604
 30
0.0
 10
237.148659879949
 20
-48.30643987507617
 30
0.0
 10
266.5770100245016
 20
-62.79099933326059
 30
0.0
 10
304.752113096555
 20
-59.46165905631514
 30
0.0
 10
304.752113096555
 20
-59.46165905631514
 30
0.0
 10
304.7524576061036
 20
-59.4609700372181
 30
0.0
 10
304.7524576061036
 20
-59.4609700372181
 30
0.0
 10
304.7524576061036
 20
-59.4609700372181
 30
0.0
 10
347.8933213105961
 20
-53.69456921400692
 30
0.0
 10
347.8933213105961
 20
-53.69456921400692
 30
0.0
 10
347.8933213105961
 20
-53.69456921400692
 30
0.0
 10
347.8933213105961
 20
-53.69456921400692
 30
0.0
 10
347.8933213105961
 20
-53.69456921400692
 30
0.0
 10
347.8933213105961
 20
-53.69456921400692
 30
0.0
 10
368.8484591091768
 20
-50.89301756540175
 30
0.0
 10
368.8484591091768
 20
-50.89301756540175
 30
0.0
 10
368.8484591091768
 20
-50.89301756540175
 30
0.0
 10
381.5477700869047
 20
-33.75160046899266
 30
0.0
 10
381.5477700869047
 20
-33.75160046899266
 30
0.0
  0
SPLINE
  5
50
330
4B
100
AcDbEntity
  8
Calque 1
 62
   250
370
    35
100
AcDbSpline
210
0.0
220
0.0
230
1.0
 70
    11
 71
     3
 72
    17
 73
    13
 74
     0
 42
0.0000000001
 43
0.0000000001
 40
0.0
 40
0.0
 40
0.0
 40
0.0
 40
1.0
 40
1.0
 40
1.0
 40
2.0
 40
2.0
 40
2.0
 40
3.0
 40
3.0
 40
3.0
 40
4.0
 40
4.0
 40
4.0
 40
4.0
 10
32.61850856389398
 20
-52.65966253023787
 30
0.0
 10
34.18551024535987
 20
-51.67298718326231
 30
0.0
 10
35.89513887991511
 20
-50.64910480504606
 30
0.0
 10
37.75187309169051
 20
-49.60179577753011
 30
0.0
 10
41.09223767418874
 20
-47.71870658529254
 30
0.0
 10
45.19379610415294
 20
-45.60893011012555
 30
0.0
 10
50.02485350311879
 20
-43.48123913843525
 30
0.0
 10
48.81958684760414
 20
-49.41851669771481
 30
0.0
 10
49.07934704719197
 20
-55.54389647048903
 30
0.0
 10
50.72317435797893
 20
-61.31167533189431
 30
0.0
 10
43.82368162966908
 20
-57.49519855333454
 30
0.0
 10
37.76582572840577
 20
-54.73292099326122
 30
0.0
 10
32.61850856389398
 20
-52.65966253023787
 30
0.0
  0
SPLINE
  5
51
330
4B
100
AcDbEntity
  8
Calque 1
 62
   250
370
    35
100
AcDbSpline
210
0.0
220
0.0
230
1.0
 70
    11
 71
     3
 72
    71
 73
    67
 74
     0
 42
0.0000000001
 43
0.0000000001
 40
0.0
 40
0.0
 40
0.0
 40
0.0
 40
1.0
 40
1.0
 40
1.0
 40
2.0
 40
2.0
 40
2.0
 40
3.0
 40
3.0
 40
3.0
 40
4.0
 40
4.0
 40
4.0
 40
5.0
 40
5.0
 40
5.0
 40
6.0
 40
6.0
 40
6.0
 40
7.0
 40
7.0
 40
7.0
 40
8.0
 40
8.0
 40
8.0
 40
9.0
 40
9.0
 40
9.0
 40
10.0
 40
10.0
 40
10.0
 40
11.0
 40
11.0
 40
11.0
 40
12.0
 40
12.0
 40
12.0
 40
13.0
 40
13.0
 40
13.0
 40
14.0
 40
14.0
 40
14.0
 40
15.0
 40
15.0
 40
15.0
 40
16.0
 40
16.0
 40
16.0
 40
17.0
 40
17.0
 40
17.0
 40
18.0
 40
18.0
 40
18.0
 40
19.0
 40
19.0
 40
19.0
 40
20.0
 40
20.0
 40
20.0
 40
21.0
 40
21.0
 40
21.0
 40
22.0
 40
22.0
 40
22.0
 40
22.0
 10
84.23809676713492
 20
-65.94739581684648
 30
0.0
 10
84.23809676713492
 20
-65.94739581684648
 30
0.0
 10
96.07165524941959
 20
-74.71447480771027
 30
0.0
 10
96.07165524941959
 20
-74.71447480771027
 30
0.0
 10
96.07165524941959
 20
-74.71447480771027
 30
0.0
 10
98.60827905520905
 20
-73.36882051117169
 30
0.0
 10
98.60827905520905
 20
-73.36882051117169
 30
0.0
 10
106.6029676382798
 20
-69.56474607635882
 30
0.0
 10
133.0159979593675
 20
-58.84843205994067
 30
0.0
 10
175.186206010891
 20
-59.80272350935488
 30
0.0
 10
192.6671372673714
 20
-60.29054903006625
 30
0.0
 10
209.5081420374667
 20
-64.81740449768454
 30
0.0
 10
229.8064723817845
 20
-70.27443574632028
 30
0.0
 10
242.6060356381332
 20
-73.71470809789076
 30
0.0
 10
257.113160471746
 20
-77.61455618719359
 30
0.0
 10
273.711113755357
 20
-81.00108504919417
 30
0.0
 10
309.4973876179382
 20
-88.30262042063268
 30
0.0
 10
347.2725151041541
 20
-88.68984915317476
 30
0.0
 10
382.9154729945489
 20
-81.92230358194999
 30
0.0
 10
433.8801485460439
 20
-72.24503036388319
 30
0.0
 10
461.50223512768
 20
-45.57723523166125
 30
0.0
 10
460.1751843467618
 20
-42.48009439042165
 30
0.0
 10
457.5348631668663
 20
-36.31612954821264
 30
0.0
 10
437.9784341352971
 20
-38.85998805452112
 30
0.0
 10
400.7269611628391
 20
-11.26270616037877
 30
0.0
 10
400.7269611628391
 20
-11.26270616037877
 30
0.0
 10
385.5476982000541
 20
-31.7513780302566
 30
0.0
 10
385.5476982000541
 20
-31.7513780302566
 30
0.0
 10
385.5476982000541
 20
-31.7513780302566
 30
0.0
 10
400.4051892445167
 20
-42.75983614382393
 30
0.0
 10
400.4051892445167
 20
-42.75983614382393
 30
0.0
 10
400.4051892445167
 20
-42.75983614382393
 30
0.0
 10
397.4286267452609
 20
-46.77750649872229
 30
0.0
 10
397.4286267452609
 20
-46.77750649872229
 30
0.0
 10
397.4286267452609
 20
-46.77750649872229
 30
0.0
 10
386.4680554589386
 20
-38.65741643998842
 30
0.0
 10
386.4680554589386
 20
-38.65741643998842
 30
0.0
 10
392.0153482092878
 20
-42.76672633479443
 30
0.0
 10
393.2045951707961
 20
-50.56228839881776
 30
0.0
 10
389.0709973528191
 20
-56.1419650467284
 30
0.0
 10
385.9070216591657
 20
-60.4125054102441
 30
0.0
 10
381.730360147623
 20
-61.81879338732308
 30
0.0
 10
378.5048894995578
 20
-62.3996364861362
 30
0.0
 10
378.5048894995578
 20
-62.3996364861362
 30
0.0
 10
379.2223306343611
 20
-62.26596678130851
 30
0.0
 10
379.2223306343611
 20
-62.26596678130851
 30
0.0
 10
366.301155507383
 20
-64.6940700793126
 30
0.0
 10
326.7817761769851
 20
-71.41751842832618
 30
0.0
 10
277.7094915755379
 20
-61.4053819290931
 30
0.0
 10
228.6372069740907
 20
-51.39255641076297
 30
0.0
 10
199.2088568295381
 20
-36.90799695257856
 30
0.0
 10
161.0337537574846
 20
-40.237337229524
 30
0.0
 10
161.0337537574846
 20
-40.237337229524
 30
0.0
 10
161.0334092479361
 20
-40.23802624862105
 30
0.0
 10
161.0334092479361
 20
-40.23802624862105
 30
0.0
 10
161.0334092479361
 20
-40.23802624862105
 30
0.0
 10
117.8925455434435
 20
-46.00442707183223
 30
0.0
 10
117.8925455434435
 20
-46.00442707183223
 30
0.0
 10
117.8925455434435
 20
-46.00442707183223
 30
0.0
 10
117.8925455434435
 20
-46.00442707183223
 30
0.0
 10
117.8925455434435
 20
-46.00442707183223
 30
0.0
 10
117.8925455434435
 20
-46.00442707183223
 30
0.0
 10
96.93740774486288
 20
-48.80597872043739
 30
0.0
 10
96.93740774486288
 20
-48.80597872043739
 30
0.0
 10
96.93740774486288
 20
-48.80597872043739
 30
0.0
 10
84.23809676713492
 20
-65.94739581684648
 30
0.0
 10
84.23809676713492
 20
-65.94739581684648
 30
0.0
  0
SPLINE
  5
52
330
4B
100
AcDbEntity
  8
Calque 1
 62
   250
370
    35
100
AcDbSpline
210
0.0
220
0.0
230
1.0
 70
    11
 71
     3
 72
    17
 73
    13
 74
     0
 42
0.0000000001
 43
0.0000000001
 40
0.0
 40
0.0
 40
0.0
 40
0.0
 40
1.0
 40
1.0
 40
1.0
 40
2.0
 40
2.0
 40
2.0
 40
3.0
 40
3.0
 40
3.0
 40
4.0
 40
4.0
 40
4.0
 40
4.0
 10
433.1673582901457
 20
-47.03933375560128
 30
0.0
 10
431.6001843539055
 20
-48.02600910257684
 30
0.0
 10
429.8907279741246
 20
-49.04989148079309
 30
0.0
 10
428.0338215075749
 20
-50.09720050830904
 30
0.0
 10
424.6934569250766
 20
-51.9802897005466
 30
0.0
 10
420.5920707498867
 20
-54.09006617571359
 30
0.0
 10
415.7610133509209
 20
-56.21775714740389
 30
0.0
 10
416.9661077516613
 20
-50.28047958812433
 30
0.0
 10
416.7063475520735
 20
-44.15509981535011
 30
0.0
 10
415.0626924960607
 20
-38.38732095394484
 30
0.0
 10
421.9621852243706
 20
-42.20379773250461
 30
0.0
 10
428.0200411256339
 20
-44.96607529257793
 30
0.0
 10
433.1673582901457
 20
-47.03933375560128
 30
0.0
  0
ENDBLK
  5
4E
330
4B
100
AcDbEntity
  8
0
100
AcDbBlockEnd
  0
BLOCK
  5
58
330
56
100
AcDbEntity
  8
0
100
AcDbBlockBegin
  2
block 3
 70
     0
 71
     0
 10
0.0
 20
0.0
 30
0.0
  3
block 3
  1

  0
SPLINE
  5
5A
330
56
100
AcDbEntity
  8
Calque 1
 62
   250
370
    35
100
AcDbSpline
210
0.0
220
0.0
230
1.0
 70
    11
 71
     3
 72
    23
 73
    19
 74
     0
 42
0.0000000001
 43
0.0000000001
 40
0.0
 40
0.0
 40
0.0
 40
0.0
 40
1.0
 40
1.0
 40
1.0
 40
2.0
 40
2.0
 40
2.0
 40
3.0
 40
3.0
 40
3.0
 40
4.0
 40
4.0
 40
4.0
 40
5.0
 40
5.0
 40
5.0
 40
6.0
 40
6.0
 40
6.0
 40
6.0
 10
514.54912639046
 20
-86.25485566420018
 30
0.0
 10
514.54912639046
 20
-86.25485566420018
 30
0.0
 10
514.54912639046
 20
-1.256081813922091
 30
0.0
 10
514.54912639046
 20
-1.256081813922091
 30
0.0
 10
514.54912639046
 20
-1.256081813922091
 30
0.0
 10
463.2082464119757
 20
-1.256081813922091
 30
0.0
 10
463.2082464119757
 20
-1.256081813922091
 30
0.0
 10
463.2082464119757
 20
-1.256081813922091
 30
0.0
 10
463.2082464119757
 20
-86.25485566420018
 30
0.0
 10
463.2082464119757
 20
-86.25485566420018
 30
0.0
 10
463.2082464119757
 20
-93.1581379975438
 30
0.0
 10
457.6116887961874
 20
-98.75504012288069
 30
0.0
 10
450.7080619532952
 20
-98.75504012288069
 30
0.0
 10
450.7080619532952
 20
-98.75504012288069
 30
0.0
 10
527.049655358689
 20
-98.75504012288069
 30
0.0
 10
527.049655358689
 20
-98.75504012288069
 30
0.0
 10
520.1453394966998
 20
-98.75504012288069
 30
0.0
 10
514.54912639046
 20
-93.1581379975438
 30
0.0
 10
514.54912639046
 20
-86.25485566420018
 30
0.0
  0
ENDBLK
  5
59
330
56
100
AcDbEntity
  8
0
100
AcDbBlockEnd
  0
BLOCK
  5
5D
330
5B
100
AcDbEntity
  8
0
100
AcDbBlockBegin
  2
block 4
 70
     0
 71
     0
 10
0.0
 20
0.0
 30
0.0
  3
block 4
  1

  0
SPLINE
  5
5F
330
5B
100
AcDbEntity
  8
Calque 1
 62
   250
370
    35
100
AcDbSpline
210
0.0
220
0.0
230
1.0
 70
    11
 71
     3
 72
    32
 73
    28
 74
     0
 42
0.0000000001
 43
0.0000000001
 40
0.0
 40
0.0
 40
0.0
 40
0.0
 40
1.0
 40
1.0
 40
1.0
 40
2.0
 40
2.0
 40
2.0
 40
3.0
 40
3.0
 40
3.0
 40
4.0
 40
4.0
 40
4.0
 40
5.0
 40
5.0
 40
5.0
 40
6.0
 40
6.0
 40
6.0
 40
7.0
 40
7.0
 40
7.0
 40
8.0
 40
8.0
 40
8.0
 40
9.0
 40
9.0
 40
9.0
 40
9.0
 10
538.3585257985701
 20
-64.45498045263626
 30
0.0
 10
538.3585257985701
 20
-64.45498045263626
 30
0.0
 10
538.3585257985701
 20
-88.01529945716284
 30
0.0
 10
538.3585257985701
 20
-88.01529945716284
 30
0.0
 10
538.3585257985701
 20
-88.01529945716284
 30
0.0
 10
589.6994057770544
 20
-88.01529945716284
 30
0.0
 10
589.6994057770544
 20
-88.01529945716284
 30
0.0
 10
589.6994057770544
 20
-88.01529945716284
 30
0.0
 10
589.6994057770544
 20
-64.45498045263626
 30
0.0
 10
589.6994057770544
 20
-64.45498045263626
 30
0.0
 10
589.6994057770544
 20
-57.55100910019559
 30
0.0
 10
595.2956188832942
 20
-51.95479599395575
 30
0.0
 10
602.1995902357348
 20
-51.95479599395575
 30
0.0
 10
605.3511635856414
 20
-51.95479599395575
 30
0.0
 10
608.2298853731162
 20
-53.12096081571282
 30
0.0
 10
610.4285453118026
 20
-55.04539115377338
 30
0.0
 10
610.4285453118026
 20
-55.04539115377338
 30
0.0
 10
564.0293102973608
 20
-10.00800238465078
 30
0.0
 10
564.0293102973608
 20
-10.00800238465078
 30
0.0
 10
564.0293102973608
 20
-10.00800238465078
 30
0.0
 10
517.6262856778851
 20
-55.04745821106453
 30
0.0
 10
517.6262856778851
 20
-55.04745821106453
 30
0.0
 10
519.8252901261201
 20
-53.12199434435839
 30
0.0
 10
522.7050454422405
 20
-51.95479599395575
 30
0.0
 10
525.8583413398896
 20
-51.95479599395575
 30
0.0
 10
532.7619681827817
 20
-51.95479599395575
 30
0.0
 10
538.3585257985701
 20
-57.55100910019559
 30
0.0
 10
538.3585257985701
 20
-64.45498045263626
 30
0.0
  0
ENDBLK
  5
5E
330
5B
100
AcDbEntity
  8
0
100
AcDbBlockEnd
  0
ENDSEC
  0
SECTION
  2
ENTITIES
  0
POLYLINE
  5
3C
330
1F
100
AcDbEntity
  8
Calque 1
 62
   250
370
    35
100
AcDb2dPolyline
 66
     1
 10
0.0
 20
0.0
 30
0.0
  0
VERTEX
  5
3D
330
3C
100
AcDbEntity
  8
Calque 1
 62
   250
370
    35
100
AcDbVertex
100
AcDb2dVertex
 10
615.328160110925
 20
-100.013878013191
 30
0.0
  0
VERTEX
  5
3E
330
3C
100
AcDbEntity
  8
Calque 1
 62
   250
370
    35
100
AcDbVertex
100
AcDb2dVertex
 10
815.329044392522
 20
-100.013878013191
 30
0.0
  0
VERTEX
  5
3F
330
3C
100
AcDbEntity
  8
Calque 1
 62
   250
370
    35
100
AcDbVertex
100
AcDb2dVertex
 10
815.329044392522
 20
-75.01419811492701
 30
0.0
  0
VERTEX
  5
40
330
3C
100
AcDbEntity
  8
Calque 1
 62
   250
370
    35
100
AcDbVertex
100
AcDb2dVertex
 10
615.328160110925
 20
-75.01419811492701
 30
0.0
  0
VERTEX
  5
41
330
3C
100
AcDbEntity
  8
Calque 1
 62
   250
370
    35
100
AcDbVertex
100
AcDb2dVertex
 10
615.328160110925
 20
-100.013878013191
 30
0.0
  0
SEQEND
  5
42
330
3C
100
AcDbEntity
  8
Calque 1
370
    35
  0
POLYLINE
  5
43
330
1F
100
AcDbEntity
  8
Calque 1
 62
   250
370
    35
100
AcDb2dPolyline
 66
     1
 10
0.0
 20
0.0
 30
0.0
  0
VERTEX
  5
44
330
43
100
AcDbEntity
  8
Calque 1
 62
   250
370
    35
100
AcDbVertex
100
AcDb2dVertex
 10
615.328160110925
 20
-75.01419811492701
 30
0.0
  0
VERTEX
  5
45
330
43
100
AcDbEntity
  8
Calque 1
 62
   250
370
    35
100
AcDbVertex
100
AcDb2dVertex
 10
815.329044392522
 20
-75.01419811492701
 30
0.0
  0
VERTEX
  5
46
330
43
100
AcDbEntity
  8
Calque 1
 62
   250
370
    35
100
AcDbVertex
100
AcDb2dVertex
 10
815.329044392522
 20
-50.01382919756599
 30
0.0
  0
VERTEX
  5
47
330
43
100
AcDbEntity
  8
Calque 1
 62
   250
370
    35
100
AcDbVertex
100
AcDb2dVertex
 10
615.328160110925
 20
-50.01382919756599
 30
0.0
  0
VERTEX
  5
48
330
43
100
AcDbEntity
  8
Calque 1
 62
   250
370
    35
100
AcDbVertex
100
AcDb2dVertex
 10
615.328160110925
 20
-75.01419811492701
 30
0.0
  0
SEQEND
  5
49
330
43
100
AcDbEntity
  8
Calque 1
370
    35
  0
SPLINE
  5
4A
330
1F
100
AcDbEntity
  8
Calque 1
 62
   250
370
    35
100
AcDbSpline
210
0.0
220
0.0
230
1.0
 70
    11
 71
     3
 72
    17
 73
    13
 74
     0
 42
0.0000000001
 43
0.0000000001
 40
0.0
 40
0.0
 40
0.0
 40
0.0
 40
1.0
 40
1.0
 40
1.0
 40
2.0
 40
2.0
 40
2.0
 40
3.0
 40
3.0
 40
3.0
 40
4.0
 40
4.0
 40
4.0
 40
4.0
 10
155.1700289868151
 20
-100.013878013191
 30
0.0
 10
155.1700289868151
 20
-100.013878013191
 30
0.0
 10
73.32920191309131
 20
-100.013878013191
 30
0.0
 10
73.32920191309131
 20
-100.013878013191
 30
0.0
 10
73.32920191309131
 20
-100.013878013191
 30
0.0
 10
73.32920191309131
 20
-80.01440970221863
 30
0.0
 10
73.32920191309131
 20
-80.01440970221863
 30
0.0
 10
73.32920191309131
 20
-80.01440970221863
 30
0.0
 10
144.4969509187369
 20
-80.01440970221863
 30
0.0
 10
144.4969509187369
 20
-80.01440970221863
 30
0.0
 10
148.165977610528
 20
-86.23142901490048
 30
0.0
 10
151.7595567111921
 20
-92.89906681705301
 30
0.0
 10
155.1700289868151
 20
-100.013878013191
 30
0.0
  0
INSERT
  5
4C
330
1F
100
AcDbEntity
  8
Calque 1
100
AcDbBlockReference
  2
block 2
 10
0.0
 20
0.0
 30
0.0
  0
SPLINE
  5
53
330
1F
100
AcDbEntity
  8
Calque 1
 62
   250
370
    35
100
AcDbSpline
210
0.0
220
0.0
230
1.0
 70
    11
 71
     3
 72
    29
 73
    25
 74
     0
 42
0.0000000001
 43
0.0000000001
 40
0.0
 40
0.0
 40
0.0
 40
0.0
 40
1.0
 40
1.0
 40
1.0
 40
2.0
 40
2.0
 40
2.0
 40
3.0
 40
3.0
 40
3.0
 40
4.0
 40
4.0
 40
4.0
 40
5.0
 40
5.0
 40
5.0
 40
6.0
 40
6.0
 40
6.0
 40
7.0
 40
7.0
 40
7.0
 40
8.0
 40
8.0
 40
8.0
 40
8.0
 10
165.4057521830409
 20
-91.01459958662136
 30
0.0
 10
165.4057521830409
 20
-91.01459958662136
 30
0.0
 10
160.4053683409751
 20
-91.01459958662136
 30
0.0
 10
160.4053683409751
 20
-91.01459958662136
 30
0.0
 10
160.4053683409751
 20
-91.01459958662136
 30
0.0
 10
160.4053683409751
 20
-80.01440970221863
 30
0.0
 10
160.4053683409751
 20
-80.01440970221863
 30
0.0
 10
160.4053683409751
 20
-80.01440970221863
 30
0.0
 10
146.905417172475
 20
-80.01440970221863
 30
0.0
 10
146.905417172475
 20
-80.01440970221863
 30
0.0
 10
150.1980671825026
 20
-86.39197046451312
 30
0.0
 10
153.1561984209123
 20
-93.03342554097776
 30
0.0
 10
156.0543849978788
 20
-100.014567032288
 30
0.0
 10
156.0543849978788
 20
-100.014567032288
 30
0.0
 10
262.9045382372253
 20
-100.014567032288
 30
0.0
 10
262.9045382372253
 20
-100.014567032288
 30
0.0
 10
262.9045382372253
 20
-100.014567032288
 30
0.0
 10
262.9045382372253
 20
-80.01440970221863
 30
0.0
 10
262.9045382372253
 20
-80.01440970221863
 30
0.0
 10
262.9045382372253
 20
-80.01440970221863
 30
0.0
 10
165.4057521830409
 20
-80.01440970221863
 30
0.0
 10
165.4057521830409
 20
-80.01440970221863
 30
0.0
 10
165.4057521830409
 20
-80.01440970221863
 30
0.0
 10
165.4057521830409
 20
-91.01459958662136
 30
0.0
 10
165.4057521830409
 20
-91.01459958662136
 30
0.0
  0
SPLINE
  5
54
330
1F
100
AcDbEntity
  8
Calque 1
 62
   250
370
    35
100
AcDbSpline
210
0.0
220
0.0
230
1.0
 70
    11
 71
     3
 72
    17
 73
    13
 74
     0
 42
0.0000000001
 43
0.0000000001
 40
0.0
 40
0.0
 40
0.0
 40
0.0
 40
1.0
 40
1.0
 40
1.0
 40
2.0
 40
2.0
 40
2.0
 40
3.0
 40
3.0
 40
3.0
 40
4.0
 40
4.0
 40
4.0
 40
4.0
 10
311.0647338089526
 20
0.1498616536083679
 30
0.0
 10
311.0647338089526
 20
0.1498616536083679
 30
0.0
 10
392.9055608826764
 20
0.1498616536083679
 30
0.0
 10
392.9055608826764
 20
0.1498616536083679
 30
0.0
 10
392.9055608826764
 20
0.1498616536083679
 30
0.0
 10
392.9055608826764
 20
-19.84995116691251
 30
0.0
 10
392.9055608826764
 20
-19.84995116691251
 30
0.0
 10
392.9055608826764
 20
-19.84995116691251
 30
0.0
 10
321.7378118770308
 20
-19.84995116691251
 30
0.0
 10
321.7378118770308
 20
-19.84995116691251
 30
0.0
 10
318.0687851852398
 20
-13.63293185423066
 30
0.0
 10
314.4752060845756
 20
-6.965294052078121
 30
0.0
 10
311.0647338089526
 20
0.1498616536083679
 30
0.0
  0
SPLINE
  5
55
330
1F
100
AcDbEntity
  8
Calque 1
 62
   250
370
    35
100
AcDbSpline
210
0.0
220
0.0
230
1.0
 70
    11
 71
     3
 72
    29
 73
    25
 74
     0
 42
0.0000000001
 43
0.0000000001
 40
0.0
 40
0.0
 40
0.0
 40
0.0
 40
1.0
 40
1.0
 40
1.0
 40
2.0
 40
2.0
 40
2.0
 40
3.0
 40
3.0
 40
3.0
 40
4.0
 40
4.0
 40
4.0
 40
5.0
 40
5.0
 40
5.0
 40
6.0
 40
6.0
 40
6.0
 40
7.0
 40
7.0
 40
7.0
 40
8.0
 40
8.0
 40
8.0
 40
8.0
 10
300.8288383579525
 20
-8.849761282509782
 30
0.0
 10
300.8288383579525
 20
-8.849761282509782
 30
0.0
 10
305.8293944547927
 20
-8.849761282509782
 30
0.0
 10
305.8293944547927
 20
-8.849761282509782
 30
0.0
 10
305.8293944547927
 20
-8.849761282509782
 30
0.0
 10
305.8293944547927
 20
-19.84995116691251
 30
0.0
 10
305.8293944547927
 20
-19.84995116691251
 30
0.0
 10
305.8293944547927
 20
-19.84995116691251
 30
0.0
 10
319.3293456232927
 20
-19.84995116691251
 30
0.0
 10
319.3293456232927
 20
-19.84995116691251
 30
0.0
 10
316.0365233584909
 20
-13.47239040461801
 30
0.0
 10
313.0785643748554
 20
-6.830935328153378
 30
0.0
 10
310.1803777978889
 20
0.1502061631568929
 30
0.0
 10
310.1803777978889
 20
0.1502061631568929
 30
0.0
 10
203.3302245585425
 20
0.1502061631568929
 30
0.0
 10
203.3302245585425
 20
0.1502061631568929
 30
0.0
 10
203.3302245585425
 20
0.1502061631568929
 30
0.0
 10
203.3302245585425
 20
-19.84995116691251
 30
0.0
 10
203.3302245585425
 20
-19.84995116691251
 30
0.0
 10
203.3302245585425
 20
-19.84995116691251
 30
0.0
 10
300.8288383579525
 20
-19.84995116691251
 30
0.0
 10
300.8288383579525
 20
-19.84995116691251
 30
0.0
 10
300.8288383579525
 20
-19.84995116691251
 30
0.0
 10
300.8288383579525
 20
-8.849761282509782
 30
0.0
 10
300.8288383579525
 20
-8.849761282509782
 30
0.0
  0
INSERT
  5
57
330
1F
100
AcDbEntity
  8
Calque 1
100
AcDbBlockReference
  2
block 3
 10
0.0
 20
0.0
 30
0.0
  0
INSERT
  5
5C
330
1F
100
AcDbEntity
  8
Calque 1
100
AcDbBlockReference
  2
block 4
 10
0.0
 20
0.0
 30
0.0
  0
POLYLINE
  5
60
330
1F
100
AcDbEntity
  8
Calque 1
 62
   250
370
    35
100
AcDb2dPolyline
 66
     1
 10
0.0
 20
0.0
 30
0.0
  0
VERTEX
  5
61
330
60
100
AcDbEntity
  8
Calque 1
 62
   250
370
    35
100
AcDbVertex
100
AcDb2dVertex
 10
449.9480738892491
 20
-87.44341360661137
 30
0.0
  0
VERTEX
  5
62
330
60
100
AcDbEntity
  8
Calque 1
 62
   250
370
    35
100
AcDbVertex
100
AcDb2dVertex
 10
449.9480738892491
 20
-74.84263235976157
 30
0.0
  0
VERTEX
  5
63
330
60
100
AcDbEntity
  8
Calque 1
 62
   250
370
    35
100
AcDbVertex
100
AcDb2dVertex
 10
445.9479735213255
 20
-74.84263235976157
 30
0.0
  0
VERTEX
  5
64
330
60
100
AcDbEntity
  8
Calque 1
 62
   250
370
    35
100
AcDbVertex
100
AcDb2dVertex
 10
445.9479735213255
 20
-70.84287650138651
 30
0.0
  0
VERTEX
  5
65
330
60
100
AcDbEntity
  8
Calque 1
 62
   250
370
    35
100
AcDbVertex
100
AcDb2dVertex
 10
427.5480630441547
 20
-70.84287650138651
 30
0.0
  0
VERTEX
  5
66
330
60
100
AcDbEntity
  8
Calque 1
 62
   250
370
    35
100
AcDbVertex
100
AcDb2dVertex
 10
427.5480630441547
 20
-74.84263235976157
 30
0.0
  0
VERTEX
  5
67
330
60
100
AcDbEntity
  8
Calque 1
 62
   250
370
    35
100
AcDbVertex
100
AcDb2dVertex
 10
423.5479626762311
 20
-74.84263235976157
 30
0.0
  0
VERTEX
  5
68
330
60
100
AcDbEntity
  8
Calque 1
 62
   250
370
    35
100
AcDbVertex
100
AcDb2dVertex
 10
423.5479626762311
 20
-87.44341360661137
 30
0.0
  0
VERTEX
  5
69
330
60
100
AcDbEntity
  8
Calque 1
 62
   250
370
    35
100
AcDbVertex
100
AcDb2dVertex
 10
427.5480630441547
 20
-87.44341360661137
 30
0.0
  0
VERTEX
  5
6A
330
60
100
AcDbEntity
  8
Calque 1
 62
   250
370
    35
100
AcDbVertex
100
AcDb2dVertex
 10
427.5480630441547
 20
-91.44316946498644
 30
0.0
  0
VERTEX
  5
6B
330
60
100
AcDbEntity
  8
Calque 1
 62
   250
370
    35
100
AcDbVertex
100
AcDb2dVertex
 10
445.9479735213255
 20
-91.44316946498644
 30
0.0
  0
VERTEX
  5
6C
330
60
100
AcDbEntity
  8
Calque 1
 62
   250
370
    35
100
AcDbVertex
100
AcDb2dVertex
 10
445.9479735213255
 20
-87.44341360661137
 30
0.0
  0
VERTEX
  5
6D
330
60
100
AcDbEntity
  8
Calque 1
 62
   250
370
    35
100
AcDbVertex
100
AcDb2dVertex
 10
449.9480738892491
 20
-87.44341360661137
 30
0.0
  0
SEQEND
  5
6E
330
60
100
AcDbEntity
  8
Calque 1
370
    35
  0
POLYLINE
  5
6F
330
1F
100
AcDbEntity
  8
Calque 1
 62
   250
370
    35
100
AcDb2dPolyline
 66
     1
 10
0.0
 20
0.0
 30
0.0
  0
VERTEX
  5
70
330
6F
100
AcDbEntity
  8
Calque 1
 62
   250
370
    35
100
AcDbVertex
100
AcDb2dVertex
 10
542.444753553625
 20
-23.17791340566385
 30
0.0
  0
VERTEX
  5
71
330
6F
100
AcDbEntity
  8
Calque 1
 62
   250
370
    35
100
AcDbVertex
100
AcDb2dVertex
 10
542.444753553625
 20
-7.678428817524837
 30
0.0
  0
VERTEX
  5
72
330
6F
100
AcDbEntity
  8
Calque 1
 62
   250
370
    35
100
AcDbVertex
100
AcDb2dVertex
 10
538.4449976952499
 20
-7.678428817524837
 30
0.0
  0
VERTEX
  5
73
330
6F
100
AcDbEntity
  8
Calque 1
 62
   250
370
    35
100
AcDbVertex
100
AcDb2dVertex
 10
538.4449976952499
 20
-3.677983940052727
 30
0.0
  0
VERTEX
  5
74
330
6F
100
AcDbEntity
  8
Calque 1
 62
   250
370
    35
100
AcDbVertex
100
AcDb2dVertex
 10
523.7440862405917
 20
-3.677983940052727
 30
0.0
  0
VERTEX
  5
75
330
6F
100
AcDbEntity
  8
Calque 1
 62
   250
370
    35
100
AcDbVertex
100
AcDb2dVertex
 10
523.7440862405917
 20
-7.678428817524837
 30
0.0
  0
VERTEX
  5
76
330
6F
100
AcDbEntity
  8
Calque 1
 62
   250
370
    35
100
AcDbVertex
100
AcDb2dVertex
 10
519.7443303822167
 20
-7.678428817524837
 30
0.0
  0
VERTEX
  5
77
330
6F
100
AcDbEntity
  8
Calque 1
 62
   250
370
    35
100
AcDbVertex
100
AcDb2dVertex
 10
519.7443303822167
 20
-23.17791340566385
 30
0.0
  0
VERTEX
  5
78
330
6F
100
AcDbEntity
  8
Calque 1
 62
   250
370
    35
100
AcDbVertex
100
AcDb2dVertex
 10
523.7440862405917
 20
-23.17791340566385
 30
0.0
  0
VERTEX
  5
79
330
6F
100
AcDbEntity
  8
Calque 1
 62
   250
370
    35
100
AcDbVertex
100
AcDb2dVertex
 10
523.7440862405917
 20
-27.17835828313597
 30
0.0
  0
VERTEX
  5
7A
330
6F
100
AcDbEntity
  8
Calque 1
 62
   250
370
    35
100
AcDbVertex
100
AcDb2dVertex
 10
538.4449976952499
 20
-27.17835828313597
 30
0.0
  0
VERTEX
  5
7B
330
6F
100
AcDbEntity
  8
Calque 1
 62
   250
370
    35
100
AcDbVertex
100
AcDb2dVertex
 10
538.4449976952499
 20
-23.17791340566385
 30
0.0
  0
VERTEX
  5
7C
330
6F
100
AcDbEntity
  8
Calque 1
 62
   250
370
    35
100
AcDbVertex
100
AcDb2dVertex
 10
542.444753553625
 20
-23.17791340566385
 30
0.0
  0
SEQEND
  5
7D
330
6F
100
AcDbEntity
  8
Calque 1
370
    35
  0
SPLINE
  5
7E
330
1F
100
AcDbEntity
  8
Calque 1
 62
   250
370
    35
100
AcDbSpline
210
0.0
220
0.0
230
1.0
 70
    11
 71
     3
 72
    32
 73
    28
 74
     0
 42
0.0000000001
 43
0.0000000001
 40
0.0
 40
0.0
 40
0.0
 40
0.0
 40
1.0
 40
1.0
 40
1.0
 40
2.0
 40
2.0
 40
2.0
 40
3.0
 40
3.0
 40
3.0
 40
4.0
 40
4.0
 40
4.0
 40
5.0
 40
5.0
 40
5.0
 40
6.0
 40
6.0
 40
6.0
 40
7.0
 40
7.0
 40
7.0
 40
8.0
 40
8.0
 40
8.0
 40
9.0
 40
9.0
 40
9.0
 40
9.0
 10
38.86429442387768
 20
-29.46659070443891
 30
0.0
 10
38.86429442387768
 20
-29.46659070443891
 30
0.0
 10
39.00485431967587
 20
-29.41078015757786
 30
0.0
 10
39.00485431967587
 20
-29.41078015757786
 30
0.0
 10
39.00485431967587
 20
-29.41078015757786
 30
0.0
 10
44.00489365219322
 20
-18.82813584598741
 30
0.0
 10
44.00489365219322
 20
-18.82813584598741
 30
0.0
 10
44.00489365219322
 20
-18.82813584598741
 30
0.0
 10
34.00481498715852
 20
-18.82813584598741
 30
0.0
 10
34.00481498715852
 20
-18.82813584598741
 30
0.0
 10
34.00481498715852
 20
-18.82813584598741
 30
0.0
 10
34.00481498715852
 20
-26.82764756273754
 30
0.0
 10
34.00481498715852
 20
-26.82764756273754
 30
0.0
 10
34.00481498715852
 20
-26.82764756273754
 30
0.0
 10
15.00476887645714
 20
-26.82764756273754
 30
0.0
 10
15.00476887645714
 20
-26.82764756273754
 30
0.0
 10
15.00476887645714
 20
-26.82764756273754
 30
0.0
 10
15.00476887645714
 20
-18.82813584598741
 30
0.0
 10
15.00476887645714
 20
-18.82813584598741
 30
0.0
 10
15.00476887645714
 20
-18.82813584598741
 30
0.0
 10
5.004690211422439
 20
-18.82813584598741
 30
0.0
 10
5.004690211422439
 20
-18.82813584598741
 30
0.0
 10
5.004690211422439
 20
-18.82813584598741
 30
0.0
 10
11.23772921811071
 20
-31.20601941494155
 30
0.0
 10
11.23772921811071
 20
-31.20601941494155
 30
0.0
 10
20.29884710864057
 20
-30.66272785691765
 30
0.0
 10
29.59819335197545
 20
-30.07430554803698
 30
0.0
 10
38.86429442387768
 20
-29.46659070443891
 30
0.0
  0
SPLINE
  5
7F
330
1F
100
AcDbEntity
  8
Calque 1
 62
   250
370
    35
100
AcDbSpline
210
0.0
220
0.0
230
1.0
 70
    11
 71
     3
 72
    32
 73
    28
 74
     0
 42
0.0000000001
 43
0.0000000001
 40
0.0
 40
0.0
 40
0.0
 40
0.0
 40
1.0
 40
1.0
 40
1.0
 40
2.0
 40
2.0
 40
2.0
 40
3.0
 40
3.0
 40
3.0
 40
4.0
 40
4.0
 40
4.0
 40
5.0
 40
5.0
 40
5.0
 40
6.0
 40
6.0
 40
6.0
 40
7.0
 40
7.0
 40
7.0
 40
8.0
 40
8.0
 40
8.0
 40
9.0
 40
9.0
 40
9.0
 40
9.0
 10
38.86429442387768
 20
-8.189680987535914
 30
0.0
 10
38.86429442387768
 20
-8.189680987535914
 30
0.0
 10
39.00485431967587
 20
-8.245491534396962
 30
0.0
 10
39.00485431967587
 20
-8.245491534396962
 30
0.0
 10
39.00485431967587
 20
-8.245491534396962
 30
0.0
 10
44.00489365219322
 20
-18.82813584598741
 30
0.0
 10
44.00489365219322
 20
-18.82813584598741
 30
0.0
 10
44.00489365219322
 20
-18.82813584598741
 30
0.0
 10
34.00481498715852
 20
-18.82813584598741
 30
0.0
 10
34.00481498715852
 20
-18.82813584598741
 30
0.0
 10
34.00481498715852
 20
-18.82813584598741
 30
0.0
 10
34.00481498715852
 20
-10.82793511014024
 30
0.0
 10
34.00481498715852
 20
-10.82793511014024
 30
0.0
 10
34.00481498715852
 20
-10.82793511014024
 30
0.0
 10
15.00476887645714
 20
-10.82793511014024
 30
0.0
 10
15.00476887645714
 20
-10.82793511014024
 30
0.0
 10
15.00476887645714
 20
-10.82793511014024
 30
0.0
 10
15.00476887645714
 20
-18.82813584598741
 30
0.0
 10
15.00476887645714
 20
-18.82813584598741
 30
0.0
 10
15.00476887645714
 20
-18.82813584598741
 30
0.0
 10
5.004690211422439
 20
-18.82813584598741
 30
0.0
 10
5.004690211422439
 20
-18.82813584598741
 30
0.0
 10
5.004690211422439
 20
-18.82813584598741
 30
0.0
 10
11.23772921811071
 20
-6.449907767484746
 30
0.0
 10
11.23772921811071
 20
-6.449907767484746
 30
0.0
 10
20.29884710864057
 20
-6.99285481596012
 30
0.0
 10
29.59819335197545
 20
-7.581277124840792
 30
0.0
 10
38.86429442387768
 20
-8.189680987535914
 30
0.0
  0
ENDSEC
  0
SECTION
  2
OBJECTS
  0
DICTIONARY
  5
C
330
0
100
AcDbDictionary
281
     1
  3
ACAD_GROUP
350
D
  3
ACAD_LAYOUT
350
1A
  3
ACAD_MLINESTYLE
350
17
  3
ACAD_PLOTSETTINGS
350
19
  3
ACAD_PLOTSTYLENAME
350
E
  3
ACAD_TABLESTYLE
350
80
  3
ACAD_VISUALSTYLE
350
2A
  0
DICTIONARY
  5
D
102
{ACAD_REACTORS
330
C
102
}
330
C
100
AcDbDictionary
281
     1
  0
DICTIONARY
  5
1A
102
{ACAD_REACTORS
330
C
102
}
330
C
100
AcDbDictionary
281
     1
  3
Layout1
350
1E
  3
Layout2
350
26
  3
Model
350
22
  0
DICTIONARY
  5
17
102
{ACAD_REACTORS
330
C
102
}
330
C
100
AcDbDictionary
281
     1
  3
Standard
350
18
  0
DICTIONARY
  5
19
102
{ACAD_REACTORS
330
C
102
}
330
C
100
AcDbDictionary
281
     1
  0
ACDBDICTIONARYWDFLT
  5
E
102
{ACAD_REACTORS
330
C
102
}
330
C
100
AcDbDictionary
281
     1
  3
Normal
350
F
100
AcDbDictionaryWithDefault
340
F
  0
DICTIONARY
  5
80
102
{ACAD_REACTORS
330
C
102
}
330
C
100
AcDbDictionary
281
     1
  0
DICTIONARY
  5
2A
102
{ACAD_REACTORS
330
C
102
}
330
C
100
AcDbDictionary
281
     1
  3
2dWireframe
350
2F
  3
3D Hidden
350
31
  3
3dWireframe
350
30
  3
Basic
350
32
  3
Brighten
350
36
  3
ColorChange
350
3A
  3
Conceptual
350
34
  3
Dim
350
35
  3
Facepattern
350
39
  3
Flat
350
2B
  3
FlatWithEdges
350
2C
  3
Gouraud
350
2D
  3
GouraudWithEdges
350
2E
  3
Linepattern
350
38
  3
Realistic
350
33
  3
Thicken
350
37
  0
LAYOUT
  5
1E
102
{ACAD_REACTORS
330
1A
102
}
330
1A
100
AcDbPlotSettings
  1

  2
none_device
  4

  6

 40
0.0
 41
0.0
 42
0.0
 43
0.0
 44
0.0
 45
0.0
 46
0.0
 47
0.0
 48
0.0
 49
0.0
140
0.0
141
0.0
142
1.0
143
1.0
 70
   688
 72
     0
 73
     0
 74
     5
  7

 75
    16
 76
     0
 77
     2
 78
   300
147
1.0
148
0.0
149
0.0
100
AcDbLayout
  1
Layout1
 70
     1
 71
     1
 10
0.0
 20
0.0
 11
12.0
 21
9.0
 12
0.0
 22
0.0
 32
0.0
 14
1.000000000000000E+20
 24
1.000000000000000E+20
 34
1.000000000000000E+20
 15
-1.000000000000000E+20
 25
-1.000000000000000E+20
 35
-1.000000000000000E+20
146
0.0
 13
0.0
 23
0.0
 33
0.0
 16
1.0
 26
0.0
 36
0.0
 17
0.0
 27
1.0
 37
0.0
 76
     0
330
1B
  0
LAYOUT
  5
26
102
{ACAD_REACTORS
330
1A
102
}
330
1A
100
AcDbPlotSettings
  1

  2
none_device
  4

  6

 40
0.0
 41
0.0
 42
0.0
 43
0.0
 44
0.0
 45
0.0
 46
0.0
 47
0.0
 48
0.0
 49
0.0
140
0.0
141
0.0
142
1.0
143
1.0
 70
   688
 72
     0
 73
     0
 74
     5
  7

 75
    16
 76
     0
 77
     2
 78
   300
147
1.0
148
0.0
149
0.0
100
AcDbLayout
  1
Layout2
 70
     1
 71
     2
 10
0.0
 20
0.0
 11
0.0
 21
0.0
 12
0.0
 22
0.0
 32
0.0
 14
0.0
 24
0.0
 34
0.0
 15
0.0
 25
0.0
 35
0.0
146
0.0
 13
0.0
 23
0.0
 33
0.0
 16
1.0
 26
0.0
 36
0.0
 17
0.0
 27
1.0
 37
0.0
 76
     0
330
23
  0
LAYOUT
  5
22
102
{ACAD_REACTORS
330
1A
102
}
330
1A
100
AcDbPlotSettings
  1

  2
none_device
  4

  6

 40
0.0
 41
0.0
 42
0.0
 43
0.0
 44
0.0
 45
0.0
 46
0.0
 47
0.0
 48
0.0
 49
0.0
140
0.0
141
0.0
142
1.0
143
1.0
 70
  1712
 72
     0
 73
     0
 74
     0
  7

 75
     0
 76
     0
 77
     2
 78
   300
147
1.0
148
0.0
149
0.0
100
AcDbLayout
  1
Model
 70
     1
 71
     0
 10
0.0
 20
0.0
 11
12.0
 21
9.0
 12
0.0
 22
0.0
 32
0.0
 14
1.000000000000000E+20
 24
1.000000000000000E+20
 34
1.000000000000000E+20
 15
-1.000000000000000E+20
 25
-1.000000000000000E+20
 35
-1.000000000000000E+20
146
0.0
 13
0.0
 23
0.0
 33
0.0
 16
1.0
 26
0.0
 36
0.0
 17
0.0
 27
1.0
 37
0.0
 76
     0
330
1F
331
29
  0
MLINESTYLE
  5
18
102
{ACAD_REACTORS
330
17
102
}
330
17
100
AcDbMlineStyle
  2
Standard
 70
     0
  3

 62
   256
 51
90.0
 52
90.0
 71
     2
 49
0.5
 62
   256
  6
BYLAYER
 49
-0.5
 62
   256
  6
BYLAYER
  0
ACDBPLACEHOLDER
  5
F
102
{ACAD_REACTORS
330
E
102
}
330
E
  0
VISUALSTYLE
  5
2F
102
{ACAD_REACTORS
330
2A
102
}
330
2A
100
AcDbVisualStyle
  2
2dWireframe
 70
     4
 71
     0
 72
     2
 73
     0
 90
        0
 40
-0.6
 41
-30.0
 62
     5
 63
     7
421
 16777215
 74
     1
 91
        4
 64
     7
 65
   257
 75
     1
175
     1
 42
1.0
 92
        0
 66
   257
 43
1.0
 76
     1
 77
     6
 78
     2
 67
     7
 79
     5
170
     0
171
     0
290
     0
174
     0
 93
        1
 44
0.0
173
     0
291
     0
 45
0.0
1001
ACAD
1000
AcDbSavedByObjectVersion
1070
     0
  0
VISUALSTYLE
  5
31
102
{ACAD_REACTORS
330
2A
102
}
330
2A
100
AcDbVisualStyle
  2
3D Hidden
 70
     6
 71
     1
 72
     2
 73
     2
 90
        0
 40
-0.6
 41
-30.0
 62
     5
 63
     7
421
 16777215
 74
     2
 91
        2
 64
     7
 65
   257
 75
     2
175
     1
 42
40.0
 92
        0
 66
   257
 43
1.0
 76
     1
 77
     6
 78
     2
 67
     7
 79
     3
170
     0
171
     0
290
     0
174
     0
 93
        1
 44
0.0
173
     0
291
     0
 45
0.0
1001
ACAD
1000
AcDbSavedByObjectVersion
1070
     0
  0
VISUALSTYLE
  5
30
102
{ACAD_REACTORS
330
2A
102
}
330
2A
100
AcDbVisualStyle
  2
3dWireframe
 70
     5
 71
     0
 72
     2
 73
     0
 90
        0
 40
-0.6
 41
-30.0
 62
     5
 63
     7
421
 16777215
 74
     1
 91
        4
 64
     7
 65
   257
 75
     1
175
     1
 42
1.0
 92
        0
 66
   257
 43
1.0
 76
     1
 77
     6
 78
     2
 67
     7
 79
     5
170
     0
171
     0
290
     0
174
     0
 93
        1
 44
0.0
173
     0
291
     0
 45
0.0
1001
ACAD
1000
AcDbSavedByObjectVersion
1070
     0
  0
VISUALSTYLE
  5
32
102
{ACAD_REACTORS
330
2A
102
}
330
2A
100
AcDbVisualStyle
  2
Basic
 70
     7
 71
     1
 72
     0
 73
     1
 90
        0
 40
-0.6
 41
-30.0
 62
     5
 63
     7
421
 16777215
 74
     0
 91
        4
 64
     7
 65
   257
 75
     1
175
     1
 42
1.0
 92
        8
 66
     7
 43
1.0
 76
     1
 77
     6
 78
     2
 67
     7
 79
     5
170
     0
171
     0
290
     0
174
     0
 93
        1
 44
0.0
173
     0
291
     1
 45
0.0
1001
ACAD
1000
AcDbSavedByObjectVersion
1070
     0
  0
VISUALSTYLE
  5
36
102
{ACAD_REACTORS
330
2A
102
}
330
2A
100
AcDbVisualStyle
  2
Brighten
 70
    12
 71
     2
 72
     2
 73
     0
 90
        0
 40
-0.6
 41
-30.0
 62
     5
 63
     7
421
 16777215
 74
     1
 91
        4
 64
     7
 65
   257
 75
     1
175
     1
 42
1.0
 92
        8
 66
     7
 43
1.0
 76
     1
 77
     6
 78
     2
 67
     7
 79
     5
170
     0
171
     0
290
     0
174
     0
 93
        1
 44
50.0
173
     0
291
     1
 45
0.0
1001
ACAD
1000
AcDbSavedByObjectVersion
1070
     0
  0
VISUALSTYLE
  5
3A
102
{ACAD_REACTORS
330
2A
102
}
330
2A
100
AcDbVisualStyle
  2
ColorChange
 70
    16
 71
     2
 72
     2
 73
     3
 90
        0
 40
-0.6
 41
-30.0
 62
     5
 63
     8
421
  8421504
 74
     1
 91
        4
 64
     7
 65
   257
 75
     1
175
     1
 42
1.0
 92
        8
 66
     8
424
  8421504
 43
1.0
 76
     1
 77
     6
 78
     2
 67
     7
 79
     5
170
     0
171
     0
290
     0
174
     0
 93
        1
 44
0.0
173
     0
291
     1
 45
0.0
1001
ACAD
1000
AcDbSavedByObjectVersion
1070
     0
  0
VISUALSTYLE
  5
34
102
{ACAD_REACTORS
330
2A
102
}
330
2A
100
AcDbVisualStyle
  2
Conceptual
 70
     9
 71
     3
 72
     2
 73
     0
 90
        0
 40
-0.6
 41
-30.0
 62
     5
 63
     7
421
 16777215
 74
     2
 91
        2
 64
     7
 65
   257
 75
     1
175
     1
 42
40.0
 92
        8
 66
     7
 43
1.0
 76
     1
 77
     6
 78
     2
 67
     7
 79
     3
170
     0
171
     0
290
     0
174
     0
 93
        1
 44
0.0
173
     0
291
     0
 45
0.0
1001
ACAD
1000
AcDbSavedByObjectVersion
1070
     0
  0
VISUALSTYLE
  5
35
102
{ACAD_REACTORS
330
2A
102
}
330
2A
100
AcDbVisualStyle
  2
Dim
 70
    11
 71
     2
 72
     2
 73
     0
 90
        0
 40
-0.6
 41
-30.0
 62
     5
 63
     7
421
 16777215
 74
     1
 91
        4
 64
     7
 65
   257
 75
     1
175
     1
 42
1.0
 92
        8
 66
     7
 43
1.0
 76
     1
 77
     6
 78
     2
 67
     7
 79
     5
170
     0
171
     0
290
     0
174
     0
 93
        1
 44
-50.0
173
     0
291
     1
 45
0.0
1001
ACAD
1000
AcDbSavedByObjectVersion
1070
     0
  0
VISUALSTYLE
  5
39
102
{ACAD_REACTORS
330
2A
102
}
330
2A
100
AcDbVisualStyle
  2
Facepattern
 70
    15
 71
     2
 72
     2
 73
     0
 90
        0
 40
-0.6
 41
-30.0
 62
     5
 63
     7
421
 16777215
 74
     1
 91
        4
 64
     7
 65
   257
 75
     1
175
     1
 42
1.0
 92
        8
 66
     7
 43
1.0
 76
     1
 77
     6
 78
     2
 67
     7
 79
     5
170
     0
171
     0
290
     0
174
     0
 93
        1
 44
0.0
173
     0
291
     1
 45
0.0
1001
ACAD
1000
AcDbSavedByObjectVersion
1070
     0
  0
VISUALSTYLE
  5
2B
102
{ACAD_REACTORS
330
2A
102
}
330
2A
100
AcDbVisualStyle
  2
Flat
 70
     0
 71
     2
 72
     1
 73
     1
 90
        2
 40
-0.6
 41
30.0
 62
     5
 63
     7
421
 16777215
 74
     0
 91
        4
 64
     7
 65
   257
 75
     1
175
     1
 42
1.0
 92
        8
 66
     7
 43
1.0
 76
     1
 77
     6
 78
     2
 67
     7
 79
     5
170
     0
171
     0
290
     0
174
     0
 93
       13
 44
0.0
173
     0
291
     1
 45
0.0
1001
ACAD
1000
AcDbSavedByObjectVersion
1070
     0
  0
VISUALSTYLE
  5
2C
102
{ACAD_REACTORS
330
2A
102
}
330
2A
100
AcDbVisualStyle
  2
FlatWithEdges
 70
     1
 71
     2
 72
     1
 73
     1
 90
        2
 40
-0.6
 41
30.0
 62
     5
 63
     7
421
 16777215
 74
     1
 91
        4
 64
     7
 65
   257
 75
     1
175
     1
 42
1.0
 92
        0
 66
   257
 43
1.0
 76
     1
 77
     6
 78
     2
 67
     7
 79
     5
170
     0
171
     0
290
     0
174
     0
 93
       13
 44
0.0
173
     0
291
     1
 45
0.0
1001
ACAD
1000
AcDbSavedByObjectVersion
1070
     0
  0
VISUALSTYLE
  5
2D
102
{ACAD_REACTORS
330
2A
102
}
330
2A
100
AcDbVisualStyle
  2
Gouraud
 70
     2
 71
     2
 72
     2
 73
     1
 90
        2
 40
-0.6
 41
30.0
 62
     5
 63
     7
421
 16777215
 74
     0
 91
        4
 64
     7
 65
   257
 75
     1
175
     1
 42
1.0
 92
        0
 66
     7
 43
1.0
 76
     1
 77
     6
 78
     2
 67
     7
 79
     5
170
     0
171
     0
290
     0
174
     0
 93
       13
 44
0.0
173
     0
291
     1
 45
0.0
1001
ACAD
1000
AcDbSavedByObjectVersion
1070
     0
  0
VISUALSTYLE
  5
2E
102
{ACAD_REACTORS
330
2A
102
}
330
2A
100
AcDbVisualStyle
  2
GouraudWithEdges
 70
     3
 71
     2
 72
     2
 73
     1
 90
        2
 40
-0.6
 41
30.0
 62
     5
 63
     7
421
 16777215
 74
     1
 91
        4
 64
     7
 65
   257
 75
     1
175
     1
 42
1.0
 92
        0
 66
   257
 43
1.0
 76
     1
 77
     6
 78
     2
 67
     7
 79
     5
170
     0
171
     0
290
     0
174
     0
 93
       13
 44
0.0
173
     0
291
     1
 45
0.0
1001
ACAD
1000
AcDbSavedByObjectVersion
1070
     0
  0
VISUALSTYLE
  5
38
102
{ACAD_REACTORS
330
2A
102
}
330
2A
100
AcDbVisualStyle
  2
Linepattern
 70
    14
 71
     2
 72
     2
 73
     0
 90
        0
 40
-0.6
 41
-30.0
 62
     5
 63
     7
421
 16777215
 74
     1
 91
        4
 64
     7
 65
   257
 75
     7
175
     7
 42
1.0
 92
        8
 66
     7
 43
1.0
 76
     1
 77
     6
 78
     2
 67
     7
 79
     5
170
     0
171
     0
290
     0
174
     0
 93
        1
 44
0.0
173
     0
291
     1
 45
0.0
1001
ACAD
1000
AcDbSavedByObjectVersion
1070
     0
  0
VISUALSTYLE
  5
33
102
{ACAD_REACTORS
330
2A
102
}
330
2A
100
AcDbVisualStyle
  2
Realistic
 70
     8
 71
     2
 72
     2
 73
     0
 90
        0
 40
-0.6
 41
-30.0
 62
     5
 63
     7
421
 16777215
 74
     1
 91
        0
 64
     7
 65
   257
 75
     1
175
     1
 42
1.0
 92
        8
 66
     8
424
  7895160
 43
1.0
 76
     1
 77
     6
 78
     2
 67
     7
 79
     5
170
     0
171
     0
290
     0
174
     0
 93
       13
 44
0.0
173
     0
291
     0
 45
0.0
1001
ACAD
1000
AcDbSavedByObjectVersion
1070
     0
  0
VISUALSTYLE
  5
37
102
{ACAD_REACTORS
330
2A
102
}
330
2A
100
AcDbVisualStyle
  2
Thicken
 70
    13
 71
     2
 72
     2
 73
     0
 90
        0
 40
-0.6
 41
-30.0
 62
     5
 63
     7
421
 16777215
 74
     1
 91
        4
 64
     7
 65
   257
 75
     1
175
     1
 42
1.0
 92
       12
 66
     7
 43
1.0
 76
     1
 77
     6
 78
     2
 67
     7
 79
     5
170
     0
171
     0
290
     0
174
     0
 93
        1
 44
0.0
173
     0
291
     1
 45
0.0
1001
ACAD
1000
AcDbSavedByObjectVersion
1070
     0
  0
ENDSEC
  0
EOF
