  0
SECTION
  2
HEADER
  9
$ACADVER
  1
AC1018
  9
$ACADMAINTVER
 70
     0
  9
$DWGCODEPAGE
  3
ANSI_1252
  9
$INSBASE
 10
0.0
 20
0.0
 30
0.0
  9
$EXTMIN
 10
1.000000000000000E+20
 20
1.000000000000000E+20
 30
1.000000000000000E+20
  9
$EXTMAX
 10
-1.000000000000000E+20
 20
-1.000000000000000E+20
 30
-1.000000000000000E+20
  9
$LIMMIN
 10
0.0
 20
0.0
  9
$LIMMAX
 10
12.0
 20
9.0
  9
$ORTHOMODE
 70
     0
  9
$REGENMODE
 70
     1
  9
$FILLMODE
 70
     1
  9
$QTEXTMODE
 70
     0
  9
$MIRRTEXT
 70
     1
  9
$LTSCALE
 40
1.0
  9
$ATTMODE
 70
     1
  9
$TEXTSIZE
 40
0.2
  9
$TRACEWID
 40
0.05
  9
$TEXTSTYLE
  7
Standard
  9
$CLAYER
  8
0
  9
$CELTYPE
  6
ByLayer
  9
$CECOLOR
 62
   256
  9
$CELTSCALE
 40
1.0
  9
$DISPSILH
 70
     0
  9
$DIMSCALE
 40
1.0
  9
$DIMASZ
 40
0.18
  9
$DIMEXO
 40
0.0625
  9
$DIMDLI
 40
0.38
  9
$DIMRND
 40
0.0
  9
$DIMDLE
 40
0.0
  9
$DIMEXE
 40
0.18
  9
$DIMTP
 40
0.0
  9
$DIMTM
 40
0.0
  9
$DIMTXT
 40
0.18
  9
$DIMCEN
 40
0.09
  9
$DIMTSZ
 40
0.0
  9
$DIMTOL
 70
     0
  9
$DIMLIM
 70
     0
  9
$DIMTIH
 70
     1
  9
$DIMTOH
 70
     1
  9
$DIMSE1
 70
     0
  9
$DIMSE2
 70
     0
  9
$DIMTAD
 70
     0
  9
$DIMZIN
 70
     0
  9
$DIMBLK
  1

  9
$DIMASO
 70
     1
  9
$DIMSHO
 70
     1
  9
$DIMPOST
  1

  9
$DIMAPOST
  1

  9
$DIMALT
 70
     0
  9
$DIMALTD
 70
     2
  9
$DIMALTF
 40
25.4
  9
$DIMLFAC
 40
1.0
  9
$DIMTOFL
 70
     0
  9
$DIMTVP
 40
0.0
  9
$DIMTIX
 70
     0
  9
$DIMSOXD
 70
     0
  9
$DIMSAH
 70
     0
  9
$DIMBLK1
  1

  9
$DIMBLK2
  1

  9
$DIMSTYLE
  2
Standard
  9
$DIMCLRD
 70
     0
  9
$DIMCLRE
 70
     0
  9
$DIMCLRT
 70
     0
  9
$DIMTFAC
 40
1.0
  9
$DIMGAP
 40
0.09
  9
$DIMJUST
 70
     0
  9
$DIMSD1
 70
     0
  9
$DIMSD2
 70
     0
  9
$DIMTOLJ
 70
     1
  9
$DIMTZIN
 70
     0
  9
$DIMALTZ
 70
     0
  9
$DIMALTTZ
 70
     0
  9
$DIMUPT
 70
     0
  9
$DIMDEC
 70
     4
  9
$DIMTDEC
 70
     4
  9
$DIMALTU
 70
     2
  9
$DIMALTTD
 70
     2
  9
$DIMTXSTY
  7
Standard
  9
$DIMAUNIT
 70
     0
  9
$DIMADEC
 70
     0
  9
$DIMALTRND
 40
0.0
  9
$DIMAZIN
 70
     0
  9
$DIMDSEP
 70
    46
  9
$DIMATFIT
 70
     3
  9
$DIMFRAC
 70
     0
  9
$DIMLDRBLK
  1

  9
$DIMLUNIT
 70
     2
  9
$DIMLWD
 70
    -2
  9
$DIMLWE
 70
    -2
  9
$DIMTMOVE
 70
     0
  9
$LUNITS
 70
     2
  9
$LUPREC
 70
     4
  9
$SKETCHINC
 40
0.1
  9
$FILLETRAD
 40
0.5
  9
$AUNITS
 70
     0
  9
$AUPREC
 70
     0
  9
$MENU
  1
.
  9
$ELEVATION
 40
0.0
  9
$PELEVATION
 40
0.0
  9
$THICKNESS
 40
0.0
  9
$LIMCHECK
 70
     0
  9
$CHAMFERA
 40
0.5
  9
$CHAMFERB
 40
0.5
  9
$CHAMFERC
 40
1.0
  9
$CHAMFERD
 40
0.0
  9
$SKPOLY
 70
     0
  9
$TDCREATE
 40
2458509.786750428
  9
$TDUCREATE
 40
2458509.745083761
  9
$TDUPDATE
 40
2458509.78675044
  9
$TDUUPDATE
 40
2458509.745083773
  9
$TDINDWG
 40
0.0000000116
  9
$TDUSRTIMER
 40
0.0000000116
  9
$USRTIMER
 70
     1
  9
$ANGBASE
 50
0.0
  9
$ANGDIR
 70
     0
  9
$PDMODE
 70
     0
  9
$PDSIZE
 40
0.0
  9
$PLINEWID
 40
0.0
  9
$SPLFRAME
 70
     0
  9
$SPLINETYPE
 70
     6
  9
$SPLINESEGS
 70
     8
  9
$HANDSEED
  5
115
  9
$SURFTAB1
 70
     6
  9
$SURFTAB2
 70
     6
  9
$SURFTYPE
 70
     6
  9
$SURFU
 70
     6
  9
$SURFV
 70
     6
  9
$UCSBASE
  2

  9
$UCSNAME
  2

  9
$UCSORG
 10
0.0
 20
0.0
 30
0.0
  9
$UCSXDIR
 10
1.0
 20
0.0
 30
0.0
  9
$UCSYDIR
 10
0.0
 20
1.0
 30
0.0
  9
$UCSORTHOREF
  2

  9
$UCSORTHOVIEW
 70
     0
  9
$UCSORGTOP
 10
0.0
 20
0.0
 30
0.0
  9
$UCSORGBOTTOM
 10
0.0
 20
0.0
 30
0.0
  9
$UCSORGLEFT
 10
0.0
 20
0.0
 30
0.0
  9
$UCSORGRIGHT
 10
0.0
 20
0.0
 30
0.0
  9
$UCSORGFRONT
 10
0.0
 20
0.0
 30
0.0
  9
$UCSORGBACK
 10
0.0
 20
0.0
 30
0.0
  9
$PUCSBASE
  2

  9
$PUCSNAME
  2

  9
$PUCSORG
 10
0.0
 20
0.0
 30
0.0
  9
$PUCSXDIR
 10
1.0
 20
0.0
 30
0.0
  9
$PUCSYDIR
 10
0.0
 20
1.0
 30
0.0
  9
$PUCSORTHOREF
  2

  9
$PUCSORTHOVIEW
 70
     0
  9
$PUCSORGTOP
 10
0.0
 20
0.0
 30
0.0
  9
$PUCSORGBOTTOM
 10
0.0
 20
0.0
 30
0.0
  9
$PUCSORGLEFT
 10
0.0
 20
0.0
 30
0.0
  9
$PUCSORGRIGHT
 10
0.0
 20
0.0
 30
0.0
  9
$PUCSORGFRONT
 10
0.0
 20
0.0
 30
0.0
  9
$PUCSORGBACK
 10
0.0
 20
0.0
 30
0.0
  9
$USERI1
 70
     0
  9
$USERI2
 70
     0
  9
$USERI3
 70
     0
  9
$USERI4
 70
     0
  9
$USERI5
 70
     0
  9
$USERR1
 40
0.0
  9
$USERR2
 40
0.0
  9
$USERR3
 40
0.0
  9
$USERR4
 40
0.0
  9
$USERR5
 40
0.0
  9
$WORLDVIEW
 70
     1
  9
$SHADEDGE
 70
     3
  9
$SHADEDIF
 70
    70
  9
$TILEMODE
 70
     1
  9
$MAXACTVP
 70
    64
  9
$PINSBASE
 10
0.0
 20
0.0
 30
0.0
  9
$PLIMCHECK
 70
     0
  9
$PEXTMIN
 10
1.000000000000000E+20
 20
1.000000000000000E+20
 30
1.000000000000000E+20
  9
$PEXTMAX
 10
-1.000000000000000E+20
 20
-1.000000000000000E+20
 30
-1.000000000000000E+20
  9
$PLIMMIN
 10
0.0
 20
0.0
  9
$PLIMMAX
 10
12.0
 20
9.0
  9
$UNITMODE
 70
     0
  9
$VISRETAIN
 70
     1
  9
$PLINEGEN
 70
     0
  9
$PSLTSCALE
 70
     1
  9
$TREEDEPTH
 70
  3020
  9
$CMLSTYLE
  2
Standard
  9
$CMLJUST
 70
     0
  9
$CMLSCALE
 40
1.0
  9
$PROXYGRAPHICS
 70
     1
  9
$MEASUREMENT
 70
     0
  9
$CELWEIGHT
370
    -1
  9
$ENDCAPS
280
     0
  9
$JOINSTYLE
280
     0
  9
$LWDISPLAY
290
     1
  9
$INSUNITS
 70
     1
  9
$HYPERLINKBASE
  1

  9
$STYLESHEET
  1

  9
$XEDIT
290
     1
  9
$CEPSNTYPE
380
     0
  9
$PSTYLEMODE
290
     1
  9
$FINGERPRINTGUID
  2
{CCA0A4FB-81AF-4ECE-96E5-04F0F0DD3695}
  9
$VERSIONGUID
  2
{FAEB1C32-E019-11D5-929B-00C0DF256EC4}
  9
$EXTNAMES
290
     1
  9
$PSVPSCALE
 40
0.0
  9
$OLESTARTUP
290
     0
  9
$SORTENTS
280
   127
  9
$INDEXCTL
280
     0
  9
$HIDETEXT
280
     1
  9
$XCLIPFRAME
290
     0
  9
$HALOGAP
280
     0
  9
$OBSCOLOR
 70
   257
  9
$OBSLTYPE
280
     0
  9
$INTERSECTIONDISPLAY
280
     0
  9
$INTERSECTIONCOLOR
 70
   257
  9
$DIMASSOC
280
     2
  9
$PROJECTNAME
  1

  0
ENDSEC
  0
SECTION
  2
CLASSES
  0
CLASS
  1
ACDBDICTIONARYWDFLT
  2
AcDbDictionaryWithDefault
  3
ObjectDBX Classes
 90
        0
 91
        3
280
     0
281
     0
  0
CLASS
  1
VISUALSTYLE
  2
AcDbVisualStyle
  3
ObjectDBX Classes
 90
     4095
 91
        3
280
     0
281
     0
  0
ENDSEC
  0
SECTION
  2
TABLES
  0
TABLE
  2
VPORT
  5
8
330
0
100
AcDbSymbolTable
 70
     1
  0
VPORT
  5
29
330
8
100
AcDbSymbolTableRecord
100
AcDbViewportTableRecord
  2
*Active
 70
     0
 10
0.0
 20
0.0
 11
1.0
 21
1.0
 12
0.0
 22
0.0
 13
0.0
 23
0.0
 14
0.5
 24
0.5
 15
0.5
 25
0.5
 16
0.0
 26
0.0
 36
1.0
 17
300.0004651485242
 27
-49.99918754175368
 37
0.0
 40
99.99837508350736
 41
5.000082683635187
 42
50.0
 43
0.0
 44
0.0
 50
0.0
 51
0.0
 71
     0
 72
   100
 73
     1
 74
     3
 75
     0
 76
     0
 77
     0
 78
     0
281
     0
 65
     1
110
0.0
120
0.0
130
0.0
111
1.0
121
0.0
131
0.0
112
0.0
122
1.0
132
0.0
 79
     0
146
0.0
  0
ENDTAB
  0
TABLE
  2
LTYPE
  5
5
330
0
100
AcDbSymbolTable
 70
     1
  0
LTYPE
  5
14
330
5
100
AcDbSymbolTableRecord
100
AcDbLinetypeTableRecord
  2
ByBlock
 70
     0
  3

 72
    65
 73
     0
 40
0.0
  0
LTYPE
  5
15
330
5
100
AcDbSymbolTableRecord
100
AcDbLinetypeTableRecord
  2
ByLayer
 70
     0
  3

 72
    65
 73
     0
 40
0.0
  0
LTYPE
  5
16
330
5
100
AcDbSymbolTableRecord
100
AcDbLinetypeTableRecord
  2
Continuous
 70
     0
  3
Solid line
 72
    65
 73
     0
 40
0.0
  0
ENDTAB
  0
TABLE
  2
LAYER
  5
2
330
0
100
AcDbSymbolTable
 70
     2
  0
LAYER
  5
10
330
2
100
AcDbSymbolTableRecord
100
AcDbLayerTableRecord
  2
0
 70
     0
 62
     7
  6
Continuous
370
    -3
390
F
  0
LAYER
  5
3B
330
2
100
AcDbSymbolTableRecord
100
AcDbLayerTableRecord
  2
Calque 1
 70
     0
 62
     7
  6
Continuous
370
    -3
390
F
  0
ENDTAB
  0
TABLE
  2
STYLE
  5
3
330
0
100
AcDbSymbolTable
 70
     1
  0
STYLE
  5
11
330
3
100
AcDbSymbolTableRecord
100
AcDbTextStyleTableRecord
  2
Standard
 70
     0
 40
0.0
 41
1.0
 50
0.0
 71
     0
 42
0.2
  3
txt
  4

  0
ENDTAB
  0
TABLE
  2
VIEW
  5
6
330
0
100
AcDbSymbolTable
 70
     0
  0
ENDTAB
  0
TABLE
  2
UCS
  5
7
330
0
100
AcDbSymbolTable
 70
     0
  0
ENDTAB
  0
TABLE
  2
APPID
  5
9
330
0
100
AcDbSymbolTable
 70
     1
  0
APPID
  5
12
330
9
100
AcDbSymbolTableRecord
100
AcDbRegAppTableRecord
  2
ACAD
 70
     0
  0
ENDTAB
  0
TABLE
  2
DIMSTYLE
  5
A
330
0
100
AcDbSymbolTable
 70
     1
100
AcDbDimStyleTable
  0
DIMSTYLE
105
27
330
A
100
AcDbSymbolTableRecord
100
AcDbDimStyleTableRecord
  2
Standard
 70
     0
340
11
  0
ENDTAB
  0
TABLE
  2
BLOCK_RECORD
  5
1
330
0
100
AcDbSymbolTable
 70
     5
  0
BLOCK_RECORD
  5
1F
330
1
100
AcDbSymbolTableRecord
100
AcDbBlockTableRecord
  2
*Model_Space
340
22
  0
BLOCK_RECORD
  5
1B
330
1
100
AcDbSymbolTableRecord
100
AcDbBlockTableRecord
  2
*Paper_Space
340
1E
  0
BLOCK_RECORD
  5
23
330
1
100
AcDbSymbolTableRecord
100
AcDbBlockTableRecord
  2
*Paper_Space0
340
26
  0
BLOCK_RECORD
  5
3C
330
1
100
AcDbSymbolTableRecord
100
AcDbBlockTableRecord
  2
block 2
340
0
102
{BLKREFS
331
3D
102
}
  0
BLOCK_RECORD
  5
40
330
1
100
AcDbSymbolTableRecord
100
AcDbBlockTableRecord
  2
block 3
340
0
102
{BLKREFS
331
41
102
}
  0
BLOCK_RECORD
  5
A8
330
1
100
AcDbSymbolTableRecord
100
AcDbBlockTableRecord
  2
block 4
340
0
102
{BLKREFS
331
A9
102
}
  0
BLOCK_RECORD
  5
AC
330
1
100
AcDbSymbolTableRecord
100
AcDbBlockTableRecord
  2
block 5
340
0
102
{BLKREFS
331
AD
102
}
  0
ENDTAB
  0
ENDSEC
  0
SECTION
  2
BLOCKS
  0
BLOCK
  5
20
330
1F
100
AcDbEntity
  8
0
100
AcDbBlockBegin
  2
*Model_Space
 70
     0
 71
     0
 10
0.0
 20
0.0
 30
0.0
  3
*Model_Space
  1

  0
ENDBLK
  5
21
330
1F
100
AcDbEntity
  8
0
100
AcDbBlockEnd
  0
BLOCK
  5
1C
330
1B
100
AcDbEntity
 67
     1
  8
0
100
AcDbBlockBegin
  2
*Paper_Space
 70
     0
 71
     0
 10
0.0
 20
0.0
 30
0.0
  3
*Paper_Space
  1

  0
ENDBLK
  5
1D
330
1B
100
AcDbEntity
 67
     1
  8
0
100
AcDbBlockEnd
  0
BLOCK
  5
24
330
23
100
AcDbEntity
  8
0
100
AcDbBlockBegin
  2
*Paper_Space0
 70
     0
 71
     0
 10
0.0
 20
0.0
 30
0.0
  3
*Paper_Space0
  1

  0
ENDBLK
  5
25
330
23
100
AcDbEntity
  8
0
100
AcDbBlockEnd
  0
BLOCK
  5
3E
330
3C
100
AcDbEntity
  8
0
100
AcDbBlockBegin
  2
block 2
 70
     0
 71
     0
 10
0.0
 20
0.0
 30
0.0
  3
block 2
  1

  0
INSERT
  5
41
330
3C
100
AcDbEntity
  8
Calque 1
100
AcDbBlockReference
  2
block 3
 10
0.0
 20
0.0
 30
0.0
  0
POLYLINE
  5
9E
330
3C
100
AcDbEntity
  8
Calque 1
 62
   140
370
    35
100
AcDb2dPolyline
 66
     1
 10
0.0
 20
0.0
 30
0.0
  0
VERTEX
  5
9F
330
9E
100
AcDbEntity
  8
Calque 1
 62
   140
370
    35
100
AcDbVertex
100
AcDb2dVertex
 10
523.4567652771219
 20
-33.33129881979217
 30
0.0
  0
VERTEX
  5
A0
330
9E
100
AcDbEntity
  8
Calque 1
 62
   140
370
    35
100
AcDbVertex
100
AcDb2dVertex
 10
524.0903183368594
 20
-33.06740450562204
 30
0.0
  0
VERTEX
  5
A1
330
9E
100
AcDbEntity
  8
Calque 1
 62
   140
370
    35
100
AcDbVertex
100
AcDb2dVertex
 10
524.0903183368594
 20
-35.61918673154659
 30
0.0
  0
SEQEND
  5
A2
330
9E
100
AcDbEntity
  8
Calque 1
370
    35
  0
POLYLINE
  5
A3
330
3C
100
AcDbEntity
  8
Calque 1
 62
   140
370
    35
100
AcDb2dPolyline
 66
     1
 10
0.0
 20
0.0
 30
0.0
  0
VERTEX
  5
A4
330
A3
100
AcDbEntity
  8
Calque 1
 62
   140
370
    35
100
AcDbVertex
100
AcDb2dVertex
 10
525.4580212445036
 20
-33.35954860277123
 30
0.0
  0
VERTEX
  5
A5
330
A3
100
AcDbEntity
  8
Calque 1
 62
   140
370
    35
100
AcDbVertex
100
AcDb2dVertex
 10
527.0114147988028
 20
-34.24080402789814
 30
0.0
  0
VERTEX
  5
A6
330
A3
100
AcDbEntity
  8
Calque 1
 62
   140
370
    35
100
AcDbVertex
100
AcDb2dVertex
 10
525.3870522775075
 20
-35.32669812484888
 30
0.0
  0
SEQEND
  5
A7
330
A3
100
AcDbEntity
  8
Calque 1
370
    35
  0
ENDBLK
  5
3F
330
3C
100
AcDbEntity
  8
0
100
AcDbBlockEnd
  0
BLOCK
  5
42
330
40
100
AcDbEntity
  8
0
100
AcDbBlockBegin
  2
block 3
 70
     0
 71
     0
 10
0.0
 20
0.0
 30
0.0
  3
block 3
  1

  0
POLYLINE
  5
44
330
40
100
AcDbEntity
  8
Calque 1
 62
   140
370
    35
100
AcDb2dPolyline
 66
     1
 10
0.0
 20
0.0
 30
0.0
  0
VERTEX
  5
45
330
44
100
AcDbEntity
  8
Calque 1
 62
   140
370
    35
100
AcDbVertex
100
AcDb2dVertex
 10
505.1288572955928
 20
-37.96529675700173
 30
0.0
  0
VERTEX
  5
46
330
44
100
AcDbEntity
  8
Calque 1
 62
   140
370
    35
100
AcDbVertex
100
AcDb2dVertex
 10
505.1288572955928
 20
-30.13046060444655
 30
0.0
  0
SEQEND
  5
47
330
44
100
AcDbEntity
  8
Calque 1
370
    35
  0
POLYLINE
  5
48
330
40
100
AcDbEntity
  8
Calque 1
 62
   140
370
    35
100
AcDb2dPolyline
 66
     1
 10
0.0
 20
0.0
 30
0.0
  0
VERTEX
  5
49
330
48
100
AcDbEntity
  8
Calque 1
 62
   140
370
    35
100
AcDbVertex
100
AcDb2dVertex
 10
482.2792614896733
 20
-37.96529675700173
 30
0.0
  0
VERTEX
  5
4A
330
48
100
AcDbEntity
  8
Calque 1
 62
   140
370
    35
100
AcDbVertex
100
AcDb2dVertex
 10
482.2792614896733
 20
-29.8000759474111
 30
0.0
  0
SEQEND
  5
4B
330
48
100
AcDbEntity
  8
Calque 1
370
    35
  0
POLYLINE
  5
4C
330
40
100
AcDbEntity
  8
Calque 1
 62
   140
370
    35
100
AcDb2dPolyline
 66
     1
 10
0.0
 20
0.0
 30
0.0
  0
VERTEX
  5
4D
330
4C
100
AcDbEntity
  8
Calque 1
 62
   140
370
    35
100
AcDbVertex
100
AcDb2dVertex
 10
459.4296656837537
 20
-37.96529675700173
 30
0.0
  0
VERTEX
  5
4E
330
4C
100
AcDbEntity
  8
Calque 1
 62
   140
370
    35
100
AcDbVertex
100
AcDb2dVertex
 10
459.4296656837537
 20
-29.54548339105113
 30
0.0
  0
SEQEND
  5
4F
330
4C
100
AcDbEntity
  8
Calque 1
370
    35
  0
POLYLINE
  5
50
330
40
100
AcDbEntity
  8
Calque 1
 62
   140
370
    35
100
AcDb2dPolyline
 66
     1
 10
0.0
 20
0.0
 30
0.0
  0
VERTEX
  5
51
330
50
100
AcDbEntity
  8
Calque 1
 62
   140
370
    35
100
AcDbVertex
100
AcDb2dVertex
 10
436.5800698778341
 20
-37.96529675700173
 30
0.0
  0
VERTEX
  5
52
330
50
100
AcDbEntity
  8
Calque 1
 62
   140
370
    35
100
AcDbVertex
100
AcDb2dVertex
 10
436.5800698778341
 20
-29.46969129037564
 30
0.0
  0
SEQEND
  5
53
330
50
100
AcDbEntity
  8
Calque 1
370
    35
  0
POLYLINE
  5
54
330
40
100
AcDbEntity
  8
Calque 1
 62
   140
370
    35
100
AcDb2dPolyline
 66
     1
 10
0.0
 20
0.0
 30
0.0
  0
VERTEX
  5
55
330
54
100
AcDbEntity
  8
Calque 1
 62
   140
370
    35
100
AcDbVertex
100
AcDb2dVertex
 10
413.7308185814632
 20
-37.96529675700173
 30
0.0
  0
VERTEX
  5
56
330
54
100
AcDbEntity
  8
Calque 1
 62
   140
370
    35
100
AcDbVertex
100
AcDb2dVertex
 10
413.7308185814632
 20
-29.46521266624481
 30
0.0
  0
SEQEND
  5
57
330
54
100
AcDbEntity
  8
Calque 1
370
    35
  0
POLYLINE
  5
58
330
40
100
AcDbEntity
  8
Calque 1
 62
   140
370
    35
100
AcDb2dPolyline
 66
     1
 10
0.0
 20
0.0
 30
0.0
  0
VERTEX
  5
59
330
58
100
AcDbEntity
  8
Calque 1
 62
   140
370
    35
100
AcDbVertex
100
AcDb2dVertex
 10
390.8812227755436
 20
-37.96529675700173
 30
0.0
  0
VERTEX
  5
5A
330
58
100
AcDbEntity
  8
Calque 1
 62
   140
370
    35
100
AcDbVertex
100
AcDb2dVertex
 10
390.8812227755436
 20
-29.69017740143162
 30
0.0
  0
SEQEND
  5
5B
330
58
100
AcDbEntity
  8
Calque 1
370
    35
  0
POLYLINE
  5
5C
330
40
100
AcDbEntity
  8
Calque 1
 62
   140
370
    35
100
AcDb2dPolyline
 66
     1
 10
0.0
 20
0.0
 30
0.0
  0
VERTEX
  5
5D
330
5C
100
AcDbEntity
  8
Calque 1
 62
   140
370
    35
100
AcDbVertex
100
AcDb2dVertex
 10
368.031626969624
 20
-37.96529675700173
 30
0.0
  0
VERTEX
  5
5E
330
5C
100
AcDbEntity
  8
Calque 1
 62
   140
370
    35
100
AcDbVertex
100
AcDb2dVertex
 10
368.031626969624
 20
-30.02090656801561
 30
0.0
  0
SEQEND
  5
5F
330
5C
100
AcDbEntity
  8
Calque 1
370
    35
  0
POLYLINE
  5
60
330
40
100
AcDbEntity
  8
Calque 1
 62
   140
370
    35
100
AcDb2dPolyline
 66
     1
 10
0.0
 20
0.0
 30
0.0
  0
VERTEX
  5
61
330
60
100
AcDbEntity
  8
Calque 1
 62
   140
370
    35
100
AcDbVertex
100
AcDb2dVertex
 10
345.1820311637045
 20
-37.96529675700173
 30
0.0
  0
VERTEX
  5
62
330
60
100
AcDbEntity
  8
Calque 1
 62
   140
370
    35
100
AcDbVertex
100
AcDb2dVertex
 10
345.1820311637045
 20
-30.29616969728707
 30
0.0
  0
SEQEND
  5
63
330
60
100
AcDbEntity
  8
Calque 1
370
    35
  0
POLYLINE
  5
64
330
40
100
AcDbEntity
  8
Calque 1
 62
   140
370
    35
100
AcDb2dPolyline
 66
     1
 10
0.0
 20
0.0
 30
0.0
  0
VERTEX
  5
65
330
64
100
AcDbEntity
  8
Calque 1
 62
   140
370
    35
100
AcDbVertex
100
AcDb2dVertex
 10
322.3314018291394
 20
-37.96529675700173
 30
0.0
  0
VERTEX
  5
66
330
64
100
AcDbEntity
  8
Calque 1
 62
   140
370
    35
100
AcDbVertex
100
AcDb2dVertex
 10
322.3314018291394
 20
-30.46153428057906
 30
0.0
  0
SEQEND
  5
67
330
64
100
AcDbEntity
  8
Calque 1
370
    35
  0
POLYLINE
  5
68
330
40
100
AcDbEntity
  8
Calque 1
 62
   140
370
    35
100
AcDb2dPolyline
 66
     1
 10
0.0
 20
0.0
 30
0.0
  0
VERTEX
  5
69
330
68
100
AcDbEntity
  8
Calque 1
 62
   140
370
    35
100
AcDbVertex
100
AcDb2dVertex
 10
299.4814615136713
 20
-37.96529675700173
 30
0.0
  0
VERTEX
  5
6A
330
68
100
AcDbEntity
  8
Calque 1
 62
   140
370
    35
100
AcDbVertex
100
AcDb2dVertex
 10
299.4814615136713
 20
-30.46532388561284
 30
0.0
  0
SEQEND
  5
6B
330
68
100
AcDbEntity
  8
Calque 1
370
    35
  0
POLYLINE
  5
6C
330
40
100
AcDbEntity
  8
Calque 1
 62
   140
370
    35
100
AcDb2dPolyline
 66
     1
 10
0.0
 20
0.0
 30
0.0
  0
VERTEX
  5
6D
330
6C
100
AcDbEntity
  8
Calque 1
 62
   140
370
    35
100
AcDbVertex
100
AcDb2dVertex
 10
276.6308321791062
 20
-37.96529675700173
 30
0.0
  0
VERTEX
  5
6E
330
6C
100
AcDbEntity
  8
Calque 1
 62
   140
370
    35
100
AcDbVertex
100
AcDb2dVertex
 10
276.6308321791062
 20
-30.46187879012759
 30
0.0
  0
SEQEND
  5
6F
330
6C
100
AcDbEntity
  8
Calque 1
370
    35
  0
POLYLINE
  5
70
330
40
100
AcDbEntity
  8
Calque 1
 62
   140
370
    35
100
AcDb2dPolyline
 66
     1
 10
0.0
 20
0.0
 30
0.0
  0
VERTEX
  5
71
330
70
100
AcDbEntity
  8
Calque 1
 62
   140
370
    35
100
AcDbVertex
100
AcDb2dVertex
 10
253.7808918636381
 20
-37.96529675700173
 30
0.0
  0
VERTEX
  5
72
330
70
100
AcDbEntity
  8
Calque 1
 62
   140
370
    35
100
AcDbVertex
100
AcDb2dVertex
 10
253.7808918636381
 20
-30.35163573459959
 30
0.0
  0
SEQEND
  5
73
330
70
100
AcDbEntity
  8
Calque 1
370
    35
  0
POLYLINE
  5
74
330
40
100
AcDbEntity
  8
Calque 1
 62
   140
370
    35
100
AcDb2dPolyline
 66
     1
 10
0.0
 20
0.0
 30
0.0
  0
VERTEX
  5
75
330
74
100
AcDbEntity
  8
Calque 1
 62
   140
370
    35
100
AcDbVertex
100
AcDb2dVertex
 10
230.930262529073
 20
-37.96529675700173
 30
0.0
  0
VERTEX
  5
76
330
74
100
AcDbEntity
  8
Calque 1
 62
   140
370
    35
100
AcDbVertex
100
AcDb2dVertex
 10
230.930262529073
 20
-30.2965142068356
 30
0.0
  0
SEQEND
  5
77
330
74
100
AcDbEntity
  8
Calque 1
370
    35
  0
POLYLINE
  5
78
330
40
100
AcDbEntity
  8
Calque 1
 62
   140
370
    35
100
AcDb2dPolyline
 66
     1
 10
0.0
 20
0.0
 30
0.0
  0
VERTEX
  5
79
330
78
100
AcDbEntity
  8
Calque 1
 62
   140
370
    35
100
AcDbVertex
100
AcDb2dVertex
 10
208.0803222136049
 20
-37.96529675700173
 30
0.0
  0
VERTEX
  5
7A
330
78
100
AcDbEntity
  8
Calque 1
 62
   140
370
    35
100
AcDbVertex
100
AcDb2dVertex
 10
208.0803222136049
 20
-30.07637260532813
 30
0.0
  0
SEQEND
  5
7B
330
78
100
AcDbEntity
  8
Calque 1
370
    35
  0
POLYLINE
  5
7C
330
40
100
AcDbEntity
  8
Calque 1
 62
   140
370
    35
100
AcDb2dPolyline
 66
     1
 10
0.0
 20
0.0
 30
0.0
  0
VERTEX
  5
7D
330
7C
100
AcDbEntity
  8
Calque 1
 62
   140
370
    35
100
AcDbVertex
100
AcDb2dVertex
 10
185.2296928790398
 20
-37.96529675700173
 30
0.0
  0
VERTEX
  5
7E
330
7C
100
AcDbEntity
  8
Calque 1
 62
   140
370
    35
100
AcDbVertex
100
AcDb2dVertex
 10
185.2296928790398
 20
-29.6154188294017
 30
0.0
  0
SEQEND
  5
7F
330
7C
100
AcDbEntity
  8
Calque 1
370
    35
  0
POLYLINE
  5
80
330
40
100
AcDbEntity
  8
Calque 1
 62
   140
370
    35
100
AcDb2dPolyline
 66
     1
 10
0.0
 20
0.0
 30
0.0
  0
VERTEX
  5
81
330
80
100
AcDbEntity
  8
Calque 1
 62
   140
370
    35
100
AcDbVertex
100
AcDb2dVertex
 10
162.3794080540232
 20
-37.96529675700173
 30
0.0
  0
VERTEX
  5
82
330
80
100
AcDbEntity
  8
Calque 1
 62
   140
370
    35
100
AcDbVertex
100
AcDb2dVertex
 10
162.3794080540232
 20
-29.06558158995583
 30
0.0
  0
SEQEND
  5
83
330
80
100
AcDbEntity
  8
Calque 1
370
    35
  0
POLYLINE
  5
84
330
40
100
AcDbEntity
  8
Calque 1
 62
   140
370
    35
100
AcDb2dPolyline
 66
     1
 10
0.0
 20
0.0
 30
0.0
  0
VERTEX
  5
85
330
84
100
AcDbEntity
  8
Calque 1
 62
   140
370
    35
100
AcDbVertex
100
AcDb2dVertex
 10
139.5084526560951
 20
-37.96529675700173
 30
0.0
  0
VERTEX
  5
86
330
84
100
AcDbEntity
  8
Calque 1
 62
   140
370
    35
100
AcDbVertex
100
AcDb2dVertex
 10
139.5084526560951
 20
-28.24289278807817
 30
0.0
  0
SEQEND
  5
87
330
84
100
AcDbEntity
  8
Calque 1
370
    35
  0
POLYLINE
  5
88
330
40
100
AcDbEntity
  8
Calque 1
 62
   140
370
    35
100
AcDb2dPolyline
 66
     1
 10
0.0
 20
0.0
 30
0.0
  0
VERTEX
  5
89
330
88
100
AcDbEntity
  8
Calque 1
 62
   140
370
    35
100
AcDbVertex
100
AcDb2dVertex
 10
116.67883840399
 20
-37.96529675700173
 30
0.0
  0
VERTEX
  5
8A
330
88
100
AcDbEntity
  8
Calque 1
 62
   140
370
    35
100
AcDbVertex
100
AcDb2dVertex
 10
116.67883840399
 20
-27.28550075272724
 30
0.0
  0
SEQEND
  5
8B
330
88
100
AcDbEntity
  8
Calque 1
370
    35
  0
POLYLINE
  5
8C
330
40
100
AcDbEntity
  8
Calque 1
 62
   140
370
    35
100
AcDb2dPolyline
 66
     1
 10
0.0
 20
0.0
 30
0.0
  0
VERTEX
  5
8D
330
8C
100
AcDbEntity
  8
Calque 1
 62
   140
370
    35
100
AcDbVertex
100
AcDb2dVertex
 10
93.82855357897343
 20
-37.96529675700173
 30
0.0
  0
VERTEX
  5
8E
330
8C
100
AcDbEntity
  8
Calque 1
 62
   140
370
    35
100
AcDbVertex
100
AcDb2dVertex
 10
93.82855357897343
 20
-26.21545409500864
 30
0.0
  0
SEQEND
  5
8F
330
8C
100
AcDbEntity
  8
Calque 1
370
    35
  0
POLYLINE
  5
90
330
40
100
AcDbEntity
  8
Calque 1
 62
   140
370
    35
100
AcDb2dPolyline
 66
     1
 10
0.0
 20
0.0
 30
0.0
  0
VERTEX
  5
91
330
90
100
AcDbEntity
  8
Calque 1
 62
   140
370
    35
100
AcDbVertex
100
AcDb2dVertex
 10
528.8125107184914
 20
-38.13100584984225
 30
0.0
  0
VERTEX
  5
92
330
90
100
AcDbEntity
  8
Calque 1
 62
   140
370
    35
100
AcDbVertex
100
AcDb2dVertex
 10
71.14363333724881
 20
-38.13100584984225
 30
0.0
  0
SEQEND
  5
93
330
90
100
AcDbEntity
  8
Calque 1
370
    35
  0
SPLINE
  5
94
330
40
100
AcDbEntity
  8
Calque 1
 62
     1
370
    35
100
AcDbSpline
210
0.0
220
0.0
230
1.0
 70
    11
 71
     3
 72
    26
 73
    22
 74
     0
 42
0.0000000001
 43
0.0000000001
 40
0.0
 40
0.0
 40
0.0
 40
0.0
 40
1.0
 40
1.0
 40
1.0
 40
2.0
 40
2.0
 40
2.0
 40
3.0
 40
3.0
 40
3.0
 40
4.0
 40
4.0
 40
4.0
 40
5.0
 40
5.0
 40
5.0
 40
6.0
 40
6.0
 40
6.0
 40
7.0
 40
7.0
 40
7.0
 40
7.0
 10
529.1439289041724
 20
-48.13074000532843
 30
0.0
 10
529.1439289041724
 20
-48.13074000532843
 30
0.0
 10
70.81255966111631
 20
-48.13074000532843
 30
0.0
 10
70.81255966111631
 20
-48.13074000532843
 30
0.0
 10
70.81255966111631
 20
-48.13074000532843
 30
0.0
 10
70.81255966111631
 20
-24.89977212919172
 30
0.0
 10
70.81255966111631
 20
-24.89977212919172
 30
0.0
 10
98.92247176346383
 20
-26.59992675116252
 30
0.0
 10
152.3655490070475
 20
-28.93914658564716
 30
0.0
 10
185.2296928790398
 20
-29.6154188294017
 30
0.0
 10
218.5013915469372
 20
-30.29995930232084
 30
0.0
 10
276.6308321791062
 20
-30.46532388561284
 30
0.0
 10
299.4814615136713
 20
-30.46532388561284
 30
0.0
 10
322.3314018291394
 20
-30.46532388561284
 30
0.0
 10
390.8812227755436
 20
-29.62540960630893
 30
0.0
 10
413.7308185814632
 20
-29.46521266624481
 30
0.0
 10
436.5800698778341
 20
-29.30501572618069
 30
0.0
 10
512.378371725204
 20
-29.84382866007376
 30
0.0
 10
529.15150811424
 20
-30.51493326060044
 30
0.0
 10
529.15150811424
 20
-30.51493326060044
 30
0.0
 10
529.1439289041724
 20
-48.13074000532843
 30
0.0
 10
529.1439289041724
 20
-48.13074000532843
 30
0.0
  0
SPLINE
  5
95
330
40
100
AcDbEntity
  8
Calque 1
 62
     1
370
    35
100
AcDbSpline
210
0.0
220
0.0
230
1.0
 70
    11
 71
     3
 72
    17
 73
    13
 74
     0
 42
0.0000000001
 43
0.0000000001
 40
0.0
 40
0.0
 40
0.0
 40
0.0
 40
1.0
 40
1.0
 40
1.0
 40
2.0
 40
2.0
 40
2.0
 40
3.0
 40
3.0
 40
3.0
 40
4.0
 40
4.0
 40
4.0
 40
4.0
 10
301.4813394428588
 20
-42.9648193251963
 30
0.0
 10
301.4813394428588
 20
-44.0693169377674
 30
0.0
 10
300.5859591262424
 20
-44.96469725438383
 30
0.0
 10
299.4814615136713
 20
-44.96469725438383
 30
0.0
 10
298.3769639011002
 20
-44.96469725438383
 30
0.0
 10
297.4812390749353
 20
-44.0693169377674
 30
0.0
 10
297.4812390749353
 20
-42.9648193251963
 30
0.0
 10
297.4812390749353
 20
-41.8603217126252
 30
0.0
 10
298.3769639011002
 20
-40.96494139600877
 30
0.0
 10
299.4814615136713
 20
-40.96494139600877
 30
0.0
 10
300.5859591262424
 20
-40.96494139600877
 30
0.0
 10
301.4813394428588
 20
-41.8603217126252
 30
0.0
 10
301.4813394428588
 20
-42.9648193251963
 30
0.0
  0
SPLINE
  5
96
330
40
100
AcDbEntity
  8
Calque 1
 62
     1
370
    35
100
AcDbSpline
210
0.0
220
0.0
230
1.0
 70
    11
 71
     3
 72
    17
 73
    13
 74
     0
 42
0.0000000001
 43
0.0000000001
 40
0.0
 40
0.0
 40
0.0
 40
0.0
 40
1.0
 40
1.0
 40
1.0
 40
2.0
 40
2.0
 40
2.0
 40
3.0
 40
3.0
 40
3.0
 40
4.0
 40
4.0
 40
4.0
 40
4.0
 10
198.7144856274047
 20
-42.9648193251963
 30
0.0
 10
198.7144856274047
 20
-44.0693169377674
 30
0.0
 10
197.8187608012398
 20
-44.96469725438383
 30
0.0
 10
196.7142631886687
 20
-44.96469725438383
 30
0.0
 10
195.6097655760976
 20
-44.96469725438383
 30
0.0
 10
194.7147297690297
 20
-44.0693169377674
 30
0.0
 10
194.7147297690297
 20
-42.9648193251963
 30
0.0
 10
194.7147297690297
 20
-41.8603217126252
 30
0.0
 10
195.6097655760976
 20
-40.96494139600877
 30
0.0
 10
196.7142631886687
 20
-40.96494139600877
 30
0.0
 10
197.8187608012398
 20
-40.96494139600877
 30
0.0
 10
198.7144856274047
 20
-41.8603217126252
 30
0.0
 10
198.7144856274047
 20
-42.9648193251963
 30
0.0
  0
SPLINE
  5
97
330
40
100
AcDbEntity
  8
Calque 1
 62
     1
370
    35
100
AcDbSpline
210
0.0
220
0.0
230
1.0
 70
    11
 71
     3
 72
    17
 73
    13
 74
     0
 42
0.0000000001
 43
0.0000000001
 40
0.0
 40
0.0
 40
0.0
 40
0.0
 40
1.0
 40
1.0
 40
1.0
 40
2.0
 40
2.0
 40
2.0
 40
3.0
 40
3.0
 40
3.0
 40
4.0
 40
4.0
 40
4.0
 40
4.0
 10
95.94797632149913
 20
-42.9648193251963
 30
0.0
 10
95.94797632149913
 20
-44.0693169377674
 30
0.0
 10
95.05225149533416
 20
-44.96469725438383
 30
0.0
 10
93.94775388276307
 20
-44.96469725438383
 30
0.0
 10
92.84325627019197
 20
-44.96469725438383
 30
0.0
 10
91.947531444027
 20
-44.0693169377674
 30
0.0
 10
91.947531444027
 20
-42.9648193251963
 30
0.0
 10
91.947531444027
 20
-41.8603217126252
 30
0.0
 10
92.84325627019197
 20
-40.96494139600877
 30
0.0
 10
93.94775388276307
 20
-40.96494139600877
 30
0.0
 10
95.05225149533416
 20
-40.96494139600877
 30
0.0
 10
95.94797632149913
 20
-41.8603217126252
 30
0.0
 10
95.94797632149913
 20
-42.9648193251963
 30
0.0
  0
SPLINE
  5
98
330
40
100
AcDbEntity
  8
Calque 1
 62
     1
370
    35
100
AcDbSpline
210
0.0
220
0.0
230
1.0
 70
    11
 71
     3
 72
    17
 73
    13
 74
     0
 42
0.0000000001
 43
0.0000000001
 40
0.0
 40
0.0
 40
0.0
 40
0.0
 40
1.0
 40
1.0
 40
1.0
 40
2.0
 40
2.0
 40
2.0
 40
3.0
 40
3.0
 40
3.0
 40
4.0
 40
4.0
 40
4.0
 40
4.0
 10
400.2480928903894
 20
-42.96585285384187
 30
0.0
 10
400.2480928903894
 20
-41.86135524127077
 30
0.0
 10
401.1438177165543
 20
-40.96631943420287
 30
0.0
 10
402.2483153291254
 20
-40.96631943420287
 30
0.0
 10
403.3528129416965
 20
-40.96631943420287
 30
0.0
 10
404.2485377678615
 20
-41.86135524127077
 30
0.0
 10
404.2485377678615
 20
-42.96585285384187
 30
0.0
 10
404.2485377678615
 20
-44.07035046641297
 30
0.0
 10
403.3528129416965
 20
-44.96607529257793
 30
0.0
 10
402.2483153291254
 20
-44.96607529257793
 30
0.0
 10
401.1438177165543
 20
-44.96607529257793
 30
0.0
 10
400.2480928903894
 20
-44.07035046641297
 30
0.0
 10
400.2480928903894
 20
-42.96585285384187
 30
0.0
  0
SPLINE
  5
99
330
40
100
AcDbEntity
  8
Calque 1
 62
     1
370
    35
100
AcDbSpline
210
0.0
220
0.0
230
1.0
 70
    11
 71
     3
 72
    17
 73
    13
 74
     0
 42
0.0000000001
 43
0.0000000001
 40
0.0
 40
0.0
 40
0.0
 40
0.0
 40
1.0
 40
1.0
 40
1.0
 40
2.0
 40
2.0
 40
2.0
 40
3.0
 40
3.0
 40
3.0
 40
4.0
 40
4.0
 40
4.0
 40
4.0
 10
503.0149467058435
 20
-42.96585285384187
 30
0.0
 10
503.0149467058435
 20
-41.86135524127077
 30
0.0
 10
503.91032702246
 20
-40.96631943420287
 30
0.0
 10
505.0148246350311
 20
-40.96631943420287
 30
0.0
 10
506.1189777380536
 20
-40.96631943420287
 30
0.0
 10
507.0150470737671
 20
-41.86135524127077
 30
0.0
 10
507.0150470737671
 20
-42.96585285384187
 30
0.0
 10
507.0150470737671
 20
-44.07035046641297
 30
0.0
 10
506.1189777380536
 20
-44.96607529257793
 30
0.0
 10
505.0148246350311
 20
-44.96607529257793
 30
0.0
 10
503.91032702246
 20
-44.96607529257793
 30
0.0
 10
503.0149467058435
 20
-44.07035046641297
 30
0.0
 10
503.0149467058435
 20
-42.96585285384187
 30
0.0
  0
POLYLINE
  5
9A
330
40
100
AcDbEntity
  8
Calque 1
 62
   140
370
    35
100
AcDb2dPolyline
 66
     1
 10
0.0
 20
0.0
 30
0.0
  0
VERTEX
  5
9B
330
9A
100
AcDbEntity
  8
Calque 1
 62
   140
370
    35
100
AcDbVertex
100
AcDb2dVertex
 10
528.1517414044205
 20
-37.96529675700173
 30
0.0
  0
VERTEX
  5
9C
330
9A
100
AcDbEntity
  8
Calque 1
 62
   140
370
    35
100
AcDbVertex
100
AcDb2dVertex
 10
528.1517414044205
 20
-30.51596678924601
 30
0.0
  0
SEQEND
  5
9D
330
9A
100
AcDbEntity
  8
Calque 1
370
    35
  0
ENDBLK
  5
43
330
40
100
AcDbEntity
  8
0
100
AcDbBlockEnd
  0
BLOCK
  5
AA
330
A8
100
AcDbEntity
  8
0
100
AcDbBlockBegin
  2
block 4
 70
     0
 71
     0
 10
0.0
 20
0.0
 30
0.0
  3
block 4
  1

  0
INSERT
  5
AD
330
A8
100
AcDbEntity
  8
Calque 1
100
AcDbBlockReference
  2
block 5
 10
0.0
 20
0.0
 30
0.0
  0
POLYLINE
  5
10A
330
A8
100
AcDbEntity
  8
Calque 1
 62
   140
370
    35
100
AcDb2dPolyline
 66
     1
 10
0.0
 20
0.0
 30
0.0
  0
VERTEX
  5
10B
330
10A
100
AcDbEntity
  8
Calque 1
 62
   140
370
    35
100
AcDbVertex
100
AcDb2dVertex
 10
75.29772947336308
 20
-60.3050184311043
 30
0.0
  0
VERTEX
  5
10C
330
10A
100
AcDbEntity
  8
Calque 1
 62
   140
370
    35
100
AcDbVertex
100
AcDb2dVertex
 10
75.93128253310051
 20
-60.04112411693416
 30
0.0
  0
VERTEX
  5
10D
330
10A
100
AcDbEntity
  8
Calque 1
 62
   140
370
    35
100
AcDbVertex
100
AcDb2dVertex
 10
75.93128253310051
 20
-62.59290634285872
 30
0.0
  0
SEQEND
  5
10E
330
10A
100
AcDbEntity
  8
Calque 1
370
    35
  0
POLYLINE
  5
10F
330
A8
100
AcDbEntity
  8
Calque 1
 62
   140
370
    35
100
AcDb2dPolyline
 66
     1
 10
0.0
 20
0.0
 30
0.0
  0
VERTEX
  5
110
330
10F
100
AcDbEntity
  8
Calque 1
 62
   140
370
    35
100
AcDbVertex
100
AcDb2dVertex
 10
74.49846732078511
 20
-60.33189017588925
 30
0.0
  0
VERTEX
  5
111
330
10F
100
AcDbEntity
  8
Calque 1
 62
   140
370
    35
100
AcDbVertex
100
AcDb2dVertex
 10
72.94507376648596
 20
-61.21314560101616
 30
0.0
  0
VERTEX
  5
112
330
10F
100
AcDbEntity
  8
Calque 1
 62
   140
370
    35
100
AcDbVertex
100
AcDb2dVertex
 10
74.56943628778126
 20
-62.29903969796691
 30
0.0
  0
SEQEND
  5
113
330
10F
100
AcDbEntity
  8
Calque 1
370
    35
  0
ENDBLK
  5
AB
330
A8
100
AcDbEntity
  8
0
100
AcDbBlockEnd
  0
BLOCK
  5
AE
330
AC
100
AcDbEntity
  8
0
100
AcDbBlockBegin
  2
block 5
 70
     0
 71
     0
 10
0.0
 20
0.0
 30
0.0
  3
block 5
  1

  0
POLYLINE
  5
B0
330
AC
100
AcDbEntity
  8
Calque 1
 62
   140
370
    35
100
AcDb2dPolyline
 66
     1
 10
0.0
 20
0.0
 30
0.0
  0
VERTEX
  5
B1
330
B0
100
AcDbEntity
  8
Calque 1
 62
   140
370
    35
100
AcDbVertex
100
AcDb2dVertex
 10
94.82763126969587
 20
-64.96416556535618
 30
0.0
  0
VERTEX
  5
B2
330
B0
100
AcDbEntity
  8
Calque 1
 62
   140
370
    35
100
AcDbVertex
100
AcDb2dVertex
 10
94.82763126969587
 20
-57.12932941280101
 30
0.0
  0
SEQEND
  5
B3
330
B0
100
AcDbEntity
  8
Calque 1
370
    35
  0
POLYLINE
  5
B4
330
AC
100
AcDbEntity
  8
Calque 1
 62
   140
370
    35
100
AcDb2dPolyline
 66
     1
 10
0.0
 20
0.0
 30
0.0
  0
VERTEX
  5
B5
330
B4
100
AcDbEntity
  8
Calque 1
 62
   140
370
    35
100
AcDbVertex
100
AcDb2dVertex
 10
117.6772270756154
 20
-64.96416556535618
 30
0.0
  0
VERTEX
  5
B6
330
B4
100
AcDbEntity
  8
Calque 1
 62
   140
370
    35
100
AcDbVertex
100
AcDb2dVertex
 10
117.6772270756154
 20
-56.79894475576555
 30
0.0
  0
SEQEND
  5
B7
330
B4
100
AcDbEntity
  8
Calque 1
370
    35
  0
POLYLINE
  5
B8
330
AC
100
AcDbEntity
  8
Calque 1
 62
   140
370
    35
100
AcDb2dPolyline
 66
     1
 10
0.0
 20
0.0
 30
0.0
  0
VERTEX
  5
B9
330
B8
100
AcDbEntity
  8
Calque 1
 62
   140
370
    35
100
AcDbVertex
100
AcDb2dVertex
 10
140.526822881535
 20
-64.96416556535618
 30
0.0
  0
VERTEX
  5
BA
330
B8
100
AcDbEntity
  8
Calque 1
 62
   140
370
    35
100
AcDbVertex
100
AcDb2dVertex
 10
140.526822881535
 20
-56.54435219940558
 30
0.0
  0
SEQEND
  5
BB
330
B8
100
AcDbEntity
  8
Calque 1
370
    35
  0
POLYLINE
  5
BC
330
AC
100
AcDbEntity
  8
Calque 1
 62
   140
370
    35
100
AcDb2dPolyline
 66
     1
 10
0.0
 20
0.0
 30
0.0
  0
VERTEX
  5
BD
330
BC
100
AcDbEntity
  8
Calque 1
 62
   140
370
    35
100
AcDbVertex
100
AcDb2dVertex
 10
163.3764186874545
 20
-64.96416556535618
 30
0.0
  0
VERTEX
  5
BE
330
BC
100
AcDbEntity
  8
Calque 1
 62
   140
370
    35
100
AcDbVertex
100
AcDb2dVertex
 10
163.3764186874545
 20
-56.46856009873009
 30
0.0
  0
SEQEND
  5
BF
330
BC
100
AcDbEntity
  8
Calque 1
370
    35
  0
POLYLINE
  5
C0
330
AC
100
AcDbEntity
  8
Calque 1
 62
   140
370
    35
100
AcDb2dPolyline
 66
     1
 10
0.0
 20
0.0
 30
0.0
  0
VERTEX
  5
C1
330
C0
100
AcDbEntity
  8
Calque 1
 62
   140
370
    35
100
AcDbVertex
100
AcDb2dVertex
 10
186.2256699838255
 20
-64.96416556535618
 30
0.0
  0
VERTEX
  5
C2
330
C0
100
AcDbEntity
  8
Calque 1
 62
   140
370
    35
100
AcDbVertex
100
AcDb2dVertex
 10
186.2256699838255
 20
-56.46408147459926
 30
0.0
  0
SEQEND
  5
C3
330
C0
100
AcDbEntity
  8
Calque 1
370
    35
  0
POLYLINE
  5
C4
330
AC
100
AcDbEntity
  8
Calque 1
 62
   140
370
    35
100
AcDb2dPolyline
 66
     1
 10
0.0
 20
0.0
 30
0.0
  0
VERTEX
  5
C5
330
C4
100
AcDbEntity
  8
Calque 1
 62
   140
370
    35
100
AcDbVertex
100
AcDb2dVertex
 10
209.0752657897451
 20
-64.96416556535618
 30
0.0
  0
VERTEX
  5
C6
330
C4
100
AcDbEntity
  8
Calque 1
 62
   140
370
    35
100
AcDbVertex
100
AcDb2dVertex
 10
209.0752657897451
 20
-56.68904620978608
 30
0.0
  0
SEQEND
  5
C7
330
C4
100
AcDbEntity
  8
Calque 1
370
    35
  0
POLYLINE
  5
C8
330
AC
100
AcDbEntity
  8
Calque 1
 62
   140
370
    35
100
AcDb2dPolyline
 66
     1
 10
0.0
 20
0.0
 30
0.0
  0
VERTEX
  5
C9
330
C8
100
AcDbEntity
  8
Calque 1
 62
   140
370
    35
100
AcDbVertex
100
AcDb2dVertex
 10
231.9248615956646
 20
-64.96416556535618
 30
0.0
  0
VERTEX
  5
CA
330
C8
100
AcDbEntity
  8
Calque 1
 62
   140
370
    35
100
AcDbVertex
100
AcDb2dVertex
 10
231.9248615956646
 20
-57.01977537637006
 30
0.0
  0
SEQEND
  5
CB
330
C8
100
AcDbEntity
  8
Calque 1
370
    35
  0
POLYLINE
  5
CC
330
AC
100
AcDbEntity
  8
Calque 1
 62
   140
370
    35
100
AcDb2dPolyline
 66
     1
 10
0.0
 20
0.0
 30
0.0
  0
VERTEX
  5
CD
330
CC
100
AcDbEntity
  8
Calque 1
 62
   140
370
    35
100
AcDbVertex
100
AcDb2dVertex
 10
254.7744574015842
 20
-64.96416556535618
 30
0.0
  0
VERTEX
  5
CE
330
CC
100
AcDbEntity
  8
Calque 1
 62
   140
370
    35
100
AcDbVertex
100
AcDb2dVertex
 10
254.7744574015842
 20
-57.29503850564152
 30
0.0
  0
SEQEND
  5
CF
330
CC
100
AcDbEntity
  8
Calque 1
370
    35
  0
POLYLINE
  5
D0
330
AC
100
AcDbEntity
  8
Calque 1
 62
   140
370
    35
100
AcDb2dPolyline
 66
     1
 10
0.0
 20
0.0
 30
0.0
  0
VERTEX
  5
D1
330
D0
100
AcDbEntity
  8
Calque 1
 62
   140
370
    35
100
AcDbVertex
100
AcDb2dVertex
 10
277.6250867361493
 20
-64.96416556535618
 30
0.0
  0
VERTEX
  5
D2
330
D0
100
AcDbEntity
  8
Calque 1
 62
   140
370
    35
100
AcDbVertex
100
AcDb2dVertex
 10
277.6250867361493
 20
-57.46040308893351
 30
0.0
  0
SEQEND
  5
D3
330
D0
100
AcDbEntity
  8
Calque 1
370
    35
  0
POLYLINE
  5
D4
330
AC
100
AcDbEntity
  8
Calque 1
 62
   140
370
    35
100
AcDb2dPolyline
 66
     1
 10
0.0
 20
0.0
 30
0.0
  0
VERTEX
  5
D5
330
D4
100
AcDbEntity
  8
Calque 1
 62
   140
370
    35
100
AcDbVertex
100
AcDb2dVertex
 10
300.4750270516174
 20
-64.96416556535618
 30
0.0
  0
VERTEX
  5
D6
330
D4
100
AcDbEntity
  8
Calque 1
 62
   140
370
    35
100
AcDbVertex
100
AcDb2dVertex
 10
300.4750270516174
 20
-57.46419269396728
 30
0.0
  0
SEQEND
  5
D7
330
D4
100
AcDbEntity
  8
Calque 1
370
    35
  0
POLYLINE
  5
D8
330
AC
100
AcDbEntity
  8
Calque 1
 62
   140
370
    35
100
AcDb2dPolyline
 66
     1
 10
0.0
 20
0.0
 30
0.0
  0
VERTEX
  5
D9
330
D8
100
AcDbEntity
  8
Calque 1
 62
   140
370
    35
100
AcDbVertex
100
AcDb2dVertex
 10
323.3256563861825
 20
-64.96416556535618
 30
0.0
  0
VERTEX
  5
DA
330
D8
100
AcDbEntity
  8
Calque 1
 62
   140
370
    35
100
AcDbVertex
100
AcDb2dVertex
 10
323.3256563861825
 20
-57.46074759848204
 30
0.0
  0
SEQEND
  5
DB
330
D8
100
AcDbEntity
  8
Calque 1
370
    35
  0
POLYLINE
  5
DC
330
AC
100
AcDbEntity
  8
Calque 1
 62
   140
370
    35
100
AcDb2dPolyline
 66
     1
 10
0.0
 20
0.0
 30
0.0
  0
VERTEX
  5
DD
330
DC
100
AcDbEntity
  8
Calque 1
 62
   140
370
    35
100
AcDbVertex
100
AcDb2dVertex
 10
346.1759412111991
 20
-64.96416556535618
 30
0.0
  0
VERTEX
  5
DE
330
DC
100
AcDbEntity
  8
Calque 1
 62
   140
370
    35
100
AcDbVertex
100
AcDb2dVertex
 10
346.1759412111991
 20
-57.35050454295404
 30
0.0
  0
SEQEND
  5
DF
330
DC
100
AcDbEntity
  8
Calque 1
370
    35
  0
POLYLINE
  5
E0
330
AC
100
AcDbEntity
  8
Calque 1
 62
   140
370
    35
100
AcDb2dPolyline
 66
     1
 10
0.0
 20
0.0
 30
0.0
  0
VERTEX
  5
E1
330
E0
100
AcDbEntity
  8
Calque 1
 62
   140
370
    35
100
AcDbVertex
100
AcDb2dVertex
 10
369.0258815266671
 20
-64.96416556535618
 30
0.0
  0
VERTEX
  5
E2
330
E0
100
AcDbEntity
  8
Calque 1
 62
   140
370
    35
100
AcDbVertex
100
AcDb2dVertex
 10
369.0258815266671
 20
-57.29538301519005
 30
0.0
  0
SEQEND
  5
E3
330
E0
100
AcDbEntity
  8
Calque 1
370
    35
  0
POLYLINE
  5
E4
330
AC
100
AcDbEntity
  8
Calque 1
 62
   140
370
    35
100
AcDb2dPolyline
 66
     1
 10
0.0
 20
0.0
 30
0.0
  0
VERTEX
  5
E5
330
E4
100
AcDbEntity
  8
Calque 1
 62
   140
370
    35
100
AcDbVertex
100
AcDb2dVertex
 10
391.8765108612323
 20
-64.96416556535618
 30
0.0
  0
VERTEX
  5
E6
330
E4
100
AcDbEntity
  8
Calque 1
 62
   140
370
    35
100
AcDbVertex
100
AcDb2dVertex
 10
391.8765108612323
 20
-57.07524141368258
 30
0.0
  0
SEQEND
  5
E7
330
E4
100
AcDbEntity
  8
Calque 1
370
    35
  0
POLYLINE
  5
E8
330
AC
100
AcDbEntity
  8
Calque 1
 62
   140
370
    35
100
AcDb2dPolyline
 66
     1
 10
0.0
 20
0.0
 30
0.0
  0
VERTEX
  5
E9
330
E8
100
AcDbEntity
  8
Calque 1
 62
   140
370
    35
100
AcDbVertex
100
AcDb2dVertex
 10
414.7267956862489
 20
-64.96416556535618
 30
0.0
  0
VERTEX
  5
EA
330
E8
100
AcDbEntity
  8
Calque 1
 62
   140
370
    35
100
AcDbVertex
100
AcDb2dVertex
 10
414.7267956862489
 20
-56.61428763775616
 30
0.0
  0
SEQEND
  5
EB
330
E8
100
AcDbEntity
  8
Calque 1
370
    35
  0
POLYLINE
  5
EC
330
AC
100
AcDbEntity
  8
Calque 1
 62
   140
370
    35
100
AcDb2dPolyline
 66
     1
 10
0.0
 20
0.0
 30
0.0
  0
VERTEX
  5
ED
330
EC
100
AcDbEntity
  8
Calque 1
 62
   140
370
    35
100
AcDbVertex
100
AcDb2dVertex
 10
437.5770805112655
 20
-64.96416556535618
 30
0.0
  0
VERTEX
  5
EE
330
EC
100
AcDbEntity
  8
Calque 1
 62
   140
370
    35
100
AcDbVertex
100
AcDb2dVertex
 10
437.5770805112655
 20
-56.06445039831028
 30
0.0
  0
SEQEND
  5
EF
330
EC
100
AcDbEntity
  8
Calque 1
370
    35
  0
POLYLINE
  5
F0
330
AC
100
AcDbEntity
  8
Calque 1
 62
   140
370
    35
100
AcDb2dPolyline
 66
     1
 10
0.0
 20
0.0
 30
0.0
  0
VERTEX
  5
F1
330
F0
100
AcDbEntity
  8
Calque 1
 62
   140
370
    35
100
AcDbVertex
100
AcDb2dVertex
 10
460.4483804187421
 20
-64.96416556535618
 30
0.0
  0
VERTEX
  5
F2
330
F0
100
AcDbEntity
  8
Calque 1
 62
   140
370
    35
100
AcDbVertex
100
AcDb2dVertex
 10
460.4483804187421
 20
-55.24176159643262
 30
0.0
  0
SEQEND
  5
F3
330
F0
100
AcDbEntity
  8
Calque 1
370
    35
  0
POLYLINE
  5
F4
330
AC
100
AcDbEntity
  8
Calque 1
 62
   140
370
    35
100
AcDb2dPolyline
 66
     1
 10
0.0
 20
0.0
 30
0.0
  0
VERTEX
  5
F5
330
F4
100
AcDbEntity
  8
Calque 1
 62
   140
370
    35
100
AcDbVertex
100
AcDb2dVertex
 10
483.2776501612987
 20
-64.96416556535618
 30
0.0
  0
VERTEX
  5
F6
330
F4
100
AcDbEntity
  8
Calque 1
 62
   140
370
    35
100
AcDbVertex
100
AcDb2dVertex
 10
483.2776501612987
 20
-54.28436956108169
 30
0.0
  0
SEQEND
  5
F7
330
F4
100
AcDbEntity
  8
Calque 1
370
    35
  0
POLYLINE
  5
F8
330
AC
100
AcDbEntity
  8
Calque 1
 62
   140
370
    35
100
AcDb2dPolyline
 66
     1
 10
0.0
 20
0.0
 30
0.0
  0
VERTEX
  5
F9
330
F8
100
AcDbEntity
  8
Calque 1
 62
   140
370
    35
100
AcDbVertex
100
AcDb2dVertex
 10
506.1279349863153
 20
-64.96416556535618
 30
0.0
  0
VERTEX
  5
FA
330
F8
100
AcDbEntity
  8
Calque 1
 62
   140
370
    35
100
AcDbVertex
100
AcDb2dVertex
 10
506.1279349863153
 20
-53.21432290336309
 30
0.0
  0
SEQEND
  5
FB
330
F8
100
AcDbEntity
  8
Calque 1
370
    35
  0
POLYLINE
  5
FC
330
AC
100
AcDbEntity
  8
Calque 1
 62
   140
370
    35
100
AcDb2dPolyline
 66
     1
 10
0.0
 20
0.0
 30
0.0
  0
VERTEX
  5
FD
330
FC
100
AcDbEntity
  8
Calque 1
 62
   140
370
    35
100
AcDbVertex
100
AcDb2dVertex
 10
528.8128552280399
 20
-65.1298746581967
 30
0.0
  0
VERTEX
  5
FE
330
FC
100
AcDbEntity
  8
Calque 1
 62
   140
370
    35
100
AcDbVertex
100
AcDb2dVertex
 10
71.14397784679734
 20
-65.1298746581967
 30
0.0
  0
SEQEND
  5
FF
330
FC
100
AcDbEntity
  8
Calque 1
370
    35
  0
SPLINE
  5
100
330
AC
100
AcDbEntity
  8
Calque 1
 62
     1
370
    35
100
AcDbSpline
210
0.0
220
0.0
230
1.0
 70
    11
 71
     3
 72
    26
 73
    22
 74
     0
 42
0.0000000001
 43
0.0000000001
 40
0.0
 40
0.0
 40
0.0
 40
0.0
 40
1.0
 40
1.0
 40
1.0
 40
2.0
 40
2.0
 40
2.0
 40
3.0
 40
3.0
 40
3.0
 40
4.0
 40
4.0
 40
4.0
 40
5.0
 40
5.0
 40
5.0
 40
6.0
 40
6.0
 40
6.0
 40
7.0
 40
7.0
 40
7.0
 40
7.0
 10
70.81255966111631
 20
-75.12960881368288
 30
0.0
 10
70.81255966111631
 20
-75.12960881368288
 30
0.0
 10
529.1439289041724
 20
-75.12960881368288
 30
0.0
 10
529.1439289041724
 20
-75.12960881368288
 30
0.0
 10
529.1439289041724
 20
-75.12960881368288
 30
0.0
 10
529.144273413721
 20
-51.89864093754618
 30
0.0
 10
529.144273413721
 20
-51.89864093754618
 30
0.0
 10
501.0343613113734
 20
-53.59879555951697
 30
0.0
 10
447.5909395582412
 20
-55.93801539400161
 30
0.0
 10
414.7267956862489
 20
-56.61428763775616
 30
0.0
 10
381.4550970183515
 20
-57.2988281106753
 30
0.0
 10
323.3256563861825
 20
-57.46419269396728
 30
0.0
 10
300.4750270516174
 20
-57.46419269396728
 30
0.0
 10
277.6250867361493
 20
-57.46419269396728
 30
0.0
 10
209.0752657897451
 20
-56.62427841466338
 30
0.0
 10
186.2256699838255
 20
-56.46408147459926
 30
0.0
 10
163.3764186874545
 20
-56.30388453453514
 30
0.0
 10
87.57811684008465
 20
-56.84269746842822
 30
0.0
 10
70.80498045104876
 20
-57.51380206895489
 30
0.0
 10
70.80498045104876
 20
-57.51380206895489
 30
0.0
 10
70.81255966111631
 20
-75.12960881368288
 30
0.0
 10
70.81255966111631
 20
-75.12960881368288
 30
0.0
  0
SPLINE
  5
101
330
AC
100
AcDbEntity
  8
Calque 1
 62
     1
370
    35
100
AcDbSpline
210
0.0
220
0.0
230
1.0
 70
    11
 71
     3
 72
    17
 73
    13
 74
     0
 42
0.0000000001
 43
0.0000000001
 40
0.0
 40
0.0
 40
0.0
 40
0.0
 40
1.0
 40
1.0
 40
1.0
 40
2.0
 40
2.0
 40
2.0
 40
3.0
 40
3.0
 40
3.0
 40
4.0
 40
4.0
 40
4.0
 40
4.0
 10
298.4751491224299
 20
-69.96368813355075
 30
0.0
 10
298.4751491224299
 20
-71.06818574612184
 30
0.0
 10
299.3705294390463
 20
-71.96356606273828
 30
0.0
 10
300.4750270516174
 20
-71.96356606273828
 30
0.0
 10
301.5795246641885
 20
-71.96356606273828
 30
0.0
 10
302.4752494903534
 20
-71.06818574612184
 30
0.0
 10
302.4752494903534
 20
-69.96368813355075
 30
0.0
 10
302.4752494903534
 20
-68.85919052097965
 30
0.0
 10
301.5795246641885
 20
-67.96381020436321
 30
0.0
 10
300.4750270516174
 20
-67.96381020436321
 30
0.0
 10
299.3705294390463
 20
-67.96381020436321
 30
0.0
 10
298.4751491224299
 20
-68.85919052097965
 30
0.0
 10
298.4751491224299
 20
-69.96368813355075
 30
0.0
  0
SPLINE
  5
102
330
AC
100
AcDbEntity
  8
Calque 1
 62
     1
370
    35
100
AcDbSpline
210
0.0
220
0.0
230
1.0
 70
    11
 71
     3
 72
    17
 73
    13
 74
     0
 42
0.0000000001
 43
0.0000000001
 40
0.0
 40
0.0
 40
0.0
 40
0.0
 40
1.0
 40
1.0
 40
1.0
 40
2.0
 40
2.0
 40
2.0
 40
3.0
 40
3.0
 40
3.0
 40
4.0
 40
4.0
 40
4.0
 40
4.0
 10
401.2416584283354
 20
-69.96368813355075
 30
0.0
 10
401.2416584283354
 20
-71.06818574612184
 30
0.0
 10
402.1373832545004
 20
-71.96356606273828
 30
0.0
 10
403.2418808670715
 20
-71.96356606273828
 30
0.0
 10
404.3463784796426
 20
-71.96356606273828
 30
0.0
 10
405.2421033058076
 20
-71.06818574612184
 30
0.0
 10
405.2421033058076
 20
-69.96368813355075
 30
0.0
 10
405.2421033058076
 20
-68.85919052097965
 30
0.0
 10
404.3463784796426
 20
-67.96381020436321
 30
0.0
 10
403.2418808670715
 20
-67.96381020436321
 30
0.0
 10
402.1373832545004
 20
-67.96381020436321
 30
0.0
 10
401.2416584283354
 20
-68.85919052097965
 30
0.0
 10
401.2416584283354
 20
-69.96368813355075
 30
0.0
  0
SPLINE
  5
103
330
AC
100
AcDbEntity
  8
Calque 1
 62
     1
370
    35
100
AcDbSpline
210
0.0
220
0.0
230
1.0
 70
    11
 71
     3
 72
    17
 73
    13
 74
     0
 42
0.0000000001
 43
0.0000000001
 40
0.0
 40
0.0
 40
0.0
 40
0.0
 40
1.0
 40
1.0
 40
1.0
 40
2.0
 40
2.0
 40
2.0
 40
3.0
 40
3.0
 40
3.0
 40
4.0
 40
4.0
 40
4.0
 40
4.0
 10
504.0088567533381
 20
-69.96368813355075
 30
0.0
 10
504.0088567533381
 20
-71.06818574612184
 30
0.0
 10
504.9042370699545
 20
-71.96356606273828
 30
0.0
 10
506.0087346825256
 20
-71.96356606273828
 30
0.0
 10
507.1132322950967
 20
-71.96356606273828
 30
0.0
 10
508.0086126117131
 20
-71.06818574612184
 30
0.0
 10
508.0086126117131
 20
-69.96368813355075
 30
0.0
 10
508.0086126117131
 20
-68.85919052097965
 30
0.0
 10
507.1132322950967
 20
-67.96381020436321
 30
0.0
 10
506.0087346825256
 20
-67.96381020436321
 30
0.0
 10
504.9042370699545
 20
-67.96381020436321
 30
0.0
 10
504.0088567533381
 20
-68.85919052097965
 30
0.0
 10
504.0088567533381
 20
-69.96368813355075
 30
0.0
  0
SPLINE
  5
104
330
AC
100
AcDbEntity
  8
Calque 1
 62
     1
370
    35
100
AcDbSpline
210
0.0
220
0.0
230
1.0
 70
    11
 71
     3
 72
    17
 73
    13
 74
     0
 42
0.0000000001
 43
0.0000000001
 40
0.0
 40
0.0
 40
0.0
 40
0.0
 40
1.0
 40
1.0
 40
1.0
 40
2.0
 40
2.0
 40
2.0
 40
3.0
 40
3.0
 40
3.0
 40
4.0
 40
4.0
 40
4.0
 40
4.0
 10
199.7083956748993
 20
-69.96472166219633
 30
0.0
 10
199.7083956748993
 20
-68.86022404962523
 30
0.0
 10
198.8126708487343
 20
-67.96518824255732
 30
0.0
 10
197.7081732361632
 20
-67.96518824255732
 30
0.0
 10
196.6036756235922
 20
-67.96518824255732
 30
0.0
 10
195.7079507974272
 20
-68.86022404962523
 30
0.0
 10
195.7079507974272
 20
-69.96472166219633
 30
0.0
 10
195.7079507974272
 20
-71.06921927476742
 30
0.0
 10
196.6036756235922
 20
-71.96494410093239
 30
0.0
 10
197.7081732361632
 20
-71.96494410093239
 30
0.0
 10
198.8126708487343
 20
-71.96494410093239
 30
0.0
 10
199.7083956748993
 20
-71.06921927476742
 30
0.0
 10
199.7083956748993
 20
-69.96472166219633
 30
0.0
  0
SPLINE
  5
105
330
AC
100
AcDbEntity
  8
Calque 1
 62
     1
370
    35
100
AcDbSpline
210
0.0
220
0.0
230
1.0
 70
    11
 71
     3
 72
    17
 73
    13
 74
     0
 42
0.0000000001
 43
0.0000000001
 40
0.0
 40
0.0
 40
0.0
 40
0.0
 40
1.0
 40
1.0
 40
1.0
 40
2.0
 40
2.0
 40
2.0
 40
3.0
 40
3.0
 40
3.0
 40
4.0
 40
4.0
 40
4.0
 40
4.0
 10
96.94154185944518
 20
-69.96472166219633
 30
0.0
 10
96.94154185944518
 20
-68.86022404962523
 30
0.0
 10
96.04616154282874
 20
-67.96518824255732
 30
0.0
 10
94.94166393025765
 20
-67.96518824255732
 30
0.0
 10
93.83716631768655
 20
-67.96518824255732
 30
0.0
 10
92.94144149152159
 20
-68.86022404962523
 30
0.0
 10
92.94144149152159
 20
-69.96472166219633
 30
0.0
 10
92.94144149152159
 20
-71.06921927476742
 30
0.0
 10
93.83716631768655
 20
-71.96494410093239
 30
0.0
 10
94.94166393025765
 20
-71.96494410093239
 30
0.0
 10
96.04616154282874
 20
-71.96494410093239
 30
0.0
 10
96.94154185944518
 20
-71.06921927476742
 30
0.0
 10
96.94154185944518
 20
-69.96472166219633
 30
0.0
  0
POLYLINE
  5
106
330
AC
100
AcDbEntity
  8
Calque 1
 62
   140
370
    35
100
AcDb2dPolyline
 66
     1
 10
0.0
 20
0.0
 30
0.0
  0
VERTEX
  5
107
330
106
100
AcDbEntity
  8
Calque 1
 62
   140
370
    35
100
AcDbVertex
100
AcDb2dVertex
 10
71.80474716086826
 20
-64.96416556535618
 30
0.0
  0
VERTEX
  5
108
330
106
100
AcDbEntity
  8
Calque 1
 62
   140
370
    35
100
AcDbVertex
100
AcDb2dVertex
 10
71.80474716086826
 20
-57.51483559760046
 30
0.0
  0
SEQEND
  5
109
330
106
100
AcDbEntity
  8
Calque 1
370
    35
  0
ENDBLK
  5
AF
330
AC
100
AcDbEntity
  8
0
100
AcDbBlockEnd
  0
ENDSEC
  0
SECTION
  2
ENTITIES
  0
INSERT
  5
3D
330
1F
100
AcDbEntity
  8
Calque 1
100
AcDbBlockReference
  2
block 2
 10
0.0
 20
0.0
 30
0.0
  0
INSERT
  5
A9
330
1F
100
AcDbEntity
  8
Calque 1
100
AcDbBlockReference
  2
block 4
 10
0.0
 20
0.0
 30
0.0
  0
ENDSEC
  0
SECTION
  2
OBJECTS
  0
DICTIONARY
  5
C
330
0
100
AcDbDictionary
281
     1
  3
ACAD_GROUP
350
D
  3
ACAD_LAYOUT
350
1A
  3
ACAD_MLINESTYLE
350
17
  3
ACAD_PLOTSETTINGS
350
19
  3
ACAD_PLOTSTYLENAME
350
E
  3
ACAD_TABLESTYLE
350
114
  3
ACAD_VISUALSTYLE
350
2A
  0
DICTIONARY
  5
D
102
{ACAD_REACTORS
330
C
102
}
330
C
100
AcDbDictionary
281
     1
  0
DICTIONARY
  5
1A
102
{ACAD_REACTORS
330
C
102
}
330
C
100
AcDbDictionary
281
     1
  3
Layout1
350
1E
  3
Layout2
350
26
  3
Model
350
22
  0
DICTIONARY
  5
17
102
{ACAD_REACTORS
330
C
102
}
330
C
100
AcDbDictionary
281
     1
  3
Standard
350
18
  0
DICTIONARY
  5
19
102
{ACAD_REACTORS
330
C
102
}
330
C
100
AcDbDictionary
281
     1
  0
ACDBDICTIONARYWDFLT
  5
E
102
{ACAD_REACTORS
330
C
102
}
330
C
100
AcDbDictionary
281
     1
  3
Normal
350
F
100
AcDbDictionaryWithDefault
340
F
  0
DICTIONARY
  5
114
102
{ACAD_REACTORS
330
C
102
}
330
C
100
AcDbDictionary
281
     1
  0
DICTIONARY
  5
2A
102
{ACAD_REACTORS
330
C
102
}
330
C
100
AcDbDictionary
281
     1
  3
2dWireframe
350
2F
  3
3D Hidden
350
31
  3
3dWireframe
350
30
  3
Basic
350
32
  3
Brighten
350
36
  3
ColorChange
350
3A
  3
Conceptual
350
34
  3
Dim
350
35
  3
Facepattern
350
39
  3
Flat
350
2B
  3
FlatWithEdges
350
2C
  3
Gouraud
350
2D
  3
GouraudWithEdges
350
2E
  3
Linepattern
350
38
  3
Realistic
350
33
  3
Thicken
350
37
  0
LAYOUT
  5
1E
102
{ACAD_REACTORS
330
1A
102
}
330
1A
100
AcDbPlotSettings
  1

  2
none_device
  4

  6

 40
0.0
 41
0.0
 42
0.0
 43
0.0
 44
0.0
 45
0.0
 46
0.0
 47
0.0
 48
0.0
 49
0.0
140
0.0
141
0.0
142
1.0
143
1.0
 70
   688
 72
     0
 73
     0
 74
     5
  7

 75
    16
 76
     0
 77
     2
 78
   300
147
1.0
148
0.0
149
0.0
100
AcDbLayout
  1
Layout1
 70
     1
 71
     1
 10
0.0
 20
0.0
 11
12.0
 21
9.0
 12
0.0
 22
0.0
 32
0.0
 14
1.000000000000000E+20
 24
1.000000000000000E+20
 34
1.000000000000000E+20
 15
-1.000000000000000E+20
 25
-1.000000000000000E+20
 35
-1.000000000000000E+20
146
0.0
 13
0.0
 23
0.0
 33
0.0
 16
1.0
 26
0.0
 36
0.0
 17
0.0
 27
1.0
 37
0.0
 76
     0
330
1B
  0
LAYOUT
  5
26
102
{ACAD_REACTORS
330
1A
102
}
330
1A
100
AcDbPlotSettings
  1

  2
none_device
  4

  6

 40
0.0
 41
0.0
 42
0.0
 43
0.0
 44
0.0
 45
0.0
 46
0.0
 47
0.0
 48
0.0
 49
0.0
140
0.0
141
0.0
142
1.0
143
1.0
 70
   688
 72
     0
 73
     0
 74
     5
  7

 75
    16
 76
     0
 77
     2
 78
   300
147
1.0
148
0.0
149
0.0
100
AcDbLayout
  1
Layout2
 70
     1
 71
     2
 10
0.0
 20
0.0
 11
0.0
 21
0.0
 12
0.0
 22
0.0
 32
0.0
 14
0.0
 24
0.0
 34
0.0
 15
0.0
 25
0.0
 35
0.0
146
0.0
 13
0.0
 23
0.0
 33
0.0
 16
1.0
 26
0.0
 36
0.0
 17
0.0
 27
1.0
 37
0.0
 76
     0
330
23
  0
LAYOUT
  5
22
102
{ACAD_REACTORS
330
1A
102
}
330
1A
100
AcDbPlotSettings
  1

  2
none_device
  4

  6

 40
0.0
 41
0.0
 42
0.0
 43
0.0
 44
0.0
 45
0.0
 46
0.0
 47
0.0
 48
0.0
 49
0.0
140
0.0
141
0.0
142
1.0
143
1.0
 70
  1712
 72
     0
 73
     0
 74
     0
  7

 75
     0
 76
     0
 77
     2
 78
   300
147
1.0
148
0.0
149
0.0
100
AcDbLayout
  1
Model
 70
     1
 71
     0
 10
0.0
 20
0.0
 11
12.0
 21
9.0
 12
0.0
 22
0.0
 32
0.0
 14
1.000000000000000E+20
 24
1.000000000000000E+20
 34
1.000000000000000E+20
 15
-1.000000000000000E+20
 25
-1.000000000000000E+20
 35
-1.000000000000000E+20
146
0.0
 13
0.0
 23
0.0
 33
0.0
 16
1.0
 26
0.0
 36
0.0
 17
0.0
 27
1.0
 37
0.0
 76
     0
330
1F
331
29
  0
MLINESTYLE
  5
18
102
{ACAD_REACTORS
330
17
102
}
330
17
100
AcDbMlineStyle
  2
Standard
 70
     0
  3

 62
   256
 51
90.0
 52
90.0
 71
     2
 49
0.5
 62
   256
  6
BYLAYER
 49
-0.5
 62
   256
  6
BYLAYER
  0
ACDBPLACEHOLDER
  5
F
102
{ACAD_REACTORS
330
E
102
}
330
E
  0
VISUALSTYLE
  5
2F
102
{ACAD_REACTORS
330
2A
102
}
330
2A
100
AcDbVisualStyle
  2
2dWireframe
 70
     4
 71
     0
 72
     2
 73
     0
 90
        0
 40
-0.6
 41
-30.0
 62
     5
 63
     7
421
 16777215
 74
     1
 91
        4
 64
     7
 65
   257
 75
     1
175
     1
 42
1.0
 92
        0
 66
   257
 43
1.0
 76
     1
 77
     6
 78
     2
 67
     7
 79
     5
170
     0
171
     0
290
     0
174
     0
 93
        1
 44
0.0
173
     0
291
     0
 45
0.0
1001
ACAD
1000
AcDbSavedByObjectVersion
1070
     0
  0
VISUALSTYLE
  5
31
102
{ACAD_REACTORS
330
2A
102
}
330
2A
100
AcDbVisualStyle
  2
3D Hidden
 70
     6
 71
     1
 72
     2
 73
     2
 90
        0
 40
-0.6
 41
-30.0
 62
     5
 63
     7
421
 16777215
 74
     2
 91
        2
 64
     7
 65
   257
 75
     2
175
     1
 42
40.0
 92
        0
 66
   257
 43
1.0
 76
     1
 77
     6
 78
     2
 67
     7
 79
     3
170
     0
171
     0
290
     0
174
     0
 93
        1
 44
0.0
173
     0
291
     0
 45
0.0
1001
ACAD
1000
AcDbSavedByObjectVersion
1070
     0
  0
VISUALSTYLE
  5
30
102
{ACAD_REACTORS
330
2A
102
}
330
2A
100
AcDbVisualStyle
  2
3dWireframe
 70
     5
 71
     0
 72
     2
 73
     0
 90
        0
 40
-0.6
 41
-30.0
 62
     5
 63
     7
421
 16777215
 74
     1
 91
        4
 64
     7
 65
   257
 75
     1
175
     1
 42
1.0
 92
        0
 66
   257
 43
1.0
 76
     1
 77
     6
 78
     2
 67
     7
 79
     5
170
     0
171
     0
290
     0
174
     0
 93
        1
 44
0.0
173
     0
291
     0
 45
0.0
1001
ACAD
1000
AcDbSavedByObjectVersion
1070
     0
  0
VISUALSTYLE
  5
32
102
{ACAD_REACTORS
330
2A
102
}
330
2A
100
AcDbVisualStyle
  2
Basic
 70
     7
 71
     1
 72
     0
 73
     1
 90
        0
 40
-0.6
 41
-30.0
 62
     5
 63
     7
421
 16777215
 74
     0
 91
        4
 64
     7
 65
   257
 75
     1
175
     1
 42
1.0
 92
        8
 66
     7
 43
1.0
 76
     1
 77
     6
 78
     2
 67
     7
 79
     5
170
     0
171
     0
290
     0
174
     0
 93
        1
 44
0.0
173
     0
291
     1
 45
0.0
1001
ACAD
1000
AcDbSavedByObjectVersion
1070
     0
  0
VISUALSTYLE
  5
36
102
{ACAD_REACTORS
330
2A
102
}
330
2A
100
AcDbVisualStyle
  2
Brighten
 70
    12
 71
     2
 72
     2
 73
     0
 90
        0
 40
-0.6
 41
-30.0
 62
     5
 63
     7
421
 16777215
 74
     1
 91
        4
 64
     7
 65
   257
 75
     1
175
     1
 42
1.0
 92
        8
 66
     7
 43
1.0
 76
     1
 77
     6
 78
     2
 67
     7
 79
     5
170
     0
171
     0
290
     0
174
     0
 93
        1
 44
50.0
173
     0
291
     1
 45
0.0
1001
ACAD
1000
AcDbSavedByObjectVersion
1070
     0
  0
VISUALSTYLE
  5
3A
102
{ACAD_REACTORS
330
2A
102
}
330
2A
100
AcDbVisualStyle
  2
ColorChange
 70
    16
 71
     2
 72
     2
 73
     3
 90
        0
 40
-0.6
 41
-30.0
 62
     5
 63
     8
421
  8421504
 74
     1
 91
        4
 64
     7
 65
   257
 75
     1
175
     1
 42
1.0
 92
        8
 66
     8
424
  8421504
 43
1.0
 76
     1
 77
     6
 78
     2
 67
     7
 79
     5
170
     0
171
     0
290
     0
174
     0
 93
        1
 44
0.0
173
     0
291
     1
 45
0.0
1001
ACAD
1000
AcDbSavedByObjectVersion
1070
     0
  0
VISUALSTYLE
  5
34
102
{ACAD_REACTORS
330
2A
102
}
330
2A
100
AcDbVisualStyle
  2
Conceptual
 70
     9
 71
     3
 72
     2
 73
     0
 90
        0
 40
-0.6
 41
-30.0
 62
     5
 63
     7
421
 16777215
 74
     2
 91
        2
 64
     7
 65
   257
 75
     1
175
     1
 42
40.0
 92
        8
 66
     7
 43
1.0
 76
     1
 77
     6
 78
     2
 67
     7
 79
     3
170
     0
171
     0
290
     0
174
     0
 93
        1
 44
0.0
173
     0
291
     0
 45
0.0
1001
ACAD
1000
AcDbSavedByObjectVersion
1070
     0
  0
VISUALSTYLE
  5
35
102
{ACAD_REACTORS
330
2A
102
}
330
2A
100
AcDbVisualStyle
  2
Dim
 70
    11
 71
     2
 72
     2
 73
     0
 90
        0
 40
-0.6
 41
-30.0
 62
     5
 63
     7
421
 16777215
 74
     1
 91
        4
 64
     7
 65
   257
 75
     1
175
     1
 42
1.0
 92
        8
 66
     7
 43
1.0
 76
     1
 77
     6
 78
     2
 67
     7
 79
     5
170
     0
171
     0
290
     0
174
     0
 93
        1
 44
-50.0
173
     0
291
     1
 45
0.0
1001
ACAD
1000
AcDbSavedByObjectVersion
1070
     0
  0
VISUALSTYLE
  5
39
102
{ACAD_REACTORS
330
2A
102
}
330
2A
100
AcDbVisualStyle
  2
Facepattern
 70
    15
 71
     2
 72
     2
 73
     0
 90
        0
 40
-0.6
 41
-30.0
 62
     5
 63
     7
421
 16777215
 74
     1
 91
        4
 64
     7
 65
   257
 75
     1
175
     1
 42
1.0
 92
        8
 66
     7
 43
1.0
 76
     1
 77
     6
 78
     2
 67
     7
 79
     5
170
     0
171
     0
290
     0
174
     0
 93
        1
 44
0.0
173
     0
291
     1
 45
0.0
1001
ACAD
1000
AcDbSavedByObjectVersion
1070
     0
  0
VISUALSTYLE
  5
2B
102
{ACAD_REACTORS
330
2A
102
}
330
2A
100
AcDbVisualStyle
  2
Flat
 70
     0
 71
     2
 72
     1
 73
     1
 90
        2
 40
-0.6
 41
30.0
 62
     5
 63
     7
421
 16777215
 74
     0
 91
        4
 64
     7
 65
   257
 75
     1
175
     1
 42
1.0
 92
        8
 66
     7
 43
1.0
 76
     1
 77
     6
 78
     2
 67
     7
 79
     5
170
     0
171
     0
290
     0
174
     0
 93
       13
 44
0.0
173
     0
291
     1
 45
0.0
1001
ACAD
1000
AcDbSavedByObjectVersion
1070
     0
  0
VISUALSTYLE
  5
2C
102
{ACAD_REACTORS
330
2A
102
}
330
2A
100
AcDbVisualStyle
  2
FlatWithEdges
 70
     1
 71
     2
 72
     1
 73
     1
 90
        2
 40
-0.6
 41
30.0
 62
     5
 63
     7
421
 16777215
 74
     1
 91
        4
 64
     7
 65
   257
 75
     1
175
     1
 42
1.0
 92
        0
 66
   257
 43
1.0
 76
     1
 77
     6
 78
     2
 67
     7
 79
     5
170
     0
171
     0
290
     0
174
     0
 93
       13
 44
0.0
173
     0
291
     1
 45
0.0
1001
ACAD
1000
AcDbSavedByObjectVersion
1070
     0
  0
VISUALSTYLE
  5
2D
102
{ACAD_REACTORS
330
2A
102
}
330
2A
100
AcDbVisualStyle
  2
Gouraud
 70
     2
 71
     2
 72
     2
 73
     1
 90
        2
 40
-0.6
 41
30.0
 62
     5
 63
     7
421
 16777215
 74
     0
 91
        4
 64
     7
 65
   257
 75
     1
175
     1
 42
1.0
 92
        0
 66
     7
 43
1.0
 76
     1
 77
     6
 78
     2
 67
     7
 79
     5
170
     0
171
     0
290
     0
174
     0
 93
       13
 44
0.0
173
     0
291
     1
 45
0.0
1001
ACAD
1000
AcDbSavedByObjectVersion
1070
     0
  0
VISUALSTYLE
  5
2E
102
{ACAD_REACTORS
330
2A
102
}
330
2A
100
AcDbVisualStyle
  2
GouraudWithEdges
 70
     3
 71
     2
 72
     2
 73
     1
 90
        2
 40
-0.6
 41
30.0
 62
     5
 63
     7
421
 16777215
 74
     1
 91
        4
 64
     7
 65
   257
 75
     1
175
     1
 42
1.0
 92
        0
 66
   257
 43
1.0
 76
     1
 77
     6
 78
     2
 67
     7
 79
     5
170
     0
171
     0
290
     0
174
     0
 93
       13
 44
0.0
173
     0
291
     1
 45
0.0
1001
ACAD
1000
AcDbSavedByObjectVersion
1070
     0
  0
VISUALSTYLE
  5
38
102
{ACAD_REACTORS
330
2A
102
}
330
2A
100
AcDbVisualStyle
  2
Linepattern
 70
    14
 71
     2
 72
     2
 73
     0
 90
        0
 40
-0.6
 41
-30.0
 62
     5
 63
     7
421
 16777215
 74
     1
 91
        4
 64
     7
 65
   257
 75
     7
175
     7
 42
1.0
 92
        8
 66
     7
 43
1.0
 76
     1
 77
     6
 78
     2
 67
     7
 79
     5
170
     0
171
     0
290
     0
174
     0
 93
        1
 44
0.0
173
     0
291
     1
 45
0.0
1001
ACAD
1000
AcDbSavedByObjectVersion
1070
     0
  0
VISUALSTYLE
  5
33
102
{ACAD_REACTORS
330
2A
102
}
330
2A
100
AcDbVisualStyle
  2
Realistic
 70
     8
 71
     2
 72
     2
 73
     0
 90
        0
 40
-0.6
 41
-30.0
 62
     5
 63
     7
421
 16777215
 74
     1
 91
        0
 64
     7
 65
   257
 75
     1
175
     1
 42
1.0
 92
        8
 66
     8
424
  7895160
 43
1.0
 76
     1
 77
     6
 78
     2
 67
     7
 79
     5
170
     0
171
     0
290
     0
174
     0
 93
       13
 44
0.0
173
     0
291
     0
 45
0.0
1001
ACAD
1000
AcDbSavedByObjectVersion
1070
     0
  0
VISUALSTYLE
  5
37
102
{ACAD_REACTORS
330
2A
102
}
330
2A
100
AcDbVisualStyle
  2
Thicken
 70
    13
 71
     2
 72
     2
 73
     0
 90
        0
 40
-0.6
 41
-30.0
 62
     5
 63
     7
421
 16777215
 74
     1
 91
        4
 64
     7
 65
   257
 75
     1
175
     1
 42
1.0
 92
       12
 66
     7
 43
1.0
 76
     1
 77
     6
 78
     2
 67
     7
 79
     5
170
     0
171
     0
290
     0
174
     0
 93
        1
 44
0.0
173
     0
291
     1
 45
0.0
1001
ACAD
1000
AcDbSavedByObjectVersion
1070
     0
  0
ENDSEC
  0
EOF
