  0
SECTION
  2
HEADER
  9
$ACADVER
  1
AC1018
  9
$ACADMAINTVER
 70
     0
  9
$DWGCODEPAGE
  3
ANSI_1252
  9
$INSBASE
 10
0.0
 20
0.0
 30
0.0
  9
$EXTMIN
 10
1.000000000000000E+20
 20
1.000000000000000E+20
 30
1.000000000000000E+20
  9
$EXTMAX
 10
-1.000000000000000E+20
 20
-1.000000000000000E+20
 30
-1.000000000000000E+20
  9
$LIMMIN
 10
0.0
 20
0.0
  9
$LIMMAX
 10
12.0
 20
9.0
  9
$ORTHOMODE
 70
     0
  9
$REGENMODE
 70
     1
  9
$FILLMODE
 70
     1
  9
$QTEXTMODE
 70
     0
  9
$MIRRTEXT
 70
     1
  9
$LTSCALE
 40
1.0
  9
$ATTMODE
 70
     1
  9
$TEXTSIZE
 40
0.2
  9
$TRACEWID
 40
0.05
  9
$TEXTSTYLE
  7
Standard
  9
$CLAYER
  8
0
  9
$CELTYPE
  6
ByLayer
  9
$CECOLOR
 62
   256
  9
$CELTSCALE
 40
1.0
  9
$DISPSILH
 70
     0
  9
$DIMSCALE
 40
1.0
  9
$DIMASZ
 40
0.18
  9
$DIMEXO
 40
0.0625
  9
$DIMDLI
 40
0.38
  9
$DIMRND
 40
0.0
  9
$DIMDLE
 40
0.0
  9
$DIMEXE
 40
0.18
  9
$DIMTP
 40
0.0
  9
$DIMTM
 40
0.0
  9
$DIMTXT
 40
0.18
  9
$DIMCEN
 40
0.09
  9
$DIMTSZ
 40
0.0
  9
$DIMTOL
 70
     0
  9
$DIMLIM
 70
     0
  9
$DIMTIH
 70
     1
  9
$DIMTOH
 70
     1
  9
$DIMSE1
 70
     0
  9
$DIMSE2
 70
     0
  9
$DIMTAD
 70
     0
  9
$DIMZIN
 70
     0
  9
$DIMBLK
  1

  9
$DIMASO
 70
     1
  9
$DIMSHO
 70
     1
  9
$DIMPOST
  1

  9
$DIMAPOST
  1

  9
$DIMALT
 70
     0
  9
$DIMALTD
 70
     2
  9
$DIMALTF
 40
25.4
  9
$DIMLFAC
 40
1.0
  9
$DIMTOFL
 70
     0
  9
$DIMTVP
 40
0.0
  9
$DIMTIX
 70
     0
  9
$DIMSOXD
 70
     0
  9
$DIMSAH
 70
     0
  9
$DIMBLK1
  1

  9
$DIMBLK2
  1

  9
$DIMSTYLE
  2
Standard
  9
$DIMCLRD
 70
     0
  9
$DIMCLRE
 70
     0
  9
$DIMCLRT
 70
     0
  9
$DIMTFAC
 40
1.0
  9
$DIMGAP
 40
0.09
  9
$DIMJUST
 70
     0
  9
$DIMSD1
 70
     0
  9
$DIMSD2
 70
     0
  9
$DIMTOLJ
 70
     1
  9
$DIMTZIN
 70
     0
  9
$DIMALTZ
 70
     0
  9
$DIMALTTZ
 70
     0
  9
$DIMUPT
 70
     0
  9
$DIMDEC
 70
     4
  9
$DIMTDEC
 70
     4
  9
$DIMALTU
 70
     2
  9
$DIMALTTD
 70
     2
  9
$DIMTXSTY
  7
Standard
  9
$DIMAUNIT
 70
     0
  9
$DIMADEC
 70
     0
  9
$DIMALTRND
 40
0.0
  9
$DIMAZIN
 70
     0
  9
$DIMDSEP
 70
    46
  9
$DIMATFIT
 70
     3
  9
$DIMFRAC
 70
     0
  9
$DIMLDRBLK
  1

  9
$DIMLUNIT
 70
     2
  9
$DIMLWD
 70
    -2
  9
$DIMLWE
 70
    -2
  9
$DIMTMOVE
 70
     0
  9
$LUNITS
 70
     2
  9
$LUPREC
 70
     4
  9
$SKETCHINC
 40
0.1
  9
$FILLETRAD
 40
0.5
  9
$AUNITS
 70
     0
  9
$AUPREC
 70
     0
  9
$MENU
  1
.
  9
$ELEVATION
 40
0.0
  9
$PELEVATION
 40
0.0
  9
$THICKNESS
 40
0.0
  9
$LIMCHECK
 70
     0
  9
$CHAMFERA
 40
0.5
  9
$CHAMFERB
 40
0.5
  9
$CHAMFERC
 40
1.0
  9
$CHAMFERD
 40
0.0
  9
$SKPOLY
 70
     0
  9
$TDCREATE
 40
2457671.502794907
  9
$TDUCREATE
 40
2457671.419461574
  9
$TDUPDATE
 40
2457671.502794919
  9
$TDUUPDATE
 40
2457671.419461586
  9
$TDINDWG
 40
0.0000000116
  9
$TDUSRTIMER
 40
0.0000000116
  9
$USRTIMER
 70
     1
  9
$ANGBASE
 50
0.0
  9
$ANGDIR
 70
     0
  9
$PDMODE
 70
     0
  9
$PDSIZE
 40
0.0
  9
$PLINEWID
 40
0.0
  9
$SPLFRAME
 70
     0
  9
$SPLINETYPE
 70
     6
  9
$SPLINESEGS
 70
     8
  9
$HANDSEED
  5
5C
  9
$SURFTAB1
 70
     6
  9
$SURFTAB2
 70
     6
  9
$SURFTYPE
 70
     6
  9
$SURFU
 70
     6
  9
$SURFV
 70
     6
  9
$UCSBASE
  2

  9
$UCSNAME
  2

  9
$UCSORG
 10
0.0
 20
0.0
 30
0.0
  9
$UCSXDIR
 10
1.0
 20
0.0
 30
0.0
  9
$UCSYDIR
 10
0.0
 20
1.0
 30
0.0
  9
$UCSORTHOREF
  2

  9
$UCSORTHOVIEW
 70
     0
  9
$UCSORGTOP
 10
0.0
 20
0.0
 30
0.0
  9
$UCSORGBOTTOM
 10
0.0
 20
0.0
 30
0.0
  9
$UCSORGLEFT
 10
0.0
 20
0.0
 30
0.0
  9
$UCSORGRIGHT
 10
0.0
 20
0.0
 30
0.0
  9
$UCSORGFRONT
 10
0.0
 20
0.0
 30
0.0
  9
$UCSORGBACK
 10
0.0
 20
0.0
 30
0.0
  9
$PUCSBASE
  2

  9
$PUCSNAME
  2

  9
$PUCSORG
 10
0.0
 20
0.0
 30
0.0
  9
$PUCSXDIR
 10
1.0
 20
0.0
 30
0.0
  9
$PUCSYDIR
 10
0.0
 20
1.0
 30
0.0
  9
$PUCSORTHOREF
  2

  9
$PUCSORTHOVIEW
 70
     0
  9
$PUCSORGTOP
 10
0.0
 20
0.0
 30
0.0
  9
$PUCSORGBOTTOM
 10
0.0
 20
0.0
 30
0.0
  9
$PUCSORGLEFT
 10
0.0
 20
0.0
 30
0.0
  9
$PUCSORGRIGHT
 10
0.0
 20
0.0
 30
0.0
  9
$PUCSORGFRONT
 10
0.0
 20
0.0
 30
0.0
  9
$PUCSORGBACK
 10
0.0
 20
0.0
 30
0.0
  9
$USERI1
 70
     0
  9
$USERI2
 70
     0
  9
$USERI3
 70
     0
  9
$USERI4
 70
     0
  9
$USERI5
 70
     0
  9
$USERR1
 40
0.0
  9
$USERR2
 40
0.0
  9
$USERR3
 40
0.0
  9
$USERR4
 40
0.0
  9
$USERR5
 40
0.0
  9
$WORLDVIEW
 70
     1
  9
$SHADEDGE
 70
     3
  9
$SHADEDIF
 70
    70
  9
$TILEMODE
 70
     1
  9
$MAXACTVP
 70
    64
  9
$PINSBASE
 10
0.0
 20
0.0
 30
0.0
  9
$PLIMCHECK
 70
     0
  9
$PEXTMIN
 10
1.000000000000000E+20
 20
1.000000000000000E+20
 30
1.000000000000000E+20
  9
$PEXTMAX
 10
-1.000000000000000E+20
 20
-1.000000000000000E+20
 30
-1.000000000000000E+20
  9
$PLIMMIN
 10
0.0
 20
0.0
  9
$PLIMMAX
 10
12.0
 20
9.0
  9
$UNITMODE
 70
     0
  9
$VISRETAIN
 70
     1
  9
$PLINEGEN
 70
     0
  9
$PSLTSCALE
 70
     1
  9
$TREEDEPTH
 70
  3020
  9
$CMLSTYLE
  2
Standard
  9
$CMLJUST
 70
     0
  9
$CMLSCALE
 40
1.0
  9
$PROXYGRAPHICS
 70
     1
  9
$MEASUREMENT
 70
     0
  9
$CELWEIGHT
370
    -1
  9
$ENDCAPS
280
     0
  9
$JOINSTYLE
280
     0
  9
$LWDISPLAY
290
     1
  9
$INSUNITS
 70
     1
  9
$HYPERLINKBASE
  1

  9
$STYLESHEET
  1

  9
$XEDIT
290
     1
  9
$CEPSNTYPE
380
     0
  9
$PSTYLEMODE
290
     1
  9
$FINGERPRINTGUID
  2
{B7FF6220-6151-45AC-AE94-E8360D2C7FBE}
  9
$VERSIONGUID
  2
{FAEB1C32-E019-11D5-929B-00C0DF256EC4}
  9
$EXTNAMES
290
     1
  9
$PSVPSCALE
 40
0.0
  9
$OLESTARTUP
290
     0
  9
$SORTENTS
280
   127
  9
$INDEXCTL
280
     0
  9
$HIDETEXT
280
     1
  9
$XCLIPFRAME
290
     0
  9
$HALOGAP
280
     0
  9
$OBSCOLOR
 70
   257
  9
$OBSLTYPE
280
     0
  9
$INTERSECTIONDISPLAY
280
     0
  9
$INTERSECTIONCOLOR
 70
   257
  9
$DIMASSOC
280
     2
  9
$PROJECTNAME
  1

  0
ENDSEC
  0
SECTION
  2
CLASSES
  0
CLASS
  1
ACDBDICTIONARYWDFLT
  2
AcDbDictionaryWithDefault
  3
ObjectDBX Classes
 90
        0
 91
        3
280
     0
281
     0
  0
CLASS
  1
VISUALSTYLE
  2
AcDbVisualStyle
  3
ObjectDBX Classes
 90
     4095
 91
        3
280
     0
281
     0
  0
ENDSEC
  0
SECTION
  2
TABLES
  0
TABLE
  2
VPORT
  5
8
330
0
100
AcDbSymbolTable
 70
     1
  0
VPORT
  5
29
330
8
100
AcDbSymbolTableRecord
100
AcDbViewportTableRecord
  2
*Active
 70
     0
 10
0.0
 20
0.0
 11
1.0
 21
1.0
 12
0.0
 22
0.0
 13
0.0
 23
0.0
 14
0.5
 24
0.5
 15
0.5
 25
0.5
 16
0.0
 26
0.0
 36
1.0
 17
400.0005627797742
 27
-300.0004651485242
 37
0.0
 40
600.0009302970484
 41
1.333333141939436
 42
50.0
 43
0.0
 44
0.0
 50
0.0
 51
0.0
 71
     0
 72
   100
 73
     1
 74
     3
 75
     0
 76
     0
 77
     0
 78
     0
281
     0
 65
     1
110
0.0
120
0.0
130
0.0
111
1.0
121
0.0
131
0.0
112
0.0
122
1.0
132
0.0
 79
     0
146
0.0
  0
ENDTAB
  0
TABLE
  2
LTYPE
  5
5
330
0
100
AcDbSymbolTable
 70
     1
  0
LTYPE
  5
14
330
5
100
AcDbSymbolTableRecord
100
AcDbLinetypeTableRecord
  2
ByBlock
 70
     0
  3

 72
    65
 73
     0
 40
0.0
  0
LTYPE
  5
15
330
5
100
AcDbSymbolTableRecord
100
AcDbLinetypeTableRecord
  2
ByLayer
 70
     0
  3

 72
    65
 73
     0
 40
0.0
  0
LTYPE
  5
16
330
5
100
AcDbSymbolTableRecord
100
AcDbLinetypeTableRecord
  2
Continuous
 70
     0
  3
Solid line
 72
    65
 73
     0
 40
0.0
  0
ENDTAB
  0
TABLE
  2
LAYER
  5
2
330
0
100
AcDbSymbolTable
 70
     2
  0
LAYER
  5
10
330
2
100
AcDbSymbolTableRecord
100
AcDbLayerTableRecord
  2
0
 70
     0
 62
     7
  6
Continuous
370
    -3
390
F
  0
LAYER
  5
3B
330
2
100
AcDbSymbolTableRecord
100
AcDbLayerTableRecord
  2
Calque 1
 70
     0
 62
     7
  6
Continuous
370
    -3
390
F
  0
ENDTAB
  0
TABLE
  2
STYLE
  5
3
330
0
100
AcDbSymbolTable
 70
     1
  0
STYLE
  5
11
330
3
100
AcDbSymbolTableRecord
100
AcDbTextStyleTableRecord
  2
Standard
 70
     0
 40
0.0
 41
1.0
 50
0.0
 71
     0
 42
0.2
  3
txt
  4

  0
ENDTAB
  0
TABLE
  2
VIEW
  5
6
330
0
100
AcDbSymbolTable
 70
     0
  0
ENDTAB
  0
TABLE
  2
UCS
  5
7
330
0
100
AcDbSymbolTable
 70
     0
  0
ENDTAB
  0
TABLE
  2
APPID
  5
9
330
0
100
AcDbSymbolTable
 70
     1
  0
APPID
  5
12
330
9
100
AcDbSymbolTableRecord
100
AcDbRegAppTableRecord
  2
ACAD
 70
     0
  0
ENDTAB
  0
TABLE
  2
DIMSTYLE
  5
A
330
0
100
AcDbSymbolTable
 70
     1
100
AcDbDimStyleTable
  0
DIMSTYLE
105
27
330
A
100
AcDbSymbolTableRecord
100
AcDbDimStyleTableRecord
  2
Standard
 70
     0
340
11
  0
ENDTAB
  0
TABLE
  2
BLOCK_RECORD
  5
1
330
0
100
AcDbSymbolTable
 70
     1
  0
BLOCK_RECORD
  5
1F
330
1
100
AcDbSymbolTableRecord
100
AcDbBlockTableRecord
  2
*Model_Space
340
22
  0
BLOCK_RECORD
  5
1B
330
1
100
AcDbSymbolTableRecord
100
AcDbBlockTableRecord
  2
*Paper_Space
340
1E
  0
BLOCK_RECORD
  5
23
330
1
100
AcDbSymbolTableRecord
100
AcDbBlockTableRecord
  2
*Paper_Space0
340
26
  0
ENDTAB
  0
ENDSEC
  0
SECTION
  2
BLOCKS
  0
BLOCK
  5
20
330
1F
100
AcDbEntity
  8
0
100
AcDbBlockBegin
  2
*Model_Space
 70
     0
 71
     0
 10
0.0
 20
0.0
 30
0.0
  3
*Model_Space
  1

  0
ENDBLK
  5
21
330
1F
100
AcDbEntity
  8
0
100
AcDbBlockEnd
  0
BLOCK
  5
1C
330
1B
100
AcDbEntity
 67
     1
  8
0
100
AcDbBlockBegin
  2
*Paper_Space
 70
     0
 71
     0
 10
0.0
 20
0.0
 30
0.0
  3
*Paper_Space
  1

  0
ENDBLK
  5
1D
330
1B
100
AcDbEntity
 67
     1
  8
0
100
AcDbBlockEnd
  0
BLOCK
  5
24
330
23
100
AcDbEntity
  8
0
100
AcDbBlockBegin
  2
*Paper_Space0
 70
     0
 71
     0
 10
0.0
 20
0.0
 30
0.0
  3
*Paper_Space0
  1

  0
ENDBLK
  5
25
330
23
100
AcDbEntity
  8
0
100
AcDbBlockEnd
  0
ENDSEC
  0
SECTION
  2
ENTITIES
  0
SPLINE
  5
3C
330
1F
100
AcDbEntity
  8
Calque 1
 62
   250
370
    35
100
AcDbSpline
210
0.0
220
0.0
230
1.0
 70
    11
 71
     3
 72
    20
 73
    16
 74
     0
 42
0.0000000001
 43
0.0000000001
 40
0.0
 40
0.0
 40
0.0
 40
0.0
 40
1.0
 40
1.0
 40
1.0
 40
2.0
 40
2.0
 40
2.0
 40
3.0
 40
3.0
 40
3.0
 40
4.0
 40
4.0
 40
4.0
 40
5.0
 40
5.0
 40
5.0
 40
5.0
 10
793.6845429873428
 20
-587.2699244408561
 30
0.0
 10
793.6845429873428
 20
-587.2699244408561
 30
0.0
 10
793.6276989118362
 20
-586.4768634601517
 30
0.0
 10
793.6276989118362
 20
-586.4768634601517
 30
0.0
 10
774.0047795374016
 20
-565.5889050235334
 30
0.0
 10
774.4960501535983
 20
-559.5145126639409
 30
0.0
 10
783.2713973736267
 20
-545.8733125805455
 30
0.0
 10
790.5026527971661
 20
-534.6319660121753
 30
0.0
 10
801.0411998865453
 20
-502.3166258509834
 30
0.0
 10
763.1120766321387
 20
-511.087494446881
 30
0.0
 10
733.0642983193381
 20
-518.0352185119842
 30
0.0
 10
685.1671357879096
 20
-559.8390406586514
 30
0.0
 10
656.1770017890808
 20
-587.350539675211
 30
0.0
 10
656.1770017890808
 20
-587.350539675211
 30
0.0
 10
793.6845429873428
 20
-587.2699244408561
 30
0.0
 10
793.6845429873428
 20
-587.2699244408561
 30
0.0
  0
SPLINE
  5
3D
330
1F
100
AcDbEntity
  8
Calque 1
 62
   250
370
    35
100
AcDbSpline
210
0.0
220
0.0
230
1.0
 70
    11
 71
     3
 72
   185
 73
   181
 74
     0
 42
0.0000000001
 43
0.0000000001
 40
0.0
 40
0.0
 40
0.0
 40
0.0
 40
1.0
 40
1.0
 40
1.0
 40
2.0
 40
2.0
 40
2.0
 40
3.0
 40
3.0
 40
3.0
 40
4.0
 40
4.0
 40
4.0
 40
5.0
 40
5.0
 40
5.0
 40
6.0
 40
6.0
 40
6.0
 40
7.0
 40
7.0
 40
7.0
 40
8.0
 40
8.0
 40
8.0
 40
9.0
 40
9.0
 40
9.0
 40
10.0
 40
10.0
 40
10.0
 40
11.0
 40
11.0
 40
11.0
 40
12.0
 40
12.0
 40
12.0
 40
13.0
 40
13.0
 40
13.0
 40
14.0
 40
14.0
 40
14.0
 40
15.0
 40
15.0
 40
15.0
 40
16.0
 40
16.0
 40
16.0
 40
17.0
 40
17.0
 40
17.0
 40
18.0
 40
18.0
 40
18.0
 40
19.0
 40
19.0
 40
19.0
 40
20.0
 40
20.0
 40
20.0
 40
21.0
 40
21.0
 40
21.0
 40
22.0
 40
22.0
 40
22.0
 40
23.0
 40
23.0
 40
23.0
 40
24.0
 40
24.0
 40
24.0
 40
25.0
 40
25.0
 40
25.0
 40
26.0
 40
26.0
 40
26.0
 40
27.0
 40
27.0
 40
27.0
 40
28.0
 40
28.0
 40
28.0
 40
29.0
 40
29.0
 40
29.0
 40
30.0
 40
30.0
 40
30.0
 40
31.0
 40
31.0
 40
31.0
 40
32.0
 40
32.0
 40
32.0
 40
33.0
 40
33.0
 40
33.0
 40
34.0
 40
34.0
 40
34.0
 40
35.0
 40
35.0
 40
35.0
 40
36.0
 40
36.0
 40
36.0
 40
37.0
 40
37.0
 40
37.0
 40
38.0
 40
38.0
 40
38.0
 40
39.0
 40
39.0
 40
39.0
 40
40.0
 40
40.0
 40
40.0
 40
41.0
 40
41.0
 40
41.0
 40
42.0
 40
42.0
 40
42.0
 40
43.0
 40
43.0
 40
43.0
 40
44.0
 40
44.0
 40
44.0
 40
45.0
 40
45.0
 40
45.0
 40
46.0
 40
46.0
 40
46.0
 40
47.0
 40
47.0
 40
47.0
 40
48.0
 40
48.0
 40
48.0
 40
49.0
 40
49.0
 40
49.0
 40
50.0
 40
50.0
 40
50.0
 40
51.0
 40
51.0
 40
51.0
 40
52.0
 40
52.0
 40
52.0
 40
53.0
 40
53.0
 40
53.0
 40
54.0
 40
54.0
 40
54.0
 40
55.0
 40
55.0
 40
55.0
 40
56.0
 40
56.0
 40
56.0
 40
57.0
 40
57.0
 40
57.0
 40
58.0
 40
58.0
 40
58.0
 40
59.0
 40
59.0
 40
59.0
 40
60.0
 40
60.0
 40
60.0
 40
60.0
 10
703.9969941816397
 20
-68.32881807102544
 30
0.0
 10
701.4834525156014
 20
-70.18813610441478
 30
0.0
 10
711.4135957422856
 20
-79.8285468007894
 30
0.0
 10
709.4808971750604
 20
-81.8170559148756
 30
0.0
 10
708.5135143628022
 20
-82.81027694327312
 30
0.0
 10
705.3143986951992
 20
-79.83974336111646
 30
0.0
 10
702.7567598069497
 20
-77.77182479609525
 30
0.0
 10
696.6293129768844
 20
-72.78814966713283
 30
0.0
 10
690.3757756520589
 20
-69.31239283206426
 30
0.0
 10
688.8254826836965
 20
-70.90816106083199
 30
0.0
 10
686.2719779100292
 20
-73.52850068691302
 30
0.0
 10
690.2503741763958
 20
-75.8119099745366
 30
0.0
 10
692.4138941411327
 20
-77.74391952266471
 30
0.0
 10
694.5939505641987
 20
-79.67455103259873
 30
0.0
 10
702.2434405796475
 20
-87.90557316595763
 30
0.0
 10
701.2781248246805
 20
-88.62973223695715
 30
0.0
 10
700.3128090697135
 20
-89.35354679840815
 30
0.0
 10
694.1343748264665
 20
-86.56370847445282
 30
0.0
 10
689.5413735255313
 20
-83.90977916739061
 30
0.0
 10
684.9635306447313
 20
-81.25481633168283
 30
0.0
 10
680.2747556893063
 20
-80.18339163577012
 30
0.0
 10
678.3441241793723
 20
-82.59668102318764
 30
0.0
 10
676.4134926694384
 20
-85.00997041060515
 30
0.0
 10
681.7223848122084
 20
-88.38857555298966
 30
0.0
 10
686.7990775192725
 20
-90.80152043085864
 30
0.0
 10
691.8613008252986
 20
-93.21480981827617
 30
0.0
 10
699.0980684016145
 20
-96.35277504101597
 30
0.0
 10
698.6302244347174
 20
-97.80074867346649
 30
0.0
 10
698.1327526466474
 20
-99.24906681546551
 30
0.0
 10
693.0732854170095
 20
-97.07641734769271
 30
0.0
 10
687.7637042551424
 20
-96.59341496066068
 30
0.0
 10
682.4548121123725
 20
-96.11075708317718
 30
0.0
 10
675.9304902824063
 20
-96.35277504101597
 30
0.0
 10
675.4481769144713
 20
-100.2152438443038
 30
0.0
 10
674.9651745274393
 20
-104.0765068641718
 30
0.0
 10
681.8960176246649
 20
-103.8675618229914
 30
0.0
 10
688.902652822566
 20
-104.350219700475
 30
0.0
 10
695.892751562138
 20
-104.833222087507
 30
0.0
 10
705.07599808762
 20
-106.4484551057664
 30
0.0
 10
706.0123750405108
 20
-107.8878159995037
 30
0.0
 10
706.9494410124988
 20
-109.3282104218867
 30
0.0
 10
705.6947372367708
 20
-114.4290187973476
 30
0.0
 10
704.7301105009009
 20
-119.0139241238924
 30
0.0
 10
703.7647947459338
 20
-123.5988294504371
 30
0.0
 10
707.752837279659
 20
-133.9611599057458
 30
0.0
 10
711.0036293795408
 20
-122.8751871437604
 30
0.0
 10
713.9002656635389
 20
-112.9808729101228
 30
0.0
 10
719.1354327629246
 20
-110.5922159554249
 30
0.0
 10
723.7291230829567
 20
-111.3194756123611
 30
0.0
 10
728.3055879255626
 20
-112.0398450783268
 30
0.0
 10
735.5451115782665
 20
-122.662969261869
 30
0.0
 10
738.6911727753967
 20
-126.7665947491243
 30
0.0
 10
741.8200084951006
 20
-130.868497688637
 30
0.0
 10
750.2749618350008
 20
-138.1088826152124
 30
0.0
 10
748.8266436930018
 20
-140.2806708091139
 30
0.0
 10
748.8266436930018
 20
-140.2806708091139
 30
0.0
 10
741.3370061080685
 20
-151.3814574816859
 30
0.0
 10
730.2362194354965
 20
-168.0328097453182
 30
0.0
 10
719.3256020337103
 20
-184.4068318223879
 30
0.0
 10
716.3421493434839
 20
-191.5247436044626
 30
0.0
 10
716.2436196126058
 20
-207.5792330752753
 30
0.0
 10
716.2429305935087
 20
-207.5794053300496
 30
0.0
 10
716.2394854980234
 20
-207.5813001325665
 30
0.0
 10
716.2394854980234
 20
-207.5813001325665
 30
0.0
 10
716.2394854980234
 20
-207.7237548308816
 30
0.0
 10
716.2415525553147
 20
-207.861214140743
 30
0.0
 10
716.2415525553147
 20
-208.002290800864
 30
0.0
 10
716.2415525553147
 20
-208.1435397157593
 30
0.0
 10
716.2394854980234
 20
-208.2808267708465
 30
0.0
 10
716.2394854980234
 20
-208.4231092143873
 30
0.0
 10
716.2394854980234
 20
-208.4231092143873
 30
0.0
 10
716.2429305935087
 20
-208.4250040169042
 30
0.0
 10
716.2436196126058
 20
-208.4251762716784
 30
0.0
 10
716.3421493434839
 20
-224.479493487717
 30
0.0
 10
719.3256020337103
 20
-231.5974052697916
 30
0.0
 10
730.2362194354965
 20
-247.9717718564098
 30
0.0
 10
741.3370061080685
 20
-264.6231241200421
 30
0.0
 10
748.8266436930018
 20
-275.7237385378399
 30
0.0
 10
748.8266436930018
 20
-275.7237385378399
 30
0.0
 10
750.2749618350008
 20
-277.8955267317414
 30
0.0
 10
741.8200084951006
 20
-285.1352226392197
 30
0.0
 10
738.6911727753967
 20
-289.238159107378
 30
0.0
 10
735.5451115782665
 20
-293.340923320762
 30
0.0
 10
728.3055879255626
 20
-303.9621527017873
 30
0.0
 10
723.7291230829567
 20
-304.6859672632382
 30
0.0
 10
719.1354327629246
 20
-305.4101263342378
 30
0.0
 10
713.9002656635389
 20
-303.0237086916052
 30
0.0
 10
711.0036293795408
 20
-293.1293944579677
 30
0.0
 10
707.752837279659
 20
-282.0432494412079
 30
0.0
 10
703.7647947459338
 20
-292.4055798965167
 30
0.0
 10
704.7301105009009
 20
-296.9904852230614
 30
0.0
 10
705.6947372367708
 20
-301.5753905496061
 30
0.0
 10
706.9494410124988
 20
-306.6761989250671
 30
0.0
 10
706.0123750405108
 20
-308.115904328353
 30
0.0
 10
705.07599808762
 20
-309.5549207125418
 30
0.0
 10
695.892751562138
 20
-311.1713595142211
 30
0.0
 10
688.902652822566
 20
-311.6543619012531
 30
0.0
 10
681.8960176246649
 20
-312.1370197787366
 30
0.0
 10
674.9651745274393
 20
-311.929280520976
 30
0.0
 10
675.4481769144713
 20
-315.7908880503926
 30
0.0
 10
675.9304902824063
 20
-319.6524955798091
 30
0.0
 10
682.4548121123725
 20
-319.8936522637766
 30
0.0
 10
687.7637042551424
 20
-319.4109943862931
 30
0.0
 10
693.0732854170095
 20
-318.9283365088096
 30
0.0
 10
698.1327526466474
 20
-316.7562038053596
 30
0.0
 10
698.6302244347174
 20
-318.2041774378101
 30
0.0
 10
699.0980684016145
 20
-319.6524955798091
 30
0.0
 10
691.8613008252986
 20
-322.7895995286776
 30
0.0
 10
686.7990775192725
 20
-325.2025444065466
 30
0.0
 10
681.7223848122084
 20
-327.6158337939641
 30
0.0
 10
676.4134926694384
 20
-330.9944389363486
 30
0.0
 10
678.3441241793723
 20
-333.4077283237662
 30
0.0
 10
680.2747556893063
 20
-335.8210177111836
 30
0.0
 10
684.9635306447313
 20
-334.7499375248195
 30
0.0
 10
689.5413735255313
 20
-332.0954914534345
 30
0.0
 10
694.1343748264665
 20
-329.4407008725009
 30
0.0
 10
700.3128090697135
 20
-326.6508625485457
 30
0.0
 10
701.2781248246805
 20
-327.3746771099966
 30
0.0
 10
702.2434405796475
 20
-328.0984916714476
 30
0.0
 10
694.5939505641987
 20
-336.3308918430006
 30
0.0
 10
692.4138941411327
 20
-338.2622123720317
 30
0.0
 10
690.2503741763958
 20
-340.1935329010627
 30
0.0
 10
686.2719779100292
 20
-342.4762531695893
 30
0.0
 10
688.8254826836965
 20
-345.0965927956703
 30
0.0
 10
690.3757756520589
 20
-346.691672005341
 30
0.0
 10
696.6293129768844
 20
-343.2155706607239
 30
0.0
 10
702.7567598069497
 20
-338.2325845508585
 30
0.0
 10
705.3143986951992
 20
-336.1648382406116
 30
0.0
 10
708.5135143628022
 20
-333.192409855938
 30
0.0
 10
709.4808971750604
 20
-334.1873534320782
 30
0.0
 10
711.4135957422856
 20
-336.1751735270673
 30
0.0
 10
701.4834525156014
 20
-345.8159287329905
 30
0.0
 10
703.9969941816397
 20
-347.6755912759284
 30
0.0
 10
706.2108125404612
 20
-349.3099445741308
 30
0.0
 10
713.0596623651379
 20
-344.5433104607392
 30
0.0
 10
715.006141314304
 20
-339.341905297109
 30
0.0
 10
716.0424260362672
 20
-336.5927190998796
 30
0.0
 10
720.3963377105259
 20
-333.7853107889495
 30
0.0
 10
727.1101397921808
 20
-325.3761772190032
 30
0.0
 10
736.2045028541434
 20
-313.9660209718558
 30
0.0
 10
755.5838539777708
 20
-303.9621527017873
 30
0.0
 10
765.7193248953757
 20
-296.4787162887276
 30
0.0
 10
775.8541067938837
 20
-288.9968301686362
 30
0.0
 10
781.4131128688829
 20
-285.1348781296712
 30
0.0
 10
780.9307995009478
 20
-277.8955267317414
 30
0.0
 10
780.4477971139158
 20
-270.6560030790374
 30
0.0
 10
763.0721135245097
 20
-244.1105088365418
 30
0.0
 10
761.8580618755077
 20
-238.0703951770276
 30
0.0
 10
760.7060219452402
 20
-232.3182915000802
 30
0.0
 10
766.7941946867737
 20
-233.5170124741728
 30
0.0
 10
767.3647024991311
 20
-210.4155801882815
 30
0.0
 10
767.3867511102367
 20
-210.0099201948934
 30
0.0
 10
767.4039765876629
 20
-209.585139921562
 30
0.0
 10
767.4039765876629
 20
-209.1469237758383
 30
0.0
 10
767.4039765876629
 20
-208.760211807619
 30
0.0
 10
767.4005314921777
 20
-208.3793565017246
 30
0.0
 10
767.3963973775953
 20
-208.002290800864
 30
0.0
 10
767.4005314921777
 20
-207.6250528452292
 30
0.0
 10
767.4039765876629
 20
-207.2441975393348
 30
0.0
 10
767.4039765876629
 20
-206.8574855711155
 30
0.0
 10
767.4039765876629
 20
-206.4192694253917
 30
0.0
 10
767.3867511102367
 20
-205.9944891520604
 30
0.0
 10
767.3647024991311
 20
-205.5888291586722
 30
0.0
 10
766.7941946867737
 20
-182.4875691275552
 30
0.0
 10
760.7060219452402
 20
-183.6861178468736
 30
0.0
 10
761.8580618755077
 20
-177.9340141699262
 30
0.0
 10
763.0721135245097
 20
-171.8944172747347
 30
0.0
 10
780.4477971139158
 20
-145.3484062679164
 30
0.0
 10
780.9307995009478
 20
-138.1088826152124
 30
0.0
 10
781.4131128688829
 20
-130.8688421981856
 30
0.0
 10
775.8541067938837
 20
-127.0075791783176
 30
0.0
 10
765.7193248953757
 20
-119.5263820773233
 30
0.0
 10
755.5838539777708
 20
-112.0398450783268
 30
0.0
 10
736.2045028541434
 20
-102.0385606298723
 30
0.0
 10
727.1101397921808
 20
-90.62754310885353
 30
0.0
 10
720.3963377105259
 20
-82.21944306755279
 30
0.0
 10
716.0424260362672
 20
-79.41203475662269
 30
0.0
 10
715.006141314304
 20
-76.661987285522
 30
0.0
 10
713.0596623651379
 20
-71.46196016008591
 30
0.0
 10
706.2108125404612
 20
-66.69412026327439
 30
0.0
 10
703.9969941816397
 20
-68.32881807102544
 30
0.0
  0
POLYLINE
  5
3E
330
1F
100
AcDbEntity
  8
Calque 1
 62
   250
370
    35
100
AcDb2dPolyline
 66
     1
 10
0.0
 20
0.0
 30
0.0
  0
VERTEX
  5
3F
330
3E
100
AcDbEntity
  8
Calque 1
 62
   250
370
    35
100
AcDbVertex
100
AcDb2dVertex
 10
653.6465791551648
 20
-519.4621770619748
 30
0.0
  0
VERTEX
  5
40
330
3E
100
AcDbEntity
  8
Calque 1
 62
   250
370
    35
100
AcDbVertex
100
AcDb2dVertex
 10
647.6097383363615
 20
-468.8206514669963
 30
0.0
  0
VERTEX
  5
41
330
3E
100
AcDbEntity
  8
Calque 1
 62
   250
370
    35
100
AcDbVertex
100
AcDb2dVertex
 10
653.5676864685526
 20
-468.1106172874863
 30
0.0
  0
VERTEX
  5
42
330
3E
100
AcDbEntity
  8
Calque 1
 62
   250
370
    35
100
AcDbVertex
100
AcDb2dVertex
 10
659.6041827778073
 20
-518.7521428824648
 30
0.0
  0
VERTEX
  5
43
330
3E
100
AcDbEntity
  8
Calque 1
 62
   250
370
    35
100
AcDbVertex
100
AcDb2dVertex
 10
653.6465791551648
 20
-519.4621770619748
 30
0.0
  0
SEQEND
  5
44
330
3E
100
AcDbEntity
  8
Calque 1
370
    35
  0
SPLINE
  5
45
330
1F
100
AcDbEntity
  8
Calque 1
 62
   250
370
    35
100
AcDbSpline
210
0.0
220
0.0
230
1.0
 70
    11
 71
     3
 72
   152
 73
   148
 74
     0
 42
0.0000000001
 43
0.0000000001
 40
0.0
 40
0.0
 40
0.0
 40
0.0
 40
1.0
 40
1.0
 40
1.0
 40
2.0
 40
2.0
 40
2.0
 40
3.0
 40
3.0
 40
3.0
 40
4.0
 40
4.0
 40
4.0
 40
5.0
 40
5.0
 40
5.0
 40
6.0
 40
6.0
 40
6.0
 40
7.0
 40
7.0
 40
7.0
 40
8.0
 40
8.0
 40
8.0
 40
9.0
 40
9.0
 40
9.0
 40
10.0
 40
10.0
 40
10.0
 40
11.0
 40
11.0
 40
11.0
 40
12.0
 40
12.0
 40
12.0
 40
13.0
 40
13.0
 40
13.0
 40
14.0
 40
14.0
 40
14.0
 40
15.0
 40
15.0
 40
15.0
 40
16.0
 40
16.0
 40
16.0
 40
17.0
 40
17.0
 40
17.0
 40
18.0
 40
18.0
 40
18.0
 40
19.0
 40
19.0
 40
19.0
 40
20.0
 40
20.0
 40
20.0
 40
21.0
 40
21.0
 40
21.0
 40
22.0
 40
22.0
 40
22.0
 40
23.0
 40
23.0
 40
23.0
 40
24.0
 40
24.0
 40
24.0
 40
25.0
 40
25.0
 40
25.0
 40
26.0
 40
26.0
 40
26.0
 40
27.0
 40
27.0
 40
27.0
 40
28.0
 40
28.0
 40
28.0
 40
29.0
 40
29.0
 40
29.0
 40
30.0
 40
30.0
 40
30.0
 40
31.0
 40
31.0
 40
31.0
 40
32.0
 40
32.0
 40
32.0
 40
33.0
 40
33.0
 40
33.0
 40
34.0
 40
34.0
 40
34.0
 40
35.0
 40
35.0
 40
35.0
 40
36.0
 40
36.0
 40
36.0
 40
37.0
 40
37.0
 40
37.0
 40
38.0
 40
38.0
 40
38.0
 40
39.0
 40
39.0
 40
39.0
 40
40.0
 40
40.0
 40
40.0
 40
41.0
 40
41.0
 40
41.0
 40
42.0
 40
42.0
 40
42.0
 40
43.0
 40
43.0
 40
43.0
 40
44.0
 40
44.0
 40
44.0
 40
45.0
 40
45.0
 40
45.0
 40
46.0
 40
46.0
 40
46.0
 40
47.0
 40
47.0
 40
47.0
 40
48.0
 40
48.0
 40
48.0
 40
49.0
 40
49.0
 40
49.0
 40
49.0
 10
696.9221460931306
 20
-396.8749999007813
 30
0.0
 10
692.2182127175705
 20
-398.0508109898971
 30
0.0
 10
692.4531682296645
 20
-398.0511554994455
 30
0.0
 10
691.2777016500972
 20
-399.2269665885613
 30
0.0
 10
690.1015460514329
 20
-400.4027776776771
 30
0.0
 10
690.1015460514329
 20
-400.4027776776771
 30
0.0
 10
686.5737682745372
 20
-402.9900443870997
 30
0.0
 10
682.8110349855473
 20
-403.4602999208363
 30
0.0
 10
674.3443683209973
 20
-408.163888786848
 30
0.0
 10
669.4054794333431
 20
-409.1047443638697
 30
0.0
 10
664.466590545689
 20
-410.0455999408914
 30
0.0
 10
656.469834905327
 20
-406.9880776977321
 30
0.0
 10
652.472146104243
 20
-412.1622666070289
 30
0.0
 10
648.4737682840621
 20
-417.3361110067771
 30
0.0
 10
653.8832572150014
 20
-423.4511554930955
 30
0.0
 10
653.8832572150014
 20
-423.4511554930955
 30
0.0
 10
653.8832572150014
 20
-423.4511554930955
 30
0.0
 10
647.0626571733038
 20
-432.3880776913822
 30
0.0
 10
648.4737682840621
 20
-440.8547443559322
 30
0.0
 10
649.8848793948205
 20
-449.3214110204822
 30
0.0
 10
656.9487031777768
 20
-451.4590927690797
 30
0.0
 10
655.7642793499479
 20
-451.9083332203563
 30
0.0
 10
648.9443683273473
 20
-454.4955999297789
 30
0.0
 10
631.5411239740592
 20
-460.8455999281914
 30
0.0
 10
609.668901757305
 20
-486.4805554339354
 30
0.0
 10
597.961089260232
 20
-500.2023707516855
 30
0.0
 10
589.4427461634033
 20
-524.1106444002223
 30
0.0
 10
585.6800128744134
 20
-527.4027776459271
 30
0.0
 10
581.9165905663265
 20
-530.6955999107289
 30
0.0
 10
571.0983017235449
 20
-530.2249998674438
 30
0.0
 10
569.2165905695015
 20
-529.2844887999705
 30
0.0
 10
567.3355684345551
 20
-528.3439777324974
 30
0.0
 10
565.6888127926056
 20
-530.930555422823
 30
0.0
 10
555.3404349740122
 20
-524.5805554244105
 30
0.0
 10
544.9927461745157
 20
-518.230555425998
 30
0.0
 10
528.7649684007949
 20
-475.4269665695113
 30
0.0
 10
526.4133462225634
 20
-470.4880776818572
 30
0.0
 10
524.0610350252348
 20
-465.549188794203
 30
0.0
 10
517.4760795147282
 20
-468.8416665494562
 30
0.0
 10
517.4760795147282
 20
-468.8416665494562
 30
0.0
 10
517.4760795147282
 20
-468.8416665494562
 30
0.0
 10
515.5943683606847
 20
-468.1361109940771
 30
0.0
 10
508.3038572947991
 20
-458.2583332187688
 30
0.0
 10
501.0133462289133
 20
-448.3805554434604
 30
0.0
 10
482.1983017457699
 20
-449.0861109988396
 30
0.0
 10
467.1466795707133
 20
-451.9083332203563
 30
0.0
 10
452.0950573956568
 20
-454.7305554418729
 30
0.0
 10
422.2260795385407
 20
-462.9622665943289
 30
0.0
 10
415.4054794968431
 20
-464.3733777050873
 30
0.0
 10
408.5855684742425
 20
-465.7844888158456
 30
0.0
 10
409.0554794984306
 20
-463.4325221280655
 30
0.0
 10
406.2332572769139
 20
-459.9047443511697
 30
0.0
 10
403.4110350553972
 20
-456.3769665742738
 30
0.0
 10
401.5300129204509
 20
-439.5562878675415
 30
0.0
 10
401.7649684325449
 20
-437.6749212230466
 30
0.0
 10
401.9999239446389
 20
-435.7935545785516
 30
0.0
 10
403.6466795865883
 20
-429.2082545584965
 30
0.0
 10
397.2961628238531
 20
-428.5026990031174
 30
0.0
 10
392.579138085449
 20
-427.9786999798109
 30
0.0
 10
392.2745916445529
 20
-442.5731579839748
 30
0.0
 10
392.4296209413891
 20
-450.1158500393808
 30
0.0
 10
392.4296209413891
 20
-450.1158500393808
 30
0.0
 10
386.5357515852237
 20
-450.1158500393808
 30
0.0
 10
386.5357515852237
 20
-450.1158500393808
 30
0.0
 10
386.5357515852237
 20
-450.1158500393808
 30
0.0
 10
386.5357515852237
 20
-570.1157604911516
 30
0.0
 10
386.5357515852237
 20
-570.1157604911516
 30
0.0
 10
386.5357515852237
 20
-570.1157604911516
 30
0.0
 10
392.3317802296081
 20
-570.1157604911516
 30
0.0
 10
392.3317802296081
 20
-570.1157604911516
 30
0.0
 10
392.3317802296081
 20
-570.1157604911516
 30
0.0
 10
392.3317802296081
 20
-576.456458731754
 30
0.0
 10
392.3317802296081
 20
-576.456458731754
 30
0.0
 10
392.4130844830599
 20
-576.747913809806
 30
0.0
 10
392.4999008892883
 20
-576.9418726856256
 30
0.0
 10
392.5922294482929
 20
-577.0269665441114
 30
0.0
 10
395.6494071819037
 20
-579.849188765628
 30
0.0
 10
409.7610350538097
 20
-580.0844887872705
 30
0.0
 10
415.4054794968431
 20
-571.6178221227206
 30
0.0
 10
421.0499239398764
 20
-563.1511554581706
 30
0.0
 10
432.8094128692282
 20
-555.1547443273572
 30
0.0
 10
436.8077906894092
 20
-552.3325221058406
 30
0.0
 10
440.8061685095901
 20
-549.5102998843238
 30
0.0
 10
455.8577906846467
 20
-543.3955999075539
 30
0.0
 10
459.3855684615425
 20
-543.1602998859113
 30
0.0
 10
462.9133462384384
 20
-542.9249998642688
 30
0.0
 10
465.0293238854788
 20
-545.2766220425003
 30
0.0
 10
465.0293238854788
 20
-545.2766220425003
 30
0.0
 10
465.0293238854788
 20
-545.2766220425003
 30
0.0
 10
465.9705239720491
 20
-549.5099553747754
 30
0.0
 10
469.2626572177538
 20
-549.5099553747754
 30
0.0
 10
472.5554794825556
 20
-549.5099553747754
 30
0.0
 10
484.3149684119074
 20
-548.8047443289447
 30
0.0
 10
505.4816350732824
 20
-560.7991887703905
 30
0.0
 10
520.4016546008024
 20
-569.2537976007421
 30
0.0
 10
519.5927461808657
 20
-582.6714109871447
 30
0.0
 10
541.934879421808
 20
-588.0805554085355
 30
0.0
 10
557.572167829357
 20
-591.8663708372765
 30
0.0
 10
580.7404349676622
 20
-589.4916665192937
 30
0.0
 10
583.3277016770847
 20
-589.4916665192937
 30
0.0
 10
585.9149683865074
 20
-589.4916665192937
 30
0.0
 10
588.972146120118
 20
-589.4916665192937
 30
0.0
 10
590.8538572741616
 20
-585.9638887423979
 30
0.0
 10
598.6149683833324
 20
-582.4361109655022
 30
0.0
 10
610.3737682935871
 20
-581.0249998547438
 30
0.0
 10
616.9587238040937
 20
-580.3194442993646
 30
0.0
 10
623.5443683336973
 20
-579.6138887439854
 30
0.0
 10
636.2443683305223
 20
-574.9102998779738
 30
0.0
 10
639.3015460641329
 20
-572.3233776780997
 30
0.0
 10
642.3587237977437
 20
-569.736110968677
 30
0.0
 10
656.7054794365181
 20
-562.915855436528
 30
0.0
 10
660.703168237602
 20
-561.7400443474122
 30
0.0
 10
664.7015460577829
 20
-560.5638887487479
 30
0.0
 10
678.5777016532722
 20
-553.7436332165988
 30
0.0
 10
684.2221460963056
 20
-549.9805554180605
 30
0.0
 10
689.866590539339
 20
-546.217477619522
 30
0.0
 10
696.2165905377515
 20
-543.3955999075539
 30
0.0
 10
701.6253904495937
 20
-536.8102998874988
 30
0.0
 10
707.034879380533
 20
-530.2249998674438
 30
0.0
 10
713.3848793789455
 20
-522.934488801558
 30
0.0
 10
718.0888127545056
 20
-515.4083332044813
 30
0.0
 10
722.7924016205172
 20
-507.8821776074045
 30
0.0
 10
730.5531682201395
 20
-503.1789332509414
 30
0.0
 10
736.4332571943639
 20
-497.063888764623
 30
0.0
 10
742.3126571494913
 20
-490.9488442783045
 30
0.0
 10
742.0777016373972
 20
-489.3027776554521
 30
0.0
 10
743.2531682169645
 20
-485.7749998785563
 30
0.0
 10
744.4293238156288
 20
-482.2472221016604
 30
0.0
 10
749.8388127465681
 20
-474.9567110357747
 30
0.0
 10
752.4253904368937
 20
-467.901155481983
 30
0.0
 10
755.0126571463163
 20
-460.8455999281914
 30
0.0
 10
753.836501547652
 20
-449.0861109988396
 30
0.0
 10
753.1309459922728
 20
-444.6178221544706
 30
0.0
 10
752.4253904368937
 20
-440.149188800553
 30
0.0
 10
753.1309459922728
 20
-438.0325221344155
 30
0.0
 10
752.6610349680848
 20
-427.9194443374646
 30
0.0
 10
752.1904349247997
 20
-417.8063665405137
 30
0.0
 10
744.1943683035348
 20
-409.5749998976063
 30
0.0
 10
738.5499238605014
 20
-404.1658554762155
 30
0.0
 10
732.9054794174681
 20
-398.7567110548247
 30
0.0
 10
726.0848793757705
 20
-398.2861110115396
 30
0.0
 10
722.3221460867807
 20
-397.815855477803
 30
0.0
 10
718.5590682882422
 20
-397.3455999440664
 30
0.0
 10
713.6198348910395
 20
-396.8749999007813
 30
0.0
 10
708.6809460033853
 20
-395.2289332779289
 30
0.0
 10
703.7420571157312
 20
-393.582522145528
 30
0.0
 10
701.6253904495937
 20
-395.6991888116655
 30
0.0
 10
696.9221460931306
 20
-396.8749999007813
 30
0.0
  0
SPLINE
  5
46
330
1F
100
AcDbEntity
  8
Calque 1
 62
   250
370
    35
100
AcDbSpline
210
0.0
220
0.0
230
1.0
 70
    11
 71
     3
 72
    38
 73
    34
 74
     0
 42
0.0000000001
 43
0.0000000001
 40
0.0
 40
0.0
 40
0.0
 40
0.0
 40
1.0
 40
1.0
 40
1.0
 40
2.0
 40
2.0
 40
2.0
 40
3.0
 40
3.0
 40
3.0
 40
4.0
 40
4.0
 40
4.0
 40
5.0
 40
5.0
 40
5.0
 40
6.0
 40
6.0
 40
6.0
 40
7.0
 40
7.0
 40
7.0
 40
8.0
 40
8.0
 40
8.0
 40
9.0
 40
9.0
 40
9.0
 40
10.0
 40
10.0
 40
10.0
 40
11.0
 40
11.0
 40
11.0
 40
11.0
 10
411.8156900012128
 20
-543.1065563963415
 30
0.0
 10
405.4966958621675
 20
-544.8618325460762
 30
0.0
 10
401.986832581795
 20
-538.1921276866326
 30
0.0
 10
401.986832581795
 20
-538.1921276866326
 30
0.0
 10
401.986832581795
 20
-538.1921276866326
 30
0.0
 10
401.986832581795
 20
-497.9978541506742
 30
0.0
 10
401.986832581795
 20
-497.9978541506742
 30
0.0
 10
405.1459851417691
 20
-497.9978541506742
 30
0.0
 10
413.570621641399
 20
-488.8707626816018
 30
0.0
 10
418.8367946001519
 20
-485.53591025188
 30
0.0
 10
424.1022785398078
 20
-482.2010578221581
 30
0.0
 10
449.2011771880469
 20
-485.53591025188
 30
0.0
 10
459.7328340864557
 20
-486.9401311716678
 30
0.0
 10
470.2638019657674
 20
-488.3443520914556
 30
0.0
 10
478.1620278752512
 20
-485.7116101216277
 30
0.0
 10
479.7419486647868
 20
-486.0623208420261
 30
0.0
 10
481.3218694543223
 20
-486.4133760719731
 30
0.0
 10
485.7095430643365
 20
-491.3281492912305
 30
0.0
 10
485.7095430643365
 20
-492.3813149810713
 30
0.0
 10
485.7095430643365
 20
-493.4344806709123
 30
0.0
 10
486.060253784735
 20
-496.9446884608333
 30
0.0
 10
484.8317327346949
 20
-496.9446884608333
 30
0.0
 10
483.6032116846548
 20
-496.9446884608333
 30
0.0
 10
481.496880304973
 20
-500.4552407603029
 30
0.0
 10
481.496880304973
 20
-500.4552407603029
 30
0.0
 10
481.496880304973
 20
-500.4552407603029
 30
0.0
 10
476.0556964955694
 20
-493.9608912610584
 30
0.0
 10
465.34902874651
 20
-493.0834254409653
 30
0.0
 10
454.6423609974506
 20
-492.2059596208721
 30
0.0
 10
447.4462455478607
 20
-502.3858722702369
 30
0.0
 10
439.7230304890276
 20
-514.6724608088319
 30
0.0
 10
431.9998154301945
 20
-526.9587048378784
 30
0.0
 10
418.134684140258
 20
-541.3512802466066
 30
0.0
 10
411.8156900012128
 20
-543.1065563963415
 30
0.0
  0
POLYLINE
  5
47
330
1F
100
AcDbEntity
  8
Calque 1
 62
   250
370
    35
100
AcDb2dPolyline
 66
     1
 10
0.0
 20
0.0
 30
0.0
  0
VERTEX
  5
48
330
47
100
AcDbEntity
  8
Calque 1
 62
   250
370
    35
100
AcDbVertex
100
AcDb2dVertex
 10
108.9607909883848
 20
-519.4621770619748
 30
0.0
  0
VERTEX
  5
49
330
47
100
AcDbEntity
  8
Calque 1
 62
   250
370
    35
100
AcDbVertex
100
AcDb2dVertex
 10
114.9974595524138
 20
-468.8206514669963
 30
0.0
  0
VERTEX
  5
4A
330
47
100
AcDbEntity
  8
Calque 1
 62
   250
370
    35
100
AcDbVertex
100
AcDb2dVertex
 10
109.039683674997
 20
-468.1106172874863
 30
0.0
  0
VERTEX
  5
4B
330
47
100
AcDbEntity
  8
Calque 1
 62
   250
370
    35
100
AcDbVertex
100
AcDb2dVertex
 10
103.003015110968
 20
-518.7521428824648
 30
0.0
  0
VERTEX
  5
4C
330
47
100
AcDbEntity
  8
Calque 1
 62
   250
370
    35
100
AcDbVertex
100
AcDb2dVertex
 10
108.9607909883848
 20
-519.4621770619748
 30
0.0
  0
SEQEND
  5
4D
330
47
100
AcDbEntity
  8
Calque 1
370
    35
  0
SPLINE
  5
4E
330
1F
100
AcDbEntity
  8
Calque 1
 62
   250
370
    35
100
AcDbSpline
210
0.0
220
0.0
230
1.0
 70
    11
 71
     3
 72
   152
 73
   148
 74
     0
 42
0.0000000001
 43
0.0000000001
 40
0.0
 40
0.0
 40
0.0
 40
0.0
 40
1.0
 40
1.0
 40
1.0
 40
2.0
 40
2.0
 40
2.0
 40
3.0
 40
3.0
 40
3.0
 40
4.0
 40
4.0
 40
4.0
 40
5.0
 40
5.0
 40
5.0
 40
6.0
 40
6.0
 40
6.0
 40
7.0
 40
7.0
 40
7.0
 40
8.0
 40
8.0
 40
8.0
 40
9.0
 40
9.0
 40
9.0
 40
10.0
 40
10.0
 40
10.0
 40
11.0
 40
11.0
 40
11.0
 40
12.0
 40
12.0
 40
12.0
 40
13.0
 40
13.0
 40
13.0
 40
14.0
 40
14.0
 40
14.0
 40
15.0
 40
15.0
 40
15.0
 40
16.0
 40
16.0
 40
16.0
 40
17.0
 40
17.0
 40
17.0
 40
18.0
 40
18.0
 40
18.0
 40
19.0
 40
19.0
 40
19.0
 40
20.0
 40
20.0
 40
20.0
 40
21.0
 40
21.0
 40
21.0
 40
22.0
 40
22.0
 40
22.0
 40
23.0
 40
23.0
 40
23.0
 40
24.0
 40
24.0
 40
24.0
 40
25.0
 40
25.0
 40
25.0
 40
26.0
 40
26.0
 40
26.0
 40
27.0
 40
27.0
 40
27.0
 40
28.0
 40
28.0
 40
28.0
 40
29.0
 40
29.0
 40
29.0
 40
30.0
 40
30.0
 40
30.0
 40
31.0
 40
31.0
 40
31.0
 40
32.0
 40
32.0
 40
32.0
 40
33.0
 40
33.0
 40
33.0
 40
34.0
 40
34.0
 40
34.0
 40
35.0
 40
35.0
 40
35.0
 40
36.0
 40
36.0
 40
36.0
 40
37.0
 40
37.0
 40
37.0
 40
38.0
 40
38.0
 40
38.0
 40
39.0
 40
39.0
 40
39.0
 40
40.0
 40
40.0
 40
40.0
 40
41.0
 40
41.0
 40
41.0
 40
42.0
 40
42.0
 40
42.0
 40
43.0
 40
43.0
 40
43.0
 40
44.0
 40
44.0
 40
44.0
 40
45.0
 40
45.0
 40
45.0
 40
46.0
 40
46.0
 40
46.0
 40
47.0
 40
47.0
 40
47.0
 40
48.0
 40
48.0
 40
48.0
 40
49.0
 40
49.0
 40
49.0
 40
49.0
 10
53.92625188538997
 20
-395.2289332779289
 30
0.0
 10
48.9873629977358
 20
-396.8749999007813
 30
0.0
 10
44.04830185530737
 20
-397.3455999440664
 30
0.0
 10
40.28539631154324
 20
-397.815855477803
 30
0.0
 10
36.5224907677791
 20
-398.2861110115396
 30
0.0
 10
29.70206298085574
 20
-398.7567110548247
 30
0.0
 10
24.0576185378224
 20
-404.1658554762155
 30
0.0
 10
18.41317409478907
 20
-409.5749998976063
 30
0.0
 10
10.41676296397567
 20
-417.8063665405137
 30
0.0
 10
9.946507430239068
 20
-427.9194443374646
 30
0.0
 10
9.476251896502465
 20
-438.0325221344155
 30
0.0
 10
10.18180745188163
 20
-440.149188800553
 30
0.0
 10
9.476251896502465
 20
-444.6178221544706
 30
0.0
 10
8.770696341123298
 20
-449.0861109988396
 30
0.0
 10
7.594885252007529
 20
-460.8455999281914
 30
0.0
 10
10.18180745188163
 20
-467.901155481983
 30
0.0
 10
12.76872965175573
 20
-474.9567110357747
 30
0.0
 10
18.17821858269503
 20
-482.2472221016604
 30
0.0
 10
19.3540296718108
 20
-485.7749998785563
 30
0.0
 10
20.52984076092657
 20
-489.3027776554521
 30
0.0
 10
20.29454073928401
 20
-490.9488442783045
 30
0.0
 10
26.1742852039599
 20
-497.063888764623
 30
0.0
 10
32.0540296686358
 20
-503.1789332509414
 30
0.0
 10
39.81496852303237
 20
-507.8821776074045
 30
0.0
 10
44.51872964381823
 20
-515.4083332044813
 30
0.0
 10
49.2224907646041
 20
-522.934488801558
 30
0.0
 10
55.57266301779087
 20
-530.2249998674438
 30
0.0
 10
60.98180743918164
 20
-536.8102998874988
 30
0.0
 10
66.3909518605724
 20
-543.3955999075539
 30
0.0
 10
72.7409518589849
 20
-546.217477619522
 30
0.0
 10
78.38539630201824
 20
-549.9805554180605
 30
0.0
 10
84.02984074505157
 20
-553.7436332165988
 30
0.0
 10
97.90599634054087
 20
-560.5638887487479
 30
0.0
 10
101.9040296511733
 20
-561.7400443474122
 30
0.0
 10
105.9020629618057
 20
-562.915855436528
 30
0.0
 10
120.2484740910316
 20
-569.736110968677
 30
0.0
 10
123.3059963341909
 20
-572.3233776780997
 30
0.0
 10
126.3631740678016
 20
-574.9102998779738
 30
0.0
 10
139.0631740646266
 20
-579.6138887439854
 30
0.0
 10
145.6484740846817
 20
-580.3194442993646
 30
0.0
 10
152.2337741047367
 20
-581.0249998547438
 30
0.0
 10
163.9925740149914
 20
-582.4361109655022
 30
0.0
 10
171.7536851241623
 20
-585.9638887423979
 30
0.0
 10
173.6353962782057
 20
-589.4916665192937
 30
0.0
 10
176.6925740118164
 20
-589.4916665192937
 30
0.0
 10
179.2798407212391
 20
-589.4916665192937
 30
0.0
 10
181.8671074306617
 20
-589.4916665192937
 30
0.0
 10
205.0350300594183
 20
-591.8663708372765
 30
0.0
 10
220.6726629765159
 20
-588.0805554085355
 30
0.0
 10
243.0147962174581
 20
-582.6714109871447
 30
0.0
 10
242.2058877975215
 20
-569.2537976007421
 30
0.0
 10
257.1259073250415
 20
-560.7991887703905
 30
0.0
 10
278.2925739864165
 20
-548.8047443289447
 30
0.0
 10
290.0520629157683
 20
-549.5099553747754
 30
0.0
 10
293.34488518057
 20
-549.5099553747754
 30
0.0
 10
296.6370184262748
 20
-549.5099553747754
 30
0.0
 10
297.5782185128451
 20
-545.2766220425003
 30
0.0
 10
297.5782185128451
 20
-545.2766220425003
 30
0.0
 10
297.5782185128451
 20
-545.2766220425003
 30
0.0
 10
299.6941961598855
 20
-542.9249998642688
 30
0.0
 10
303.2219739367814
 20
-543.1602998859113
 30
0.0
 10
306.7497517136771
 20
-543.3955999075539
 30
0.0
 10
321.8013738887337
 20
-549.5102998843238
 30
0.0
 10
325.7997517089146
 20
-552.3325221058406
 30
0.0
 10
329.7981295290956
 20
-555.1547443273572
 30
0.0
 10
341.5576184584474
 20
-563.1511554581706
 30
0.0
 10
347.2020629014808
 20
-571.6178221227206
 30
0.0
 10
352.8465073445141
 20
-580.0844887872705
 30
0.0
 10
366.9579629616459
 20
-579.849188765628
 30
0.0
 10
370.0151406952567
 20
-577.0269665441114
 30
0.0
 10
370.1074692542613
 20
-576.9418726856256
 30
0.0
 10
370.1942856604896
 20
-576.747913809806
 30
0.0
 10
370.2755899139415
 20
-576.456458731754
 30
0.0
 10
370.2755899139415
 20
-576.456458731754
 30
0.0
 10
370.2755899139415
 20
-570.1157604911516
 30
0.0
 10
370.2755899139415
 20
-570.1157604911516
 30
0.0
 10
370.2755899139415
 20
-570.1157604911516
 30
0.0
 10
376.0716185583258
 20
-570.1157604911516
 30
0.0
 10
376.0716185583258
 20
-570.1157604911516
 30
0.0
 10
376.0716185583258
 20
-570.1157604911516
 30
0.0
 10
376.0716185583258
 20
-450.1158500393808
 30
0.0
 10
376.0716185583258
 20
-450.1158500393808
 30
0.0
 10
376.0716185583258
 20
-450.1158500393808
 30
0.0
 10
370.1777492021604
 20
-450.1158500393808
 30
0.0
 10
370.1777492021604
 20
-450.1158500393808
 30
0.0
 10
370.3327784989967
 20
-442.5731579839748
 30
0.0
 10
370.0282320581006
 20
-427.9786999798109
 30
0.0
 10
365.3112073196965
 20
-428.5026990031174
 30
0.0
 10
358.9608628117355
 20
-429.2082545584965
 30
0.0
 10
360.6076184536849
 20
-435.7935545785516
 30
0.0
 10
360.842573965779
 20
-437.6749212230466
 30
0.0
 10
361.077529477873
 20
-439.5562878675415
 30
0.0
 10
359.1965073429266
 20
-456.3769665742738
 30
0.0
 10
356.3742851214099
 20
-459.9047443511697
 30
0.0
 10
353.5520628998933
 20
-463.4325221280655
 30
0.0
 10
354.0219739240814
 20
-465.7844888158456
 30
0.0
 10
347.2020629014808
 20
-464.3733777050873
 30
0.0
 10
340.3814628597831
 20
-462.9622665943289
 30
0.0
 10
310.512485002667
 20
-454.7305554418729
 30
0.0
 10
295.4608628276105
 20
-451.9083332203563
 30
0.0
 10
280.4092406525539
 20
-449.0861109988396
 30
0.0
 10
261.5941961694105
 20
-448.3805554434604
 30
0.0
 10
254.3036851035248
 20
-458.2583332187688
 30
0.0
 10
247.0131740376391
 20
-468.1361109940771
 30
0.0
 10
245.1314628835956
 20
-468.8416665494562
 30
0.0
 10
245.1314628835956
 20
-468.8416665494562
 30
0.0
 10
245.1314628835956
 20
-468.8416665494562
 30
0.0
 10
238.5461628635406
 20
-465.549188794203
 30
0.0
 10
236.1941961757605
 20
-470.4880776818572
 30
0.0
 10
233.8425739975289
 20
-475.4269665695113
 30
0.0
 10
217.6147962238081
 20
-518.230555425998
 30
0.0
 10
207.2667629147632
 20
-524.5805554244105
 30
0.0
 10
196.9187296057183
 20
-530.930555422823
 30
0.0
 10
195.2719739637688
 20
-528.3439777324974
 30
0.0
 10
193.3906073192739
 20
-529.2844887999705
 30
0.0
 10
191.5092406747789
 20
-530.2249998674438
 30
0.0
 10
180.6906073224489
 20
-530.6955999107289
 30
0.0
 10
176.9275295239105
 20
-527.4027776459271
 30
0.0
 10
173.1647962349206
 20
-524.1106444002223
 30
0.0
 10
164.6461086285433
 20
-500.2023707516855
 30
0.0
 10
152.9386406410188
 20
-486.4805554339354
 30
0.0
 10
131.0664184242646
 20
-460.8455999281914
 30
0.0
 10
113.6628295614281
 20
-454.4955999297789
 30
0.0
 10
106.8429185388275
 20
-451.9083332203563
 30
0.0
 10
105.6588392205471
 20
-451.4590927690797
 30
0.0
 10
112.7226630035034
 20
-449.3214110204822
 30
0.0
 10
114.1337741142617
 20
-440.8547443559322
 30
0.0
 10
115.54488522502
 20
-432.3880776913822
 30
0.0
 10
108.7242851833224
 20
-423.4511554930955
 30
0.0
 10
108.7242851833224
 20
-423.4511554930955
 30
0.0
 10
108.7242851833224
 20
-423.4511554930955
 30
0.0
 10
114.1334296047132
 20
-417.3361110067771
 30
0.0
 10
110.1353962940807
 20
-412.1622666070289
 30
0.0
 10
106.1373629834483
 20
-406.9880776977321
 30
0.0
 10
98.1409518526349
 20
-410.0455999408914
 30
0.0
 10
93.20206296498074
 20
-409.1047443638697
 30
0.0
 10
88.26317407732657
 20
-408.163888786848
 30
0.0
 10
79.79650741277658
 20
-403.4602999208363
 30
0.0
 10
76.03360186901244
 20
-402.9900443870997
 30
0.0
 10
72.5058240921166
 20
-400.4027776776771
 30
0.0
 10
72.50565183734234
 20
-400.4027776776771
 30
0.0
 10
71.32984074822657
 20
-399.2269665885613
 30
0.0
 10
70.1540296591108
 20
-398.0511554994455
 30
0.0
 10
70.38898517120484
 20
-398.0508109898971
 30
0.0
 10
65.68539630519324
 20
-396.8749999007813
 30
0.0
 10
60.98180743918164
 20
-395.6991888116655
 30
0.0
 10
58.86514077304413
 20
-393.582522145528
 30
0.0
 10
53.92625188538997
 20
-395.2289332779289
 30
0.0
  0
SPLINE
  5
4F
330
1F
100
AcDbEntity
  8
Calque 1
 62
   250
370
    35
100
AcDbSpline
210
0.0
220
0.0
230
1.0
 70
    11
 71
     3
 72
    38
 73
    34
 74
     0
 42
0.0000000001
 43
0.0000000001
 40
0.0
 40
0.0
 40
0.0
 40
0.0
 40
1.0
 40
1.0
 40
1.0
 40
2.0
 40
2.0
 40
2.0
 40
3.0
 40
3.0
 40
3.0
 40
4.0
 40
4.0
 40
4.0
 40
5.0
 40
5.0
 40
5.0
 40
6.0
 40
6.0
 40
6.0
 40
7.0
 40
7.0
 40
7.0
 40
8.0
 40
8.0
 40
8.0
 40
9.0
 40
9.0
 40
9.0
 40
10.0
 40
10.0
 40
10.0
 40
11.0
 40
11.0
 40
11.0
 40
11.0
 10
322.8845119092962
 20
-514.6724608088319
 30
0.0
 10
315.1612968504631
 20
-502.3858722702369
 30
0.0
 10
307.9651814008733
 20
-492.2059596208721
 30
0.0
 10
297.2585136518139
 20
-493.0834254409653
 30
0.0
 10
286.5518459027544
 20
-493.9608912610584
 30
0.0
 10
281.1106620933508
 20
-500.4552407603029
 30
0.0
 10
281.1106620933508
 20
-500.4552407603029
 30
0.0
 10
281.1106620933508
 20
-500.4552407603029
 30
0.0
 10
279.0039862041206
 20
-496.9446884608333
 30
0.0
 10
277.7754651540805
 20
-496.9446884608333
 30
0.0
 10
276.5469441040403
 20
-496.9446884608333
 30
0.0
 10
276.8979993339873
 20
-493.4344806709123
 30
0.0
 10
276.8979993339873
 20
-492.3813149810713
 30
0.0
 10
276.8979993339873
 20
-491.3281492912305
 30
0.0
 10
281.2856729440015
 20
-486.4133760719731
 30
0.0
 10
282.8655937335371
 20
-486.0623208420261
 30
0.0
 10
284.4455145230727
 20
-485.7116101216277
 30
0.0
 10
292.3437404325564
 20
-488.3443520914556
 30
0.0
 10
302.8747083118681
 20
-486.9401311716678
 30
0.0
 10
313.4063652102769
 20
-485.53591025188
 30
0.0
 10
338.5052638585161
 20
-482.2010578221581
 30
0.0
 10
343.7707477981719
 20
-485.53591025188
 30
0.0
 10
349.0369207569248
 20
-488.8707626816018
 30
0.0
 10
357.4615572565548
 20
-497.9978541506742
 30
0.0
 10
360.6207098165289
 20
-497.9978541506742
 30
0.0
 10
360.6207098165289
 20
-497.9978541506742
 30
0.0
 10
360.6207098165289
 20
-538.1921276866326
 30
0.0
 10
360.6207098165289
 20
-538.1921276866326
 30
0.0
 10
360.6207098165289
 20
-538.1921276866326
 30
0.0
 10
357.1108465361563
 20
-544.8618325460762
 30
0.0
 10
350.7918523971111
 20
-543.1065563963415
 30
0.0
 10
344.4728582580659
 20
-541.3512802466066
 30
0.0
 10
330.6077269681293
 20
-526.9587048378784
 30
0.0
 10
322.8845119092962
 20
-514.6724608088319
 30
0.0
  0
SPLINE
  5
50
330
1F
100
AcDbEntity
  8
Calque 1
 62
   250
370
    35
100
AcDbSpline
210
0.0
220
0.0
230
1.0
 70
     8
 71
     3
 72
    17
 73
    13
 74
     0
 42
0.0000000001
 43
0.0000000001
 40
0.0
 40
0.0
 40
0.0
 40
0.0
 40
1.0
 40
1.0
 40
1.0
 40
2.0
 40
2.0
 40
2.0
 40
3.0
 40
3.0
 40
3.0
 40
4.0
 40
4.0
 40
4.0
 40
4.0
 10
707.8630803351871
 20
-208.0021185460897
 30
0.0
 10
707.8630803351871
 20
-208.0021185460897
 30
0.0
 10
707.8630803351871
 20
-185.7743624752578
 30
0.0
 10
707.8630803351871
 20
-185.7743624752578
 30
0.0
 10
649.7350177412121
 20
-119.0926445557303
 30
0.0
 10
563.8294947592162
 20
-8.00209553836406
 30
0.0
 10
428.3493922540238
 20
-8.00209553836406
 30
0.0
 10
307.4752888228708
 20
-8.00209553836406
 30
0.0
 10
149.5350585563662
 20
-18.30827093726321
 30
0.0
 10
107.8631835667842
 20
-21.2824218696794
 30
0.0
 10
107.8631835667842
 20
-21.2824218696794
 30
0.0
 10
107.8631835667842
 20
-208.0021185460897
 30
0.0
 10
107.8631835667842
 20
-208.0021185460897
 30
0.0
  0
SPLINE
  5
51
330
1F
100
AcDbEntity
  8
Calque 1
 62
   250
370
    35
100
AcDbSpline
210
0.0
220
0.0
230
1.0
 70
     8
 71
     3
 72
    17
 73
    13
 74
     0
 42
0.0000000001
 43
0.0000000001
 40
0.0
 40
0.0
 40
0.0
 40
0.0
 40
1.0
 40
1.0
 40
1.0
 40
2.0
 40
2.0
 40
2.0
 40
3.0
 40
3.0
 40
3.0
 40
4.0
 40
4.0
 40
4.0
 40
4.0
 10
107.8631835667842
 20
-21.2824218696794
 30
0.0
 10
102.8274874959945
 20
-21.64174532879095
 30
0.0
 10
99.48540036575365
 20
-21.89427082785977
 30
0.0
 10
98.1161471651411
 20
-22.0084757431958
 30
0.0
 10
85.41494138489627
 20
-23.06698133103881
 30
0.0
 10
72.71356334987716
 20
-29.41767034854836
 30
0.0
 10
66.36304658714188
 20
-41.06037054095019
 30
0.0
 10
60.69396971138901
 20
-51.45370685562616
 30
0.0
 10
18.52944606741625
 20
-176.3220539923778
 30
0.0
 10
9.5449815514332
 20
-203.0022514683467
 30
0.0
 10
9.5449815514332
 20
-203.0022514683467
 30
0.0
 10
107.8631835667842
 20
-203.0022514683467
 30
0.0
 10
107.8631835667842
 20
-203.0022514683467
 30
0.0
  0
SPLINE
  5
52
330
1F
100
AcDbEntity
  8
Calque 1
 62
   250
370
    35
100
AcDbSpline
210
0.0
220
0.0
230
1.0
 70
     8
 71
     3
 72
    17
 73
    13
 74
     0
 42
0.0000000001
 43
0.0000000001
 40
0.0
 40
0.0
 40
0.0
 40
0.0
 40
1.0
 40
1.0
 40
1.0
 40
2.0
 40
2.0
 40
2.0
 40
3.0
 40
3.0
 40
3.0
 40
4.0
 40
4.0
 40
4.0
 40
4.0
 10
707.8630803351871
 20
-208.0021185460897
 30
0.0
 10
707.8630803351871
 20
-208.0021185460897
 30
0.0
 10
707.8630803351871
 20
-230.2298746169217
 30
0.0
 10
707.8630803351871
 20
-230.2298746169217
 30
0.0
 10
649.7350177412121
 20
-296.9117647912234
 30
0.0
 10
563.8294947592162
 20
-408.0023138085897
 30
0.0
 10
428.3493922540238
 20
-408.0023138085897
 30
0.0
 10
307.4752888228708
 20
-408.0023138085897
 30
0.0
 10
149.5350585563662
 20
-397.6959661549163
 30
0.0
 10
107.8631835667842
 20
-394.7218152225001
 30
0.0
 10
107.8631835667842
 20
-394.7218152225001
 30
0.0
 10
107.8631835667842
 20
-208.0021185460897
 30
0.0
 10
107.8631835667842
 20
-208.0021185460897
 30
0.0
  0
SPLINE
  5
53
330
1F
100
AcDbEntity
  8
Calque 1
 62
   250
370
    35
100
AcDbSpline
210
0.0
220
0.0
230
1.0
 70
     8
 71
     3
 72
    17
 73
    13
 74
     0
 42
0.0000000001
 43
0.0000000001
 40
0.0
 40
0.0
 40
0.0
 40
0.0
 40
1.0
 40
1.0
 40
1.0
 40
2.0
 40
2.0
 40
2.0
 40
3.0
 40
3.0
 40
3.0
 40
4.0
 40
4.0
 40
4.0
 40
4.0
 10
107.8631835667842
 20
-394.7218152225001
 30
0.0
 10
102.8274874959945
 20
-394.3624917633886
 30
0.0
 10
99.48540036575365
 20
-394.1099662643197
 30
0.0
 10
98.1161471651411
 20
-393.995933603758
 30
0.0
 10
85.41494138489627
 20
-392.9372557611407
 30
0.0
 10
72.71356334987716
 20
-386.5865667436312
 30
0.0
 10
66.36304658714188
 20
-374.9438665512293
 30
0.0
 10
60.69396971138901
 20
-364.5507024913276
 30
0.0
 10
18.52944606741625
 20
-239.6821830998017
 30
0.0
 10
9.5449815514332
 20
-213.0019856238328
 30
0.0
 10
9.5449815514332
 20
-213.0019856238328
 30
0.0
 10
107.8631835667842
 20
-213.0019856238328
 30
0.0
 10
107.8631835667842
 20
-213.0019856238328
 30
0.0
  0
POLYLINE
  5
54
330
1F
100
AcDbEntity
  8
Calque 1
 62
   250
370
    35
100
AcDb2dPolyline
 66
     1
 10
0.0
 20
0.0
 30
0.0
  0
VERTEX
  5
55
330
54
100
AcDbEntity
  8
Calque 1
 62
   250
370
    35
100
AcDbVertex
100
AcDb2dVertex
 10
312.8647961999956
 20
-211.0027967137424
 30
0.0
  0
VERTEX
  5
56
330
54
100
AcDbEntity
  8
Calque 1
 62
   250
370
    35
100
AcDbVertex
100
AcDb2dVertex
 10
192.8648857482248
 20
-211.0027967137424
 30
0.0
  0
VERTEX
  5
57
330
54
100
AcDbEntity
  8
Calque 1
 62
   250
370
    35
100
AcDbVertex
100
AcDb2dVertex
 10
192.8648857482248
 20
-205.0028184166312
 30
0.0
  0
VERTEX
  5
58
330
54
100
AcDbEntity
  8
Calque 1
 62
   250
370
    35
100
AcDbVertex
100
AcDb2dVertex
 10
312.8647961999956
 20
-205.0028184166312
 30
0.0
  0
VERTEX
  5
59
330
54
100
AcDbEntity
  8
Calque 1
 62
   250
370
    35
100
AcDbVertex
100
AcDb2dVertex
 10
312.8647961999956
 20
-211.0027967137424
 30
0.0
  0
SEQEND
  5
5A
330
54
100
AcDbEntity
  8
Calque 1
370
    35
  0
ENDSEC
  0
SECTION
  2
OBJECTS
  0
DICTIONARY
  5
C
330
0
100
AcDbDictionary
281
     1
  3
ACAD_GROUP
350
D
  3
ACAD_LAYOUT
350
1A
  3
ACAD_MLINESTYLE
350
17
  3
ACAD_PLOTSETTINGS
350
19
  3
ACAD_PLOTSTYLENAME
350
E
  3
ACAD_TABLESTYLE
350
5B
  3
ACAD_VISUALSTYLE
350
2A
  0
DICTIONARY
  5
D
102
{ACAD_REACTORS
330
C
102
}
330
C
100
AcDbDictionary
281
     1
  0
DICTIONARY
  5
1A
102
{ACAD_REACTORS
330
C
102
}
330
C
100
AcDbDictionary
281
     1
  3
Layout1
350
1E
  3
Layout2
350
26
  3
Model
350
22
  0
DICTIONARY
  5
17
102
{ACAD_REACTORS
330
C
102
}
330
C
100
AcDbDictionary
281
     1
  3
Standard
350
18
  0
DICTIONARY
  5
19
102
{ACAD_REACTORS
330
C
102
}
330
C
100
AcDbDictionary
281
     1
  0
ACDBDICTIONARYWDFLT
  5
E
102
{ACAD_REACTORS
330
C
102
}
330
C
100
AcDbDictionary
281
     1
  3
Normal
350
F
100
AcDbDictionaryWithDefault
340
F
  0
DICTIONARY
  5
5B
102
{ACAD_REACTORS
330
C
102
}
330
C
100
AcDbDictionary
281
     1
  0
DICTIONARY
  5
2A
102
{ACAD_REACTORS
330
C
102
}
330
C
100
AcDbDictionary
281
     1
  3
2dWireframe
350
2F
  3
3D Hidden
350
31
  3
3dWireframe
350
30
  3
Basic
350
32
  3
Brighten
350
36
  3
ColorChange
350
3A
  3
Conceptual
350
34
  3
Dim
350
35
  3
Facepattern
350
39
  3
Flat
350
2B
  3
FlatWithEdges
350
2C
  3
Gouraud
350
2D
  3
GouraudWithEdges
350
2E
  3
Linepattern
350
38
  3
Realistic
350
33
  3
Thicken
350
37
  0
LAYOUT
  5
1E
102
{ACAD_REACTORS
330
1A
102
}
330
1A
100
AcDbPlotSettings
  1

  2
none_device
  4

  6

 40
0.0
 41
0.0
 42
0.0
 43
0.0
 44
0.0
 45
0.0
 46
0.0
 47
0.0
 48
0.0
 49
0.0
140
0.0
141
0.0
142
1.0
143
1.0
 70
   688
 72
     0
 73
     0
 74
     5
  7

 75
    16
 76
     0
 77
     2
 78
   300
147
1.0
148
0.0
149
0.0
100
AcDbLayout
  1
Layout1
 70
     1
 71
     1
 10
0.0
 20
0.0
 11
12.0
 21
9.0
 12
0.0
 22
0.0
 32
0.0
 14
1.000000000000000E+20
 24
1.000000000000000E+20
 34
1.000000000000000E+20
 15
-1.000000000000000E+20
 25
-1.000000000000000E+20
 35
-1.000000000000000E+20
146
0.0
 13
0.0
 23
0.0
 33
0.0
 16
1.0
 26
0.0
 36
0.0
 17
0.0
 27
1.0
 37
0.0
 76
     0
330
1B
  0
LAYOUT
  5
26
102
{ACAD_REACTORS
330
1A
102
}
330
1A
100
AcDbPlotSettings
  1

  2
none_device
  4

  6

 40
0.0
 41
0.0
 42
0.0
 43
0.0
 44
0.0
 45
0.0
 46
0.0
 47
0.0
 48
0.0
 49
0.0
140
0.0
141
0.0
142
1.0
143
1.0
 70
   688
 72
     0
 73
     0
 74
     5
  7

 75
    16
 76
     0
 77
     2
 78
   300
147
1.0
148
0.0
149
0.0
100
AcDbLayout
  1
Layout2
 70
     1
 71
     2
 10
0.0
 20
0.0
 11
0.0
 21
0.0
 12
0.0
 22
0.0
 32
0.0
 14
0.0
 24
0.0
 34
0.0
 15
0.0
 25
0.0
 35
0.0
146
0.0
 13
0.0
 23
0.0
 33
0.0
 16
1.0
 26
0.0
 36
0.0
 17
0.0
 27
1.0
 37
0.0
 76
     0
330
23
  0
LAYOUT
  5
22
102
{ACAD_REACTORS
330
1A
102
}
330
1A
100
AcDbPlotSettings
  1

  2
none_device
  4

  6

 40
0.0
 41
0.0
 42
0.0
 43
0.0
 44
0.0
 45
0.0
 46
0.0
 47
0.0
 48
0.0
 49
0.0
140
0.0
141
0.0
142
1.0
143
1.0
 70
  1712
 72
     0
 73
     0
 74
     0
  7

 75
     0
 76
     0
 77
     2
 78
   300
147
1.0
148
0.0
149
0.0
100
AcDbLayout
  1
Model
 70
     1
 71
     0
 10
0.0
 20
0.0
 11
12.0
 21
9.0
 12
0.0
 22
0.0
 32
0.0
 14
1.000000000000000E+20
 24
1.000000000000000E+20
 34
1.000000000000000E+20
 15
-1.000000000000000E+20
 25
-1.000000000000000E+20
 35
-1.000000000000000E+20
146
0.0
 13
0.0
 23
0.0
 33
0.0
 16
1.0
 26
0.0
 36
0.0
 17
0.0
 27
1.0
 37
0.0
 76
     0
330
1F
331
29
  0
MLINESTYLE
  5
18
102
{ACAD_REACTORS
330
17
102
}
330
17
100
AcDbMlineStyle
  2
Standard
 70
     0
  3

 62
   256
 51
90.0
 52
90.0
 71
     2
 49
0.5
 62
   256
  6
BYLAYER
 49
-0.5
 62
   256
  6
BYLAYER
  0
ACDBPLACEHOLDER
  5
F
102
{ACAD_REACTORS
330
E
102
}
330
E
  0
VISUALSTYLE
  5
2F
102
{ACAD_REACTORS
330
2A
102
}
330
2A
100
AcDbVisualStyle
  2
2dWireframe
 70
     4
 71
     0
 72
     2
 73
     0
 90
        0
 40
-0.6
 41
-30.0
 62
     5
 63
     7
421
 16777215
 74
     1
 91
        4
 64
     7
 65
   257
 75
     1
175
     1
 42
1.0
 92
        0
 66
   257
 43
1.0
 76
     1
 77
     6
 78
     2
 67
     7
 79
     5
170
     0
171
     0
290
     0
174
     0
 93
        1
 44
0.0
173
     0
291
     0
 45
0.0
1001
ACAD
1000
AcDbSavedByObjectVersion
1070
     0
  0
VISUALSTYLE
  5
31
102
{ACAD_REACTORS
330
2A
102
}
330
2A
100
AcDbVisualStyle
  2
3D Hidden
 70
     6
 71
     1
 72
     2
 73
     2
 90
        0
 40
-0.6
 41
-30.0
 62
     5
 63
     7
421
 16777215
 74
     2
 91
        2
 64
     7
 65
   257
 75
     2
175
     1
 42
40.0
 92
        0
 66
   257
 43
1.0
 76
     1
 77
     6
 78
     2
 67
     7
 79
     3
170
     0
171
     0
290
     0
174
     0
 93
        1
 44
0.0
173
     0
291
     0
 45
0.0
1001
ACAD
1000
AcDbSavedByObjectVersion
1070
     0
  0
VISUALSTYLE
  5
30
102
{ACAD_REACTORS
330
2A
102
}
330
2A
100
AcDbVisualStyle
  2
3dWireframe
 70
     5
 71
     0
 72
     2
 73
     0
 90
        0
 40
-0.6
 41
-30.0
 62
     5
 63
     7
421
 16777215
 74
     1
 91
        4
 64
     7
 65
   257
 75
     1
175
     1
 42
1.0
 92
        0
 66
   257
 43
1.0
 76
     1
 77
     6
 78
     2
 67
     7
 79
     5
170
     0
171
     0
290
     0
174
     0
 93
        1
 44
0.0
173
     0
291
     0
 45
0.0
1001
ACAD
1000
AcDbSavedByObjectVersion
1070
     0
  0
VISUALSTYLE
  5
32
102
{ACAD_REACTORS
330
2A
102
}
330
2A
100
AcDbVisualStyle
  2
Basic
 70
     7
 71
     1
 72
     0
 73
     1
 90
        0
 40
-0.6
 41
-30.0
 62
     5
 63
     7
421
 16777215
 74
     0
 91
        4
 64
     7
 65
   257
 75
     1
175
     1
 42
1.0
 92
        8
 66
     7
 43
1.0
 76
     1
 77
     6
 78
     2
 67
     7
 79
     5
170
     0
171
     0
290
     0
174
     0
 93
        1
 44
0.0
173
     0
291
     1
 45
0.0
1001
ACAD
1000
AcDbSavedByObjectVersion
1070
     0
  0
VISUALSTYLE
  5
36
102
{ACAD_REACTORS
330
2A
102
}
330
2A
100
AcDbVisualStyle
  2
Brighten
 70
    12
 71
     2
 72
     2
 73
     0
 90
        0
 40
-0.6
 41
-30.0
 62
     5
 63
     7
421
 16777215
 74
     1
 91
        4
 64
     7
 65
   257
 75
     1
175
     1
 42
1.0
 92
        8
 66
     7
 43
1.0
 76
     1
 77
     6
 78
     2
 67
     7
 79
     5
170
     0
171
     0
290
     0
174
     0
 93
        1
 44
50.0
173
     0
291
     1
 45
0.0
1001
ACAD
1000
AcDbSavedByObjectVersion
1070
     0
  0
VISUALSTYLE
  5
3A
102
{ACAD_REACTORS
330
2A
102
}
330
2A
100
AcDbVisualStyle
  2
ColorChange
 70
    16
 71
     2
 72
     2
 73
     3
 90
        0
 40
-0.6
 41
-30.0
 62
     5
 63
     8
421
  8421504
 74
     1
 91
        4
 64
     7
 65
   257
 75
     1
175
     1
 42
1.0
 92
        8
 66
     8
424
  8421504
 43
1.0
 76
     1
 77
     6
 78
     2
 67
     7
 79
     5
170
     0
171
     0
290
     0
174
     0
 93
        1
 44
0.0
173
     0
291
     1
 45
0.0
1001
ACAD
1000
AcDbSavedByObjectVersion
1070
     0
  0
VISUALSTYLE
  5
34
102
{ACAD_REACTORS
330
2A
102
}
330
2A
100
AcDbVisualStyle
  2
Conceptual
 70
     9
 71
     3
 72
     2
 73
     0
 90
        0
 40
-0.6
 41
-30.0
 62
     5
 63
     7
421
 16777215
 74
     2
 91
        2
 64
     7
 65
   257
 75
     1
175
     1
 42
40.0
 92
        8
 66
     7
 43
1.0
 76
     1
 77
     6
 78
     2
 67
     7
 79
     3
170
     0
171
     0
290
     0
174
     0
 93
        1
 44
0.0
173
     0
291
     0
 45
0.0
1001
ACAD
1000
AcDbSavedByObjectVersion
1070
     0
  0
VISUALSTYLE
  5
35
102
{ACAD_REACTORS
330
2A
102
}
330
2A
100
AcDbVisualStyle
  2
Dim
 70
    11
 71
     2
 72
     2
 73
     0
 90
        0
 40
-0.6
 41
-30.0
 62
     5
 63
     7
421
 16777215
 74
     1
 91
        4
 64
     7
 65
   257
 75
     1
175
     1
 42
1.0
 92
        8
 66
     7
 43
1.0
 76
     1
 77
     6
 78
     2
 67
     7
 79
     5
170
     0
171
     0
290
     0
174
     0
 93
        1
 44
-50.0
173
     0
291
     1
 45
0.0
1001
ACAD
1000
AcDbSavedByObjectVersion
1070
     0
  0
VISUALSTYLE
  5
39
102
{ACAD_REACTORS
330
2A
102
}
330
2A
100
AcDbVisualStyle
  2
Facepattern
 70
    15
 71
     2
 72
     2
 73
     0
 90
        0
 40
-0.6
 41
-30.0
 62
     5
 63
     7
421
 16777215
 74
     1
 91
        4
 64
     7
 65
   257
 75
     1
175
     1
 42
1.0
 92
        8
 66
     7
 43
1.0
 76
     1
 77
     6
 78
     2
 67
     7
 79
     5
170
     0
171
     0
290
     0
174
     0
 93
        1
 44
0.0
173
     0
291
     1
 45
0.0
1001
ACAD
1000
AcDbSavedByObjectVersion
1070
     0
  0
VISUALSTYLE
  5
2B
102
{ACAD_REACTORS
330
2A
102
}
330
2A
100
AcDbVisualStyle
  2
Flat
 70
     0
 71
     2
 72
     1
 73
     1
 90
        2
 40
-0.6
 41
30.0
 62
     5
 63
     7
421
 16777215
 74
     0
 91
        4
 64
     7
 65
   257
 75
     1
175
     1
 42
1.0
 92
        8
 66
     7
 43
1.0
 76
     1
 77
     6
 78
     2
 67
     7
 79
     5
170
     0
171
     0
290
     0
174
     0
 93
       13
 44
0.0
173
     0
291
     1
 45
0.0
1001
ACAD
1000
AcDbSavedByObjectVersion
1070
     0
  0
VISUALSTYLE
  5
2C
102
{ACAD_REACTORS
330
2A
102
}
330
2A
100
AcDbVisualStyle
  2
FlatWithEdges
 70
     1
 71
     2
 72
     1
 73
     1
 90
        2
 40
-0.6
 41
30.0
 62
     5
 63
     7
421
 16777215
 74
     1
 91
        4
 64
     7
 65
   257
 75
     1
175
     1
 42
1.0
 92
        0
 66
   257
 43
1.0
 76
     1
 77
     6
 78
     2
 67
     7
 79
     5
170
     0
171
     0
290
     0
174
     0
 93
       13
 44
0.0
173
     0
291
     1
 45
0.0
1001
ACAD
1000
AcDbSavedByObjectVersion
1070
     0
  0
VISUALSTYLE
  5
2D
102
{ACAD_REACTORS
330
2A
102
}
330
2A
100
AcDbVisualStyle
  2
Gouraud
 70
     2
 71
     2
 72
     2
 73
     1
 90
        2
 40
-0.6
 41
30.0
 62
     5
 63
     7
421
 16777215
 74
     0
 91
        4
 64
     7
 65
   257
 75
     1
175
     1
 42
1.0
 92
        0
 66
     7
 43
1.0
 76
     1
 77
     6
 78
     2
 67
     7
 79
     5
170
     0
171
     0
290
     0
174
     0
 93
       13
 44
0.0
173
     0
291
     1
 45
0.0
1001
ACAD
1000
AcDbSavedByObjectVersion
1070
     0
  0
VISUALSTYLE
  5
2E
102
{ACAD_REACTORS
330
2A
102
}
330
2A
100
AcDbVisualStyle
  2
GouraudWithEdges
 70
     3
 71
     2
 72
     2
 73
     1
 90
        2
 40
-0.6
 41
30.0
 62
     5
 63
     7
421
 16777215
 74
     1
 91
        4
 64
     7
 65
   257
 75
     1
175
     1
 42
1.0
 92
        0
 66
   257
 43
1.0
 76
     1
 77
     6
 78
     2
 67
     7
 79
     5
170
     0
171
     0
290
     0
174
     0
 93
       13
 44
0.0
173
     0
291
     1
 45
0.0
1001
ACAD
1000
AcDbSavedByObjectVersion
1070
     0
  0
VISUALSTYLE
  5
38
102
{ACAD_REACTORS
330
2A
102
}
330
2A
100
AcDbVisualStyle
  2
Linepattern
 70
    14
 71
     2
 72
     2
 73
     0
 90
        0
 40
-0.6
 41
-30.0
 62
     5
 63
     7
421
 16777215
 74
     1
 91
        4
 64
     7
 65
   257
 75
     7
175
     7
 42
1.0
 92
        8
 66
     7
 43
1.0
 76
     1
 77
     6
 78
     2
 67
     7
 79
     5
170
     0
171
     0
290
     0
174
     0
 93
        1
 44
0.0
173
     0
291
     1
 45
0.0
1001
ACAD
1000
AcDbSavedByObjectVersion
1070
     0
  0
VISUALSTYLE
  5
33
102
{ACAD_REACTORS
330
2A
102
}
330
2A
100
AcDbVisualStyle
  2
Realistic
 70
     8
 71
     2
 72
     2
 73
     0
 90
        0
 40
-0.6
 41
-30.0
 62
     5
 63
     7
421
 16777215
 74
     1
 91
        0
 64
     7
 65
   257
 75
     1
175
     1
 42
1.0
 92
        8
 66
     8
424
  7895160
 43
1.0
 76
     1
 77
     6
 78
     2
 67
     7
 79
     5
170
     0
171
     0
290
     0
174
     0
 93
       13
 44
0.0
173
     0
291
     0
 45
0.0
1001
ACAD
1000
AcDbSavedByObjectVersion
1070
     0
  0
VISUALSTYLE
  5
37
102
{ACAD_REACTORS
330
2A
102
}
330
2A
100
AcDbVisualStyle
  2
Thicken
 70
    13
 71
     2
 72
     2
 73
     0
 90
        0
 40
-0.6
 41
-30.0
 62
     5
 63
     7
421
 16777215
 74
     1
 91
        4
 64
     7
 65
   257
 75
     1
175
     1
 42
1.0
 92
       12
 66
     7
 43
1.0
 76
     1
 77
     6
 78
     2
 67
     7
 79
     5
170
     0
171
     0
290
     0
174
     0
 93
        1
 44
0.0
173
     0
291
     1
 45
0.0
1001
ACAD
1000
AcDbSavedByObjectVersion
1070
     0
  0
ENDSEC
  0
EOF
