  0
SECTION
  2
HEADER
  9
$ACADVER
  1
AC1015
  9
$ACADMAINTVER
 70
     6
  9
$DWGCODEPAGE
  3
ANSI_932
  9
$INSBASE
 10
0.0
 20
0.0
 30
0.0
  9
$EXTMIN
 10
126.18713
 20
288.834394
 30
1.000000E+20
  9
$EXTMAX
 10
174.431041
 20
310.614288
 30
-1.000000E+20
  9
$LIMMIN
 10
126.18713
 20
288.834394
  9
$LIMMAX
 10
174.431041
 20
310.614288
  9
$ORTHOMODE
 70
     0
  9
$REGENMODE
 70
     1
  9
$FILLMODE
 70
     1
  9
$QTEXTMODE
 70
     0
  9
$MIRRTEXT
 70
     1
  9
$LTSCALE
 40
1.0
  9
$ATTMODE
 70
     1
  9
$TEXTSIZE
 40
0.2
  9
$TRACEWID
 40
0.05
  9
$TEXTSTYLE
  7
Standard
  9
$CLAYER
  8
0
  9
$CELTYPE
  6
Continuous
  9
$CECOLOR
 62
   256
  9
$CELTSCALE
 40
1.0
  9
$DISPSILH
 70
     0
  9
$DIMSCALE
 40
1.0
  9
$DIMASZ
 40
0.18
  9
$DIMEXO
 40
0.0625
  9
$DIMDLI
 40
0.38
  9
$DIMRND
 40
0.0
  9
$DIMDLE
 40
0.0
  9
$DIMEXE
 40
0.18
  9
$DIMTP
 40
0.0
  9
$DIMTM
 40
0.0
  9
$DIMTXT
 40
0.18
  9
$DIMCEN
 40
0.09
  9
$DIMTSZ
 40
0.0
  9
$DIMTOL
 70
     0
  9
$DIMLIM
 70
     0
  9
$DIMTIH
 70
     1
  9
$DIMTOH
 70
     1
  9
$DIMSE1
 70
     0
  9
$DIMSE2
 70
     0
  9
$DIMTAD
 70
     0
  9
$DIMZIN
 70
     0
  9
$DIMBLK
  1

  9
$DIMASO
 70
     1
  9
$DIMSHO
 70
     1
  9
$DIMPOST
  1

  9
$DIMAPOST
  1

  9
$DIMALT
 70
     0
  9
$DIMALTD
 70
     2
  9
$DIMALTF
 40
25.4
  9
$DIMLFAC
 40
1.0
  9
$DIMTOFL
 70
     0
  9
$DIMTVP
 40
0.0
  9
$DIMTIX
 70
     0
  9
$DIMSOXD
 70
     0
  9
$DIMSAH
 70
     0
  9
$DIMBLK1
  1

  9
$DIMBLK2
  1

  9
$DIMSTYLE
  2
Standard
  9
$DIMCLRD
 70
     0
  9
$DIMCLRE
 70
     0
  9
$DIMCLRT
 70
     0
  9
$DIMTFAC
 40
1.0
  9
$DIMGAP
 40
0.09
  9
$DIMJUST
 70
     0
  9
$DIMSD1
 70
     0
  9
$DIMSD2
 70
     0
  9
$DIMTOLJ
 70
     1
  9
$DIMTZIN
 70
     0
  9
$DIMALTZ
 70
     0
  9
$DIMALTTZ
 70
     0
  9
$DIMUPT
 70
     0
  9
$DIMDEC
 70
     4
  9
$DIMTDEC
 70
     4
  9
$DIMALTU
 70
     2
  9
$DIMALTTD
 70
     2
  9
$DIMTXSTY
  7
Standard
  9
$DIMAUNIT
 70
     0
  9
$DIMADEC
 70
     0
  9
$DIMALTRND
 40
0.0
  9
$DIMAZIN
 70
     0
  9
$DIMDSEP
 70
     0
  9
$DIMATFIT
 70
     3
  9
$DIMFRAC
 70
     0
  9
$DIMLDRBLK
  1

  9
$DIMLUNIT
 70
     2
  9
$DIMLWD
 70
     0
  9
$DIMLWE
 70
     0
  9
$DIMTMOVE
 70
     0
  9
$LUNITS
 70
     2
  9
$LUPREC
 70
     4
  9
$SKETCHINC
 40
0.1
  9
$FILLETRAD
 40
0.0
  9
$AUNITS
 70
     0
  9
$AUPREC
 70
     0
  9
$MENU
  1
acad
  9
$ELEVATION
 40
0.0
  9
$PELEVATION
 40
0.0
  9
$THICKNESS
 40
0.0
  9
$LIMCHECK
 70
     0
  9
$CHAMFERA
 40
0.0
  9
$CHAMFERB
 40
0.0
  9
$CHAMFERC
 40
0.0
  9
$CHAMFERD
 40
0.0
  9
$SKPOLY
 70
     0
  9
$TDCREATE
 40
0.000000000
  9
$TDUCREATE
 40
0.000000000
  9
$TDUPDATE
 40
0.000000000
  9
$TDUUPDATE
 40
0.000000000
  9
$TDINDWG
 40
0.0000000000
  9
$TDUSRTIMER
 40
0.0000000000
  9
$USRTIMER
 70
     1
  9
$ANGBASE
 50
0.0
  9
$ANGDIR
 70
     0
  9
$PDMODE
 70
     0
  9
$PDSIZE
 40
0.0
  9
$PLINEWID
 40
0.0
  9
$SPLFRAME
 70
     0
  9
$SPLINETYPE
 70
     6
  9
$SPLINESEGS
 70
     8
  9
$HANDSEED
  5
A1
  9
$SURFTAB1
 70
     6
  9
$SURFTAB2
 70
     6
  9
$SURFTYPE
 70
     6
  9
$SURFU
 70
     6
  9
$SURFV
 70
     6
  9
$UCSBASE
  2

  9
$UCSNAME
  2

  9
$UCSORG
 10
0.0
 20
0.0
 30
0.0
  9
$UCSXDIR
 10
1.0
 20
0.0
 30
0.0
  9
$UCSYDIR
 10
0.0
 20
1.0
 30
0.0
  9
$UCSORTHOREF
  2

  9
$UCSORTHOVIEW
 70
     0
  9
$UCSORGTOP
 10
0.0
 20
0.0
 30
0.0
  9
$UCSORGBOTTOM
 10
0.0
 20
0.0
 30
0.0
  9
$UCSORGLEFT
 10
0.0
 20
0.0
 30
0.0
  9
$UCSORGRIGHT
 10
0.0
 20
0.0
 30
0.0
  9
$UCSORGFRONT
 10
0.0
 20
0.0
 30
0.0
  9
$UCSORGBACK
 10
0.0
 20
0.0
 30
0.0
  9
$PUCSBASE
  2

  9
$PUCSNAME
  2

  9
$PUCSORG
 10
0.0
 20
0.0
 30
0.0
  9
$PUCSXDIR
 10
1.0
 20
0.0
 30
0.0
  9
$PUCSYDIR
 10
0.0
 20
1.0
 30
0.0
  9
$PUCSORTHOREF
  2

  9
$PUCSORTHOVIEW
 70
     0
  9
$PUCSORGTOP
 10
0.0
 20
0.0
 30
0.0
  9
$PUCSORGBOTTOM
 10
0.0
 20
0.0
 30
0.0
  9
$PUCSORGLEFT
 10
0.0
 20
0.0
 30
0.0
  9
$PUCSORGRIGHT
 10
0.0
 20
0.0
 30
0.0
  9
$PUCSORGFRONT
 10
0.0
 20
0.0
 30
0.0
  9
$PUCSORGBACK
 10
0.0
 20
0.0
 30
0.0
  9
$USERI1
 70
     0
  9
$USERI2
 70
     0
  9
$USERI3
 70
     0
  9
$USERI4
 70
     0
  9
$USERI5
 70
     0
  9
$USERR1
 40
0.0
  9
$USERR2
 40
0.0
  9
$USERR3
 40
0.0
  9
$USERR4
 40
0.0
  9
$USERR5
 40
0.0
  9
$WORLDVIEW
 70
     1
  9
$SHADEDGE
 70
     3
  9
$SHADEDIF
 70
    70
  9
$TILEMODE
 70
     1
  9
$MAXACTVP
 70
    16
  9
$PINSBASE
 10
0.0
 20
0.0
 30
0.0
  9
$PLIMCHECK
 70
     0
  9
$PEXTMIN
 10
1.000000E+20
 20
1.000000E+20
 30
1.000000E+20
  9
$PEXTMAX
 10
-1.000000E+20
 20
-1.000000E+20
 30
-1.000000E+20
  9
$PLIMMIN
 10
0.0
 20
0.0
  9
$PLIMMAX
 10
12.0
 20
9.0
  9
$UNITMODE
 70
     0
  9
$VISRETAIN
 70
     0
  9
$PLINEGEN
 70
     1
  9
$PSLTSCALE
 70
     0
  9
$TREEDEPTH
 70
  3020
  9
$CMLSTYLE
  2
Standard
  9
$CMLJUST
 70
     0
  9
$CMLSCALE
 40
1.0
  9
$PROXYGRAPHICS
 70
     0
  9
$MEASUREMENT
 70
     1
  9
$CELWEIGHT
370
     0
  9
$ENDCAPS
280
     0
  9
$JOINSTYLE
280
     0
  9
$LWDISPLAY
290
     0
  9
$INSUNITS
 70
     0
  9
$HYPERLINKBASE
  1

  9
$STYLESHEET
  1

  9
$XEDIT
290
     1
  9
$CEPSNTYPE
380
     0
  9
$PSTYLEMODE
290
     1
  9
$FINGERPRINTGUID
  2

  9
$VERSIONGUID
  2

  9
$EXTNAMES
290
     1
  9
$PSVPSCALE
 40
0.0
  0
ENDSEC
  0
SECTION
  2
CLASSES
  0
CLASS
  1
LWPOLYLINE
  2
AcDbPolyline
  3
AutoCAD 2000
 90
    32768
280
     0
281
     1
  0
CLASS
  1
IMAGE
  2
AcDbRasterImage
  3
ISM
 90
    32895
280
     0
281
     1
  0
CLASS
  1
OLE2FRAME
  2
AcDbOle2Frame
  3
AutoCAD 2000
 90
    32768
280
     0
281
     1
  0
CLASS
  1
HATCH
  2
AcDbHatch
  3
AutoCAD 2000
 90
    32768
280
     0
281
     1
  0
CLASS
  1
DICTIONARYVAR
  2
AcDbDictionaryVar
  3
AutoCAD 2000
 90
    32768
280
     0
281
     0
  0
CLASS
  1
RASTERVARIABLES
  2
AcDbRasterVariables
  3
ISM
 90
    32768
280
     0
281
     0
  0
CLASS
  1
IMAGEDEF
  2
AcDbRasterImageDef
  3
ISM
 90
    32768
280
     0
281
     0
  0
CLASS
  1
IMAGEDEF_REACTOR
  2
AcDbRasterImageDefReactor
  3
ISM
 90
    32769
280
     0
281
     0
  0
CLASS
  1
IDBUFFER
  2
AcDbIdBuffer
  3
AutoCAD 2000
 90
    32768
280
     0
281
     0
  0
CLASS
  1
SPATIAL_FILTER
  2
AcDbSpatialFilter
  3
AutoCAD 2000
 90
    32768
280
     0
281
     0
  0
CLASS
  1
XRECORD
  2
AcDbXrecord
  3
AutoCAD 2000
 90
    32768
280
     0
281
     0
  0
CLASS
  1
SORTENTSTABLE
  2
AcDbSortentsTable
  3
AutoCAD 2000
 90
    32768
280
     0
281
     0
  0
CLASS
  1
LAYER_INDEX
  2
AcDbLayerIndex
  3
AutoCAD 2000
 90
    32768
280
     0
281
     0
  0
CLASS
  1
SPATIAL_INDEX
  2
AcDbSpatialIndex
  3
AutoCAD 2000
 90
    32768
280
     0
281
     0
  0
CLASS
  1
OBJECT_PTR
  2
CAseDLPNTableRecord
  3
"ASE-LPNTableRecord"
 90
    32769
280
     0
281
     0
  0
CLASS
  1
LAYOUT
  2
AcDbLayout
  3
AutoCAD 2000
 90
        0
280
     0
281
     0
  0
CLASS
  1
PLOTSETTINGS
  2
AcDbPlotSettings
  3
AutoCAD 2000
 90
    32768
280
     0
281
     0
  0
CLASS
  1
ACDBDICTIONARYWDFLT
  2
AcDbDictionaryWithDefault
  3
AutoCAD 2000
 90
        0
280
     0
281
     0
  0
CLASS
  1
ACDBPLACEHOLDER
  2
AcDbPlaceHolder
  3
AutoCAD 2000
 90
        0
280
     0
281
     0
  0
CLASS
  1
VBA_PROJECT
  2
AcDbVbaProject
  3
acadvba
 90
    32768
280
     0
281
     0
  0
CLASS
  1
WIPEOUT
  2
AcDbWipeout
  3
WipeOut|AutoCAD Express Tool|expresstools@autodesk.com
 90
    32895
280
     0
281
     1
  0
CLASS
  1
WIPEOUTVARIABLES
  2
AcDbWipeoutVariables
  3
WipeOut|AutoCAD Express Tool|expresstools@autodesk.com
 90
        0
280
     0
281
     0
  0
CLASS
  1
RTEXT
  2
RText
  3
RText|AutoCAD Express Tool|expresstools@autodesk.com
 90
    32768
280
     0
281
     1
  0
CLASS
  1
ARCALIGNEDTEXT
  2
AcDbArcAlignedText
  3
ATEXT|AutoCAD Express Tool|expresstools@autodesk.com
 90
    32768
280
     0
281
     1
  0
ENDSEC
  0
SECTION
  2
TABLES
  0
TABLE
  2
VPORT
  5
7
100
AcDbSymbolTable
 70
     1
  0
VPORT
  5
15
100
AcDbSymbolTableRecord
100
AcDbViewportTableRecord
  2
*ACTIVE
 70
     0
 10
0.0
 20
0.0
 11
1.0
 21
1.0
 12
6.591288
 22
4.579184
 13
0.0
 23
0.0
 14
1.0
 24
1.0
 15
0.0
 25
0.0
 16
0.0
 26
0.0
 36
1.0
 17
0.0
 27
0.0
 37
0.0
 40
9.158369
 41
0.688564
 42
50.0
 43
0.0
 44
0.0
 50
0.0
 51
0.0
 71
     0
 72
   100
 73
     1
 74
     1
 75
     0
 76
     0
 77
     0
 78
     0
281
     0
 65
     0
110
0.0
120
0.0
130
0.0
111
1.0
121
0.0
131
0.0
112
0.0
122
1.0
132
0.0
345
0
346
0
 79
     0
146
0.0
  0
ENDTAB
  0
TABLE
  2
LTYPE
  5
4
100
AcDbSymbolTable
 70
     3
  0
LTYPE
  5
11
100
AcDbSymbolTableRecord
100
AcDbLinetypeTableRecord
  2
ByBlock
 70
    64
  3

 72
    65
 73
     0
 40
0.0
  0
LTYPE
  5
12
100
AcDbSymbolTableRecord
100
AcDbLinetypeTableRecord
  2
ByLayer
 70
    64
  3

 72
    65
 73
     0
 40
0.0
  0
LTYPE
  5
13
100
AcDbSymbolTableRecord
100
AcDbLinetypeTableRecord
  2
Continuous
 70
    64
  3
Solid line
 72
    65
 73
     0
 40
0.0
  0
ENDTAB
  0
TABLE
  2
LAYER
  5
2
100
AcDbSymbolTable
 70
     2
  0
LAYER
  5
14
100
AcDbSymbolTableRecord
100
AcDbLayerTableRecord
  2
0
 70
     0
 62
     7
  6
Continuous
290
     1
370
    -3
390
1D
  0
LAYER
  5
28
100
AcDbSymbolTableRecord
100
AcDbLayerTableRecord
  2
CALQUE_1
 70
     0
 62
   160
  6
Continuous
290
     1
370
    -3
390
1D
  0
ENDTAB
  0
TABLE
  2
STYLE
  5
3
100
AcDbSymbolTable
 70
     5
  0
STYLE
  5
17
100
AcDbSymbolTableRecord
100
AcDbTextStyleTableRecord
  2
Standard
 70
     0
 40
0.0
 41
1.0
 50
0.0
 71
     0
 42
0.0
  3
txt
  4

  0
STYLE
  5
24
100
AcDbSymbolTableRecord
100
AcDbTextStyleTableRecord
  2
STD
 70
     0
 40
0.0
 41
1.0
 50
0.0
 71
     0
 42
0.0
  3
txt
  4

  0
STYLE
  5
25
100
AcDbSymbolTableRecord
100
AcDbTextStyleTableRecord
  2
TATESTD
 70
     4
 40
0.0
 41
1.0
 50
0.0
 71
     0
 42
0.0
  3
txt
  4

  0
STYLE
  5
26
100
AcDbSymbolTableRecord
100
AcDbTextStyleTableRecord
  2
KANJISTD
 70
     0
 40
0.0
 41
1.0
 50
0.0
 71
     0
 42
0.0
  3
txt
  4
extfont
  0
STYLE
  5
27
100
AcDbSymbolTableRecord
100
AcDbTextStyleTableRecord
  2
KANJITATE
 70
     4
 40
0.0
 41
1.0
 50
0.0
 71
     0
 42
0.0
  3
txt
  4
extfont
  0
ENDTAB
  0
TABLE
  2
VIEW
  5
5
100
AcDbSymbolTable
 70
     0
  0
ENDTAB
  0
TABLE
  2
UCS
  5
6
100
AcDbSymbolTable
 70
     0
  0
ENDTAB
  0
TABLE
  2
APPID
  5
8
100
AcDbSymbolTable
 70
     1
  0
APPID
  5
16
100
AcDbSymbolTableRecord
100
AcDbRegAppTableRecord
  2
ACAD
 70
     0
  0
ENDTAB
  0
TABLE
  2
DIMSTYLE
  5
9
100
AcDbSymbolTable
 70
     1
100
AcDbDimStyleTable
 71
     0
  0
DIMSTYLE
105
18
100
AcDbSymbolTableRecord
100
AcDbDimStyleTableRecord
  2
Standard
 70
     0
  3

  4

 40
1.0
 41
0.18
 42
0.0625
 43
0.38
 44
0.18
 45
0.0
 46
0.0
 47
0.0
 48
0.0
 71
     0
 72
     0
 73
     1
 74
     1
 75
     0
 76
     0
 77
     0
 78
     0
 79
     0
140
0.18
141
0.09
142
0.0
143
25.4
144
1.0
145
0.0
146
1.0
147
0.09
148
0.0
170
     0
171
     2
172
     0
173
     0
174
     0
175
     0
176
     0
177
     0
178
     0
179
     0
271
     4
272
     4
273
     2
274
     2
275
     0
276
     0
277
     2
278
    46
279
     0
280
     0
281
     0
282
     0
283
     1
284
     0
285
     0
286
     0
288
     0
340
17
341
0
342
0
343
0
344
0
371
    -2
372
    -2
  0
ENDTAB
  0
TABLE
  2
BLOCK_RECORD
  5
1
100
AcDbSymbolTable
 70
    24
  0
BLOCK_RECORD
  5
A
100
AcDbSymbolTableRecord
100
AcDbBlockTableRecord
  2
*MODEL_SPACE
340
20
  0
BLOCK_RECORD
  5
B
100
AcDbSymbolTableRecord
100
AcDbBlockTableRecord
  2
*PAPER_SPACE
340
21
  0
BLOCK_RECORD
  5
29
100
AcDbSymbolTableRecord
100
AcDbBlockTableRecord
  2
AI9-BLK1
340
0
102
{BLKREFS
331
2A
102
}
  0
BLOCK_RECORD
  5
2E
100
AcDbSymbolTableRecord
100
AcDbBlockTableRecord
  2
AI9-BLK2
340
0
102
{BLKREFS
331
2F
102
}
  0
BLOCK_RECORD
  5
33
100
AcDbSymbolTableRecord
100
AcDbBlockTableRecord
  2
AI9-BLK3
340
0
102
{BLKREFS
331
34
102
}
  0
BLOCK_RECORD
  5
38
100
AcDbSymbolTableRecord
100
AcDbBlockTableRecord
  2
AI9-BLK4
340
0
102
{BLKREFS
331
39
102
}
  0
BLOCK_RECORD
  5
3D
100
AcDbSymbolTableRecord
100
AcDbBlockTableRecord
  2
AI9-BLK5
340
0
102
{BLKREFS
331
3E
102
}
  0
BLOCK_RECORD
  5
42
100
AcDbSymbolTableRecord
100
AcDbBlockTableRecord
  2
AI9-BLK6
340
0
102
{BLKREFS
331
43
102
}
  0
BLOCK_RECORD
  5
47
100
AcDbSymbolTableRecord
100
AcDbBlockTableRecord
  2
AI9-BLK7
340
0
102
{BLKREFS
331
48
102
}
  0
BLOCK_RECORD
  5
4C
100
AcDbSymbolTableRecord
100
AcDbBlockTableRecord
  2
AI9-BLK8
340
0
102
{BLKREFS
331
4D
102
}
  0
BLOCK_RECORD
  5
51
100
AcDbSymbolTableRecord
100
AcDbBlockTableRecord
  2
AI9-BLK9
340
0
102
{BLKREFS
331
52
102
}
  0
BLOCK_RECORD
  5
56
100
AcDbSymbolTableRecord
100
AcDbBlockTableRecord
  2
AI9-BLK10
340
0
102
{BLKREFS
331
57
102
}
  0
BLOCK_RECORD
  5
5B
100
AcDbSymbolTableRecord
100
AcDbBlockTableRecord
  2
AI9-BLK11
340
0
102
{BLKREFS
331
5C
102
}
  0
BLOCK_RECORD
  5
60
100
AcDbSymbolTableRecord
100
AcDbBlockTableRecord
  2
AI9-BLK12
340
0
102
{BLKREFS
331
61
102
}
  0
BLOCK_RECORD
  5
65
100
AcDbSymbolTableRecord
100
AcDbBlockTableRecord
  2
AI9-BLK13
340
0
102
{BLKREFS
331
66
102
}
  0
BLOCK_RECORD
  5
6A
100
AcDbSymbolTableRecord
100
AcDbBlockTableRecord
  2
AI9-BLK14
340
0
102
{BLKREFS
331
6B
102
}
  0
BLOCK_RECORD
  5
6F
100
AcDbSymbolTableRecord
100
AcDbBlockTableRecord
  2
AI9-BLK15
340
0
102
{BLKREFS
331
70
102
}
  0
BLOCK_RECORD
  5
74
100
AcDbSymbolTableRecord
100
AcDbBlockTableRecord
  2
AI9-BLK16
340
0
102
{BLKREFS
331
75
102
}
  0
BLOCK_RECORD
  5
79
100
AcDbSymbolTableRecord
100
AcDbBlockTableRecord
  2
AI9-BLK17
340
0
102
{BLKREFS
331
7A
102
}
  0
BLOCK_RECORD
  5
7E
100
AcDbSymbolTableRecord
100
AcDbBlockTableRecord
  2
AI9-BLK18
340
0
102
{BLKREFS
331
7F
102
}
  0
BLOCK_RECORD
  5
83
100
AcDbSymbolTableRecord
100
AcDbBlockTableRecord
  2
AI9-BLK19
340
0
102
{BLKREFS
331
84
102
}
  0
BLOCK_RECORD
  5
88
100
AcDbSymbolTableRecord
100
AcDbBlockTableRecord
  2
AI9-BLK20
340
0
102
{BLKREFS
331
89
102
}
  0
BLOCK_RECORD
  5
8D
100
AcDbSymbolTableRecord
100
AcDbBlockTableRecord
  2
AI9-BLK21
340
0
102
{BLKREFS
331
8E
102
}
  0
BLOCK_RECORD
  5
92
100
AcDbSymbolTableRecord
100
AcDbBlockTableRecord
  2
AI9-BLK22
340
0
102
{BLKREFS
331
93
102
}
  0
BLOCK_RECORD
  5
97
100
AcDbSymbolTableRecord
100
AcDbBlockTableRecord
  2
AI9-BLK23
340
0
102
{BLKREFS
331
98
102
}
  0
BLOCK_RECORD
  5
9C
100
AcDbSymbolTableRecord
100
AcDbBlockTableRecord
  2
AI9-BLK24
340
0
102
{BLKREFS
331
9D
102
}
  0
ENDTAB
  0
ENDSEC
  0
SECTION
  2
BLOCKS
  0
BLOCK
  5
D
100
AcDbEntity
  8
0
100
AcDbBlockBegin
  2
*MODEL_SPACE
 70
     0
 10
0.0
 20
0.0
 30
0.0
  3
*MODEL_SPACE
  1

  0
ENDBLK
  5
E
100
AcDbEntity
  8
0
100
AcDbBlockEnd
  0
BLOCK
  5
F
100
AcDbEntity
 67
     1
  8
0
100
AcDbBlockBegin
  2
*PAPER_SPACE
 70
     0
 10
0.0
 20
0.0
 30
0.0
  3
*PAPER_SPACE
  1

  0
ENDBLK
  5
10
100
AcDbEntity
 67
     1
  8
0
100
AcDbBlockEnd
  0
BLOCK
  5
2B
100
AcDbEntity
  8
CALQUE_1
 62
     7
100
AcDbBlockBegin
  2
AI9-BLK1
 70
     0
 10
0.0
 20
0.0
 30
0.0
  3
AI9-BLK1
  1

  0
SPLINE
  5
2C
100
AcDbEntity
  8
CALQUE_1
 62
     7
100
AcDbSpline
210
0.0
220
0.0
230
1.0
 70
     8
 71
     3
 72
    38
 73
    34
 74
     0
 42
0.00000001
 43
0.00000001
 40
0.0
 40
0.0
 40
0.0
 40
0.0
 40
1.0
 40
1.0
 40
1.0
 40
2.0
 40
2.0
 40
2.0
 40
3.0
 40
3.0
 40
3.0
 40
4.0
 40
4.0
 40
4.0
 40
5.0
 40
5.0
 40
5.0
 40
6.0
 40
6.0
 40
6.0
 40
7.0
 40
7.0
 40
7.0
 40
8.0
 40
8.0
 40
8.0
 40
9.0
 40
9.0
 40
9.0
 40
10.0
 40
10.0
 40
10.0
 40
11.0
 40
11.0
 40
11.0
 40
11.0
 10
-0.3369303385416667
 20
0.9234578450520833
 30
0.0
 10
-0.3369303385416667
 20
0.9234578450520833
 30
0.0
 10
-0.4244357638888889
 20
0.6719658745659721
 30
0.0
 10
-0.4957492404513889
 20
0.4680162217881944
 30
0.0
 10
-0.7121012369791666
 20
0.4631930881076389
 30
0.0
 10
-2.0040120442708331
 20
0.4370103624131944
 30
0.0
 10
-2.0040120442708331
 20
0.4370103624131944
 30
0.0
 10
-2.0040120442708331
 20
0.4370103624131944
 30
0.0
 10
-0.9742730034722221
 20
-0.3436482747395833
 30
0.0
 10
-0.8016737196180555
 20
-0.4745619032118055
 30
0.0
 10
-0.8643744574652778
 20
-0.6819566514756944
 30
0.0
 10
-1.2385118272569444
 20
-1.9187459309895831
 30
0.0
 10
-1.2385118272569444
 20
-1.9187459309895831
 30
0.0
 10
-1.2385118272569444
 20
-1.9187459309895831
 30
0.0
 10
-0.1777669270833333
 20
-1.1808064778645833
 30
0.0
 10
-0.0003445095486111
 20
-1.0567830403645833
 30
0.0
 10
0.1774224175347222
 20
-1.1808064778645833
 30
0.0
 10
1.2381673177083332
 20
-1.9187459309895831
 30
0.0
 10
1.2381673177083332
 20
-1.9187459309895831
 30
0.0
 10
1.2381673177083332
 20
-1.9187459309895831
 30
0.0
 10
0.8640299479166665
 20
-0.6819566514756944
 30
0.0
 10
0.8016737196180555
 20
-0.4745619032118055
 30
0.0
 10
0.9735839843749999
 20
-0.3436482747395833
 30
0.0
 10
2.0040120442708331
 20
0.4370103624131944
 30
0.0
 10
2.0040120442708331
 20
0.4370103624131944
 30
0.0
 10
2.0040120442708331
 20
0.4370103624131944
 30
0.0
 10
0.7114122178819444
 20
0.4631930881076389
 30
0.0
 10
0.4950602213541666
 20
0.4680162217881944
 30
0.0
 10
0.4240912543402777
 20
0.6719658745659721
 30
0.0
 10
-0.0003445095486111
 20
1.8929077148437499
 30
0.0
 10
-0.0003445095486111
 20
1.8929077148437499
 30
0.0
 10
-0.0003445095486111
 20
1.8929077148437499
 30
0.0
 10
-0.3369303385416667
 20
0.9234578450520833
 30
0.0
 10
-0.3369303385416667
 20
0.9234578450520833
 30
0.0
  0
ENDBLK
  5
2D
100
AcDbEntity
  8
CALQUE_1
100
AcDbBlockEnd
  0
BLOCK
  5
30
100
AcDbEntity
  8
CALQUE_1
 62
     7
100
AcDbBlockBegin
  2
AI9-BLK2
 70
     0
 10
0.0
 20
0.0
 30
0.0
  3
AI9-BLK2
  1

  0
SPLINE
  5
31
100
AcDbEntity
  8
CALQUE_1
 62
     7
100
AcDbSpline
210
0.0
220
0.0
230
1.0
 70
     8
 71
     3
 72
    38
 73
    34
 74
     0
 42
0.00000001
 43
0.00000001
 40
0.0
 40
0.0
 40
0.0
 40
0.0
 40
1.0
 40
1.0
 40
1.0
 40
2.0
 40
2.0
 40
2.0
 40
3.0
 40
3.0
 40
3.0
 40
4.0
 40
4.0
 40
4.0
 40
5.0
 40
5.0
 40
5.0
 40
6.0
 40
6.0
 40
6.0
 40
7.0
 40
7.0
 40
7.0
 40
8.0
 40
8.0
 40
8.0
 40
9.0
 40
9.0
 40
9.0
 40
10.0
 40
10.0
 40
10.0
 40
11.0
 40
11.0
 40
11.0
 40
11.0
 10
-0.3367580837673611
 20
0.9234578450520833
 30
0.0
 10
-0.3367580837673611
 20
0.9234578450520833
 30
0.0
 10
-0.4239189995659722
 20
0.6719658745659721
 30
0.0
 10
-0.4955769856770833
 20
0.4680162217881944
 30
0.0
 10
-0.711928982204861
 20
0.4631930881076389
 30
0.0
 10
-2.0038397894965274
 20
0.4370103624131944
 30
0.0
 10
-2.0038397894965274
 20
0.4370103624131944
 30
0.0
 10
-2.0038397894965274
 20
0.4370103624131944
 30
0.0
 10
-0.9737562391493054
 20
-0.3436482747395833
 30
0.0
 10
-0.80150146484375
 20
-0.4745619032118055
 30
0.0
 10
-0.8642022026909721
 20
-0.6819566514756944
 30
0.0
 10
-1.2383395724826387
 20
-1.9187459309895831
 30
0.0
 10
-1.2383395724826387
 20
-1.9187459309895831
 30
0.0
 10
-1.2383395724826387
 20
-1.9187459309895831
 30
0.0
 10
-0.1779391818576389
 20
-1.1808064778645833
 30
0.0
 10
0.0005167643229167
 20
-1.0567830403645833
 30
0.0
 10
0.1779391818576389
 20
-1.1808064778645833
 30
0.0
 10
1.2386840820312499
 20
-1.9187459309895831
 30
0.0
 10
1.2386840820312499
 20
-1.9187459309895831
 30
0.0
 10
1.2386840820312499
 20
-1.9187459309895831
 30
0.0
 10
0.8645467122395832
 20
-0.6816121419270833
 30
0.0
 10
0.80150146484375
 20
-0.4745619032118055
 30
0.0
 10
0.9741007486979166
 20
-0.3436482747395833
 30
0.0
 10
2.0038397894965274
 20
0.4370103624131944
 30
0.0
 10
2.0038397894965274
 20
0.4370103624131944
 30
0.0
 10
2.0038397894965274
 20
0.4370103624131944
 30
0.0
 10
0.711928982204861
 20
0.4631930881076389
 30
0.0
 10
0.4955769856770833
 20
0.4680162217881944
 30
0.0
 10
0.4242635091145833
 20
0.6719658745659721
 30
0.0
 10
0.0005167643229167
 20
1.8929077148437499
 30
0.0
 10
0.0005167643229167
 20
1.8929077148437499
 30
0.0
 10
0.0005167643229167
 20
1.8929077148437499
 30
0.0
 10
-0.3367580837673611
 20
0.9234578450520833
 30
0.0
 10
-0.3367580837673611
 20
0.9234578450520833
 30
0.0
  0
ENDBLK
  5
32
100
AcDbEntity
  8
CALQUE_1
100
AcDbBlockEnd
  0
BLOCK
  5
35
100
AcDbEntity
  8
CALQUE_1
 62
     7
100
AcDbBlockBegin
  2
AI9-BLK3
 70
     0
 10
0.0
 20
0.0
 30
0.0
  3
AI9-BLK3
  1

  0
SPLINE
  5
36
100
AcDbEntity
  8
CALQUE_1
 62
     7
100
AcDbSpline
210
0.0
220
0.0
230
1.0
 70
     8
 71
     3
 72
    38
 73
    34
 74
     0
 42
0.00000001
 43
0.00000001
 40
0.0
 40
0.0
 40
0.0
 40
0.0
 40
1.0
 40
1.0
 40
1.0
 40
2.0
 40
2.0
 40
2.0
 40
3.0
 40
3.0
 40
3.0
 40
4.0
 40
4.0
 40
4.0
 40
5.0
 40
5.0
 40
5.0
 40
6.0
 40
6.0
 40
6.0
 40
7.0
 40
7.0
 40
7.0
 40
8.0
 40
8.0
 40
8.0
 40
9.0
 40
9.0
 40
9.0
 40
10.0
 40
10.0
 40
10.0
 40
11.0
 40
11.0
 40
11.0
 40
11.0
 10
-0.3367580837673611
 20
0.9234578450520833
 30
0.0
 10
-0.3367580837673611
 20
0.9234578450520833
 30
0.0
 10
-0.4239189995659722
 20
0.6719658745659721
 30
0.0
 10
-0.4955769856770833
 20
0.4673272026909722
 30
0.0
 10
-0.7115844726562499
 20
0.4631930881076389
 30
0.0
 10
-2.0038397894965274
 20
0.4370103624131944
 30
0.0
 10
-2.0038397894965274
 20
0.4370103624131944
 30
0.0
 10
-2.0038397894965274
 20
0.4370103624131944
 30
0.0
 10
-0.9741007486979166
 20
-0.3436482747395833
 30
0.0
 10
-0.80150146484375
 20
-0.4745619032118055
 30
0.0
 10
-0.8642022026909721
 20
-0.6819566514756944
 30
0.0
 10
-1.2383395724826387
 20
-1.9187459309895831
 30
0.0
 10
-1.2383395724826387
 20
-1.9187459309895831
 30
0.0
 10
-1.2383395724826387
 20
-1.9187459309895831
 30
0.0
 10
-0.1775946723090278
 20
-1.1808064778645833
 30
0.0
 10
0.0001722547743056
 20
-1.0567830403645833
 30
0.0
 10
0.1779391818576389
 20
-1.1808064778645833
 30
0.0
 10
1.2383395724826387
 20
-1.9187459309895831
 30
0.0
 10
1.2383395724826387
 20
-1.9187459309895831
 30
0.0
 10
1.2383395724826387
 20
-1.9187459309895831
 30
0.0
 10
0.8645467122395832
 20
-0.6819566514756944
 30
0.0
 10
0.80150146484375
 20
-0.4745619032118055
 30
0.0
 10
0.9741007486979166
 20
-0.3436482747395833
 30
0.0
 10
2.0038397894965274
 20
0.4370103624131944
 30
0.0
 10
2.0038397894965274
 20
0.4370103624131944
 30
0.0
 10
2.0038397894965274
 20
0.4370103624131944
 30
0.0
 10
0.711928982204861
 20
0.4631930881076389
 30
0.0
 10
0.4955769856770833
 20
0.4673272026909722
 30
0.0
 10
0.4246080186631944
 20
0.6719658745659721
 30
0.0
 10
0.0001722547743056
 20
1.8929077148437499
 30
0.0
 10
0.0001722547743056
 20
1.8929077148437499
 30
0.0
 10
0.0001722547743056
 20
1.8929077148437499
 30
0.0
 10
-0.3367580837673611
 20
0.9234578450520833
 30
0.0
 10
-0.3367580837673611
 20
0.9234578450520833
 30
0.0
  0
ENDBLK
  5
37
100
AcDbEntity
  8
CALQUE_1
100
AcDbBlockEnd
  0
BLOCK
  5
3A
100
AcDbEntity
  8
CALQUE_1
 62
     7
100
AcDbBlockBegin
  2
AI9-BLK4
 70
     0
 10
0.0
 20
0.0
 30
0.0
  3
AI9-BLK4
  1

  0
SPLINE
  5
3B
100
AcDbEntity
  8
CALQUE_1
 62
     7
100
AcDbSpline
210
0.0
220
0.0
230
1.0
 70
     8
 71
     3
 72
    38
 73
    34
 74
     0
 42
0.00000001
 43
0.00000001
 40
0.0
 40
0.0
 40
0.0
 40
0.0
 40
1.0
 40
1.0
 40
1.0
 40
2.0
 40
2.0
 40
2.0
 40
3.0
 40
3.0
 40
3.0
 40
4.0
 40
4.0
 40
4.0
 40
5.0
 40
5.0
 40
5.0
 40
6.0
 40
6.0
 40
6.0
 40
7.0
 40
7.0
 40
7.0
 40
8.0
 40
8.0
 40
8.0
 40
9.0
 40
9.0
 40
9.0
 40
10.0
 40
10.0
 40
10.0
 40
11.0
 40
11.0
 40
11.0
 40
11.0
 10
-0.3369303385416667
 20
0.9236300998263888
 30
0.0
 10
-0.3369303385416667
 20
0.9236300998263888
 30
0.0
 10
-0.4244357638888889
 20
0.6721381293402777
 30
0.0
 10
-0.4954047309027778
 20
0.4678439670138889
 30
0.0
 10
-0.7121012369791666
 20
0.4633653428819444
 30
0.0
 10
-2.0036675347222221
 20
0.4371826171875
 30
0.0
 10
-2.0036675347222221
 20
0.4371826171875
 30
0.0
 10
-2.0036675347222221
 20
0.4371826171875
 30
0.0
 10
-0.973928493923611
 20
-0.3434760199652778
 30
0.0
 10
-0.8016737196180555
 20
-0.4743896484375
 30
0.0
 10
-0.8643744574652778
 20
-0.6817843967013888
 30
0.0
 10
-1.2385118272569444
 20
-1.9185736762152776
 30
0.0
 10
-1.2385118272569444
 20
-1.9185736762152776
 30
0.0
 10
-1.2385118272569444
 20
-1.9185736762152776
 30
0.0
 10
-0.1781114366319444
 20
-1.1802897135416666
 30
0.0
 10
-0.0003445095486111
 20
-1.0566107855902778
 30
0.0
 10
0.1774224175347222
 20
-1.1802897135416666
 30
0.0
 10
1.237822808159722
 20
-1.9185736762152776
 30
0.0
 10
1.237822808159722
 20
-1.9185736762152776
 30
0.0
 10
1.237822808159722
 20
-1.9185736762152776
 30
0.0
 10
0.8643744574652778
 20
-0.6817843967013888
 30
0.0
 10
0.8013292100694444
 20
-0.4743896484375
 30
0.0
 10
0.9742730034722221
 20
-0.3434760199652778
 30
0.0
 10
2.0036675347222221
 20
0.4371826171875
 30
0.0
 10
2.0036675347222221
 20
0.4371826171875
 30
0.0
 10
2.0036675347222221
 20
0.4371826171875
 30
0.0
 10
0.7114122178819444
 20
0.4633653428819444
 30
0.0
 10
0.4954047309027778
 20
0.4678439670138889
 30
0.0
 10
0.4240912543402777
 20
0.6721381293402777
 30
0.0
 10
-0.0003445095486111
 20
1.8930799696180554
 30
0.0
 10
-0.0003445095486111
 20
1.8930799696180554
 30
0.0
 10
-0.0003445095486111
 20
1.8930799696180554
 30
0.0
 10
-0.3369303385416667
 20
0.9236300998263888
 30
0.0
 10
-0.3369303385416667
 20
0.9236300998263888
 30
0.0
  0
ENDBLK
  5
3C
100
AcDbEntity
  8
CALQUE_1
100
AcDbBlockEnd
  0
BLOCK
  5
3F
100
AcDbEntity
  8
CALQUE_1
 62
     7
100
AcDbBlockBegin
  2
AI9-BLK5
 70
     0
 10
0.0
 20
0.0
 30
0.0
  3
AI9-BLK5
  1

  0
SPLINE
  5
40
100
AcDbEntity
  8
CALQUE_1
 62
     7
100
AcDbSpline
210
0.0
220
0.0
230
1.0
 70
     8
 71
     3
 72
    38
 73
    34
 74
     0
 42
0.00000001
 43
0.00000001
 40
0.0
 40
0.0
 40
0.0
 40
0.0
 40
1.0
 40
1.0
 40
1.0
 40
2.0
 40
2.0
 40
2.0
 40
3.0
 40
3.0
 40
3.0
 40
4.0
 40
4.0
 40
4.0
 40
5.0
 40
5.0
 40
5.0
 40
6.0
 40
6.0
 40
6.0
 40
7.0
 40
7.0
 40
7.0
 40
8.0
 40
8.0
 40
8.0
 40
9.0
 40
9.0
 40
9.0
 40
10.0
 40
10.0
 40
10.0
 40
11.0
 40
11.0
 40
11.0
 40
11.0
 10
-0.3367580837673611
 20
0.9236300998263888
 30
0.0
 10
-0.3367580837673611
 20
0.9236300998263888
 30
0.0
 10
-0.4242635091145833
 20
0.6721381293402777
 30
0.0
 10
-0.4952324761284722
 20
0.4678439670138889
 30
0.0
 10
-0.711928982204861
 20
0.4633653428819444
 30
0.0
 10
-2.0038397894965274
 20
0.4371826171875
 30
0.0
 10
-2.0038397894965274
 20
0.4371826171875
 30
0.0
 10
-2.0038397894965274
 20
0.4371826171875
 30
0.0
 10
-0.9737562391493054
 20
-0.3434760199652778
 30
0.0
 10
-0.80150146484375
 20
-0.4743896484375
 30
0.0
 10
-0.8642022026909721
 20
-0.6817843967013888
 30
0.0
 10
-1.2379950629340277
 20
-1.9185736762152776
 30
0.0
 10
-1.2379950629340277
 20
-1.9185736762152776
 30
0.0
 10
-1.2379950629340277
 20
-1.9185736762152776
 30
0.0
 10
-0.1779391818576389
 20
-1.1802897135416666
 30
0.0
 10
-0.0001722547743056
 20
-1.0566107855902778
 30
0.0
 10
0.1775946723090278
 20
-1.1802897135416666
 30
0.0
 10
1.2379950629340277
 20
-1.9185736762152776
 30
0.0
 10
1.2379950629340277
 20
-1.9185736762152776
 30
0.0
 10
1.2379950629340277
 20
-1.9185736762152776
 30
0.0
 10
0.8645467122395832
 20
-0.6817843967013888
 30
0.0
 10
0.80150146484375
 20
-0.4743896484375
 30
0.0
 10
0.9744452582465277
 20
-0.3434760199652778
 30
0.0
 10
2.0038397894965274
 20
0.4371826171875
 30
0.0
 10
2.0038397894965274
 20
0.4371826171875
 30
0.0
 10
2.0038397894965274
 20
0.4371826171875
 30
0.0
 10
0.711928982204861
 20
0.4633653428819444
 30
0.0
 10
0.4955769856770833
 20
0.4678439670138889
 30
0.0
 10
0.4242635091145833
 20
0.6721381293402777
 30
0.0
 10
-0.0001722547743056
 20
1.8930799696180554
 30
0.0
 10
-0.0001722547743056
 20
1.8930799696180554
 30
0.0
 10
-0.0001722547743056
 20
1.8930799696180554
 30
0.0
 10
-0.3367580837673611
 20
0.9236300998263888
 30
0.0
 10
-0.3367580837673611
 20
0.9236300998263888
 30
0.0
  0
ENDBLK
  5
41
100
AcDbEntity
  8
CALQUE_1
100
AcDbBlockEnd
  0
BLOCK
  5
44
100
AcDbEntity
  8
CALQUE_1
 62
     7
100
AcDbBlockBegin
  2
AI9-BLK6
 70
     0
 10
0.0
 20
0.0
 30
0.0
  3
AI9-BLK6
  1

  0
SPLINE
  5
45
100
AcDbEntity
  8
CALQUE_1
 62
     7
100
AcDbSpline
210
0.0
220
0.0
230
1.0
 70
     8
 71
     3
 72
    38
 73
    34
 74
     0
 42
0.00000001
 43
0.00000001
 40
0.0
 40
0.0
 40
0.0
 40
0.0
 40
1.0
 40
1.0
 40
1.0
 40
2.0
 40
2.0
 40
2.0
 40
3.0
 40
3.0
 40
3.0
 40
4.0
 40
4.0
 40
4.0
 40
5.0
 40
5.0
 40
5.0
 40
6.0
 40
6.0
 40
6.0
 40
7.0
 40
7.0
 40
7.0
 40
8.0
 40
8.0
 40
8.0
 40
9.0
 40
9.0
 40
9.0
 40
10.0
 40
10.0
 40
10.0
 40
11.0
 40
11.0
 40
11.0
 40
11.0
 10
-0.3374471028645833
 20
0.9234578450520833
 30
0.0
 10
-0.3374471028645833
 20
0.9234578450520833
 30
0.0
 10
-0.4246080186631944
 20
0.6719658745659721
 30
0.0
 10
-0.4955769856770833
 20
0.4673272026909722
 30
0.0
 10
-0.711928982204861
 20
0.4631930881076389
 30
0.0
 10
-2.0038397894965274
 20
0.4370103624131944
 30
0.0
 10
-2.0038397894965274
 20
0.4370103624131944
 30
0.0
 10
-2.0038397894965274
 20
0.4370103624131944
 30
0.0
 10
-0.9744452582465277
 20
-0.3436482747395833
 30
0.0
 10
-0.80150146484375
 20
-0.4745619032118055
 30
0.0
 10
-0.8642022026909721
 20
-0.6819566514756944
 30
0.0
 10
-1.2390285915798609
 20
-1.9187459309895831
 30
0.0
 10
-1.2390285915798609
 20
-1.9187459309895831
 30
0.0
 10
-1.2390285915798609
 20
-1.9187459309895831
 30
0.0
 10
-0.1779391818576389
 20
-1.1808064778645833
 30
0.0
 10
-0.0001722547743056
 20
-1.0567830403645833
 30
0.0
 10
0.1775946723090278
 20
-1.1808064778645833
 30
0.0
 10
1.2379950629340277
 20
-1.9187459309895831
 30
0.0
 10
1.2379950629340277
 20
-1.9187459309895831
 30
0.0
 10
1.2379950629340277
 20
-1.9187459309895831
 30
0.0
 10
0.8638576931423611
 20
-0.6819566514756944
 30
0.0
 10
0.80150146484375
 20
-0.4745619032118055
 30
0.0
 10
0.9734117296006943
 20
-0.3436482747395833
 30
0.0
 10
2.0038397894965274
 20
0.4370103624131944
 30
0.0
 10
2.0038397894965274
 20
0.4370103624131944
 30
0.0
 10
2.0038397894965274
 20
0.4370103624131944
 30
0.0
 10
0.7115844726562499
 20
0.4631930881076389
 30
0.0
 10
0.4948879665798611
 20
0.4673272026909722
 30
0.0
 10
0.4242635091145833
 20
0.6719658745659721
 30
0.0
 10
-0.0001722547743056
 20
1.8929077148437499
 30
0.0
 10
-0.0001722547743056
 20
1.8929077148437499
 30
0.0
 10
-0.0001722547743056
 20
1.8929077148437499
 30
0.0
 10
-0.3374471028645833
 20
0.9234578450520833
 30
0.0
 10
-0.3374471028645833
 20
0.9234578450520833
 30
0.0
  0
ENDBLK
  5
46
100
AcDbEntity
  8
CALQUE_1
100
AcDbBlockEnd
  0
BLOCK
  5
49
100
AcDbEntity
  8
CALQUE_1
 62
     7
100
AcDbBlockBegin
  2
AI9-BLK7
 70
     0
 10
0.0
 20
0.0
 30
0.0
  3
AI9-BLK7
  1

  0
SPLINE
  5
4A
100
AcDbEntity
  8
CALQUE_1
 62
     7
100
AcDbSpline
210
0.0
220
0.0
230
1.0
 70
     8
 71
     3
 72
    38
 73
    34
 74
     0
 42
0.00000001
 43
0.00000001
 40
0.0
 40
0.0
 40
0.0
 40
0.0
 40
1.0
 40
1.0
 40
1.0
 40
2.0
 40
2.0
 40
2.0
 40
3.0
 40
3.0
 40
3.0
 40
4.0
 40
4.0
 40
4.0
 40
5.0
 40
5.0
 40
5.0
 40
6.0
 40
6.0
 40
6.0
 40
7.0
 40
7.0
 40
7.0
 40
8.0
 40
8.0
 40
8.0
 40
9.0
 40
9.0
 40
9.0
 40
10.0
 40
10.0
 40
10.0
 40
11.0
 40
11.0
 40
11.0
 40
11.0
 10
-0.3374471028645833
 20
0.9243191189236111
 30
0.0
 10
-0.3374471028645833
 20
0.9243191189236111
 30
0.0
 10
-0.4246080186631944
 20
0.6728271484374999
 30
0.0
 10
-0.4955769856770833
 20
0.4681884765625
 30
0.0
 10
-0.711928982204861
 20
0.4640543619791666
 30
0.0
 10
-2.0038397894965274
 20
0.4371826171875
 30
0.0
 10
-2.0038397894965274
 20
0.4371826171875
 30
0.0
 10
-2.0038397894965274
 20
0.4371826171875
 30
0.0
 10
-0.9744452582465277
 20
-0.3434760199652778
 30
0.0
 10
-0.80150146484375
 20
-0.4740451388888888
 30
0.0
 10
-0.8642022026909721
 20
-0.6810953776041666
 30
0.0
 10
-1.2390285915798609
 20
-1.9185736762152776
 30
0.0
 10
-1.2390285915798609
 20
-1.9185736762152776
 30
0.0
 10
-1.2390285915798609
 20
-1.9185736762152776
 30
0.0
 10
-0.1779391818576389
 20
-1.1802897135416666
 30
0.0
 10
-0.0001722547743056
 20
-1.0566107855902778
 30
0.0
 10
0.1775946723090278
 20
-1.1802897135416666
 30
0.0
 10
1.2379950629340277
 20
-1.9185736762152776
 30
0.0
 10
1.2379950629340277
 20
-1.9185736762152776
 30
0.0
 10
1.2379950629340277
 20
-1.9185736762152776
 30
0.0
 10
0.8638576931423611
 20
-0.6810953776041666
 30
0.0
 10
0.80150146484375
 20
-0.4740451388888888
 30
0.0
 10
0.9734117296006943
 20
-0.3434760199652778
 30
0.0
 10
2.0034952799479164
 20
0.4371826171875
 30
0.0
 10
2.0034952799479164
 20
0.4371826171875
 30
0.0
 10
2.0034952799479164
 20
0.4371826171875
 30
0.0
 10
0.7115844726562499
 20
0.4640543619791666
 30
0.0
 10
0.4948879665798611
 20
0.4681884765625
 30
0.0
 10
0.4242635091145833
 20
0.6728271484374999
 30
0.0
 10
-0.0001722547743056
 20
1.8930799696180554
 30
0.0
 10
-0.0001722547743056
 20
1.8930799696180554
 30
0.0
 10
-0.0001722547743056
 20
1.8930799696180554
 30
0.0
 10
-0.3374471028645833
 20
0.9243191189236111
 30
0.0
 10
-0.3374471028645833
 20
0.9243191189236111
 30
0.0
  0
ENDBLK
  5
4B
100
AcDbEntity
  8
CALQUE_1
100
AcDbBlockEnd
  0
BLOCK
  5
4E
100
AcDbEntity
  8
CALQUE_1
 62
     7
100
AcDbBlockBegin
  2
AI9-BLK8
 70
     0
 10
0.0
 20
0.0
 30
0.0
  3
AI9-BLK8
  1

  0
SPLINE
  5
4F
100
AcDbEntity
  8
CALQUE_1
 62
     7
100
AcDbSpline
210
0.0
220
0.0
230
1.0
 70
     8
 71
     3
 72
    38
 73
    34
 74
     0
 42
0.00000001
 43
0.00000001
 40
0.0
 40
0.0
 40
0.0
 40
0.0
 40
1.0
 40
1.0
 40
1.0
 40
2.0
 40
2.0
 40
2.0
 40
3.0
 40
3.0
 40
3.0
 40
4.0
 40
4.0
 40
4.0
 40
5.0
 40
5.0
 40
5.0
 40
6.0
 40
6.0
 40
6.0
 40
7.0
 40
7.0
 40
7.0
 40
8.0
 40
8.0
 40
8.0
 40
9.0
 40
9.0
 40
9.0
 40
10.0
 40
10.0
 40
10.0
 40
11.0
 40
11.0
 40
11.0
 40
11.0
 10
-0.3367580837673611
 20
0.923543972439236
 30
0.0
 10
-0.3367580837673611
 20
0.923543972439236
 30
0.0
 10
-0.4242635091145833
 20
0.672052001953125
 30
0.0
 10
-0.4952324761284722
 20
0.467413330078125
 30
0.0
 10
-0.711928982204861
 20
0.4632792154947916
 30
0.0
 10
-2.0038397894965274
 20
0.4370964898003472
 30
0.0
 10
-2.0038397894965274
 20
0.4370964898003472
 30
0.0
 10
-2.0038397894965274
 20
0.4370964898003472
 30
0.0
 10
-0.9737562391493054
 20
-0.3435621473524305
 30
0.0
 10
-0.80150146484375
 20
-0.4744757758246527
 30
0.0
 10
-0.8642022026909721
 20
-0.6818705240885417
 30
0.0
 10
-1.2379950629340277
 20
-1.9186598036024305
 30
0.0
 10
-1.2379950629340277
 20
-1.9186598036024305
 30
0.0
 10
-1.2379950629340277
 20
-1.9186598036024305
 30
0.0
 10
-0.1779391818576389
 20
-1.1807203504774304
 30
0.0
 10
-0.0001722547743056
 20
-1.0566969129774304
 30
0.0
 10
0.1775946723090278
 20
-1.1807203504774304
 30
0.0
 10
1.2379950629340277
 20
-1.9186598036024305
 30
0.0
 10
1.2379950629340277
 20
-1.9186598036024305
 30
0.0
 10
1.2379950629340277
 20
-1.9186598036024305
 30
0.0
 10
0.8645467122395832
 20
-0.6818705240885417
 30
0.0
 10
0.80150146484375
 20
-0.4744757758246527
 30
0.0
 10
0.9744452582465277
 20
-0.3435621473524305
 30
0.0
 10
2.0038397894965274
 20
0.4370964898003472
 30
0.0
 10
2.0038397894965274
 20
0.4370964898003472
 30
0.0
 10
2.0038397894965274
 20
0.4370964898003472
 30
0.0
 10
0.711928982204861
 20
0.4632792154947916
 30
0.0
 10
0.4955769856770833
 20
0.467413330078125
 30
0.0
 10
0.4242635091145833
 20
0.672052001953125
 30
0.0
 10
-0.0001722547743056
 20
1.8929938422309025
 30
0.0
 10
-0.0001722547743056
 20
1.8929938422309025
 30
0.0
 10
-0.0001722547743056
 20
1.8929938422309025
 30
0.0
 10
-0.3367580837673611
 20
0.923543972439236
 30
0.0
 10
-0.3367580837673611
 20
0.923543972439236
 30
0.0
  0
ENDBLK
  5
50
100
AcDbEntity
  8
CALQUE_1
100
AcDbBlockEnd
  0
BLOCK
  5
53
100
AcDbEntity
  8
CALQUE_1
 62
     7
100
AcDbBlockBegin
  2
AI9-BLK9
 70
     0
 10
0.0
 20
0.0
 30
0.0
  3
AI9-BLK9
  1

  0
SPLINE
  5
54
100
AcDbEntity
  8
CALQUE_1
 62
     7
100
AcDbSpline
210
0.0
220
0.0
230
1.0
 70
     8
 71
     3
 72
    38
 73
    34
 74
     0
 42
0.00000001
 43
0.00000001
 40
0.0
 40
0.0
 40
0.0
 40
0.0
 40
1.0
 40
1.0
 40
1.0
 40
2.0
 40
2.0
 40
2.0
 40
3.0
 40
3.0
 40
3.0
 40
4.0
 40
4.0
 40
4.0
 40
5.0
 40
5.0
 40
5.0
 40
6.0
 40
6.0
 40
6.0
 40
7.0
 40
7.0
 40
7.0
 40
8.0
 40
8.0
 40
8.0
 40
9.0
 40
9.0
 40
9.0
 40
10.0
 40
10.0
 40
10.0
 40
11.0
 40
11.0
 40
11.0
 40
11.0
 10
-0.3367580837673611
 20
0.923543972439236
 30
0.0
 10
-0.3367580837673611
 20
0.923543972439236
 30
0.0
 10
-0.4239189995659722
 20
0.672052001953125
 30
0.0
 10
-0.4952324761284722
 20
0.467413330078125
 30
0.0
 10
-0.711928982204861
 20
0.4632792154947916
 30
0.0
 10
-2.0038397894965274
 20
0.4370964898003472
 30
0.0
 10
-2.0038397894965274
 20
0.4370964898003472
 30
0.0
 10
-2.0038397894965274
 20
0.4370964898003472
 30
0.0
 10
-0.9737562391493054
 20
-0.3435621473524305
 30
0.0
 10
-0.8011569552951389
 20
-0.4744757758246527
 30
0.0
 10
-0.8638576931423611
 20
-0.6818705240885417
 30
0.0
 10
-1.2379950629340277
 20
-1.9186598036024305
 30
0.0
 10
-1.2379950629340277
 20
-1.9186598036024305
 30
0.0
 10
-1.2379950629340277
 20
-1.9186598036024305
 30
0.0
 10
-0.1775946723090278
 20
-1.1807203504774304
 30
0.0
 10
0.0001722547743056
 20
-1.0566969129774304
 30
0.0
 10
0.1779391818576389
 20
-1.1807203504774304
 30
0.0
 10
1.2386840820312499
 20
-1.9186598036024305
 30
0.0
 10
1.2386840820312499
 20
-1.9186598036024305
 30
0.0
 10
1.2386840820312499
 20
-1.9186598036024305
 30
0.0
 10
0.8642022026909721
 20
-0.6818705240885417
 30
0.0
 10
0.80150146484375
 20
-0.4744757758246527
 30
0.0
 10
0.9741007486979166
 20
-0.3435621473524305
 30
0.0
 10
2.0038397894965274
 20
0.4370964898003472
 30
0.0
 10
2.0038397894965274
 20
0.4370964898003472
 30
0.0
 10
2.0038397894965274
 20
0.4370964898003472
 30
0.0
 10
0.7122734917534722
 20
0.4632792154947916
 30
0.0
 10
0.4955769856770833
 20
0.467413330078125
 30
0.0
 10
0.4246080186631944
 20
0.672052001953125
 30
0.0
 10
0.0001722547743056
 20
1.8929938422309025
 30
0.0
 10
0.0001722547743056
 20
1.8929938422309025
 30
0.0
 10
0.0001722547743056
 20
1.8929938422309025
 30
0.0
 10
-0.3367580837673611
 20
0.923543972439236
 30
0.0
 10
-0.3367580837673611
 20
0.923543972439236
 30
0.0
  0
ENDBLK
  5
55
100
AcDbEntity
  8
CALQUE_1
100
AcDbBlockEnd
  0
BLOCK
  5
58
100
AcDbEntity
  8
CALQUE_1
 62
     7
100
AcDbBlockBegin
  2
AI9-BLK10
 70
     0
 10
0.0
 20
0.0
 30
0.0
  3
AI9-BLK10
  1

  0
SPLINE
  5
59
100
AcDbEntity
  8
CALQUE_1
 62
     7
100
AcDbSpline
210
0.0
220
0.0
230
1.0
 70
     8
 71
     3
 72
    38
 73
    34
 74
     0
 42
0.00000001
 43
0.00000001
 40
0.0
 40
0.0
 40
0.0
 40
0.0
 40
1.0
 40
1.0
 40
1.0
 40
2.0
 40
2.0
 40
2.0
 40
3.0
 40
3.0
 40
3.0
 40
4.0
 40
4.0
 40
4.0
 40
5.0
 40
5.0
 40
5.0
 40
6.0
 40
6.0
 40
6.0
 40
7.0
 40
7.0
 40
7.0
 40
8.0
 40
8.0
 40
8.0
 40
9.0
 40
9.0
 40
9.0
 40
10.0
 40
10.0
 40
10.0
 40
11.0
 40
11.0
 40
11.0
 40
11.0
 10
-0.3369303385416667
 20
0.9234578450520833
 30
0.0
 10
-0.3369303385416667
 20
0.9234578450520833
 30
0.0
 10
-0.4247802734375
 20
0.6719658745659721
 30
0.0
 10
-0.4954047309027778
 20
0.4676717122395833
 30
0.0
 10
-0.7121012369791666
 20
0.4631930881076389
 30
0.0
 10
-2.0036675347222221
 20
0.4370103624131944
 30
0.0
 10
-2.0036675347222221
 20
0.4370103624131944
 30
0.0
 10
-2.0036675347222221
 20
0.4370103624131944
 30
0.0
 10
-0.973928493923611
 20
-0.3436482747395833
 30
0.0
 10
-0.8016737196180555
 20
-0.4745619032118055
 30
0.0
 10
-0.8643744574652778
 20
-0.6819566514756944
 30
0.0
 10
-1.2385118272569444
 20
-1.9187459309895831
 30
0.0
 10
-1.2385118272569444
 20
-1.9187459309895831
 30
0.0
 10
-1.2385118272569444
 20
-1.9187459309895831
 30
0.0
 10
-0.1774224175347222
 20
-1.1808064778645833
 30
0.0
 10
-0.0003445095486111
 20
-1.0567830403645833
 30
0.0
 10
0.1774224175347222
 20
-1.1808064778645833
 30
0.0
 10
1.2385118272569444
 20
-1.9187459309895831
 30
0.0
 10
1.2385118272569444
 20
-1.9187459309895831
 30
0.0
 10
1.2385118272569444
 20
-1.9187459309895831
 30
0.0
 10
0.8643744574652778
 20
-0.6819566514756944
 30
0.0
 10
0.8013292100694444
 20
-0.4745619032118055
 30
0.0
 10
0.973928493923611
 20
-0.3436482747395833
 30
0.0
 10
2.0036675347222221
 20
0.4370103624131944
 30
0.0
 10
2.0036675347222221
 20
0.4370103624131944
 30
0.0
 10
2.0036675347222221
 20
0.4370103624131944
 30
0.0
 10
0.7114122178819444
 20
0.4631930881076389
 30
0.0
 10
0.4954047309027778
 20
0.4676717122395833
 30
0.0
 10
0.4240912543402777
 20
0.6719658745659721
 30
0.0
 10
-0.0003445095486111
 20
1.8929077148437499
 30
0.0
 10
-0.0003445095486111
 20
1.8929077148437499
 30
0.0
 10
-0.0003445095486111
 20
1.8929077148437499
 30
0.0
 10
-0.3369303385416667
 20
0.9234578450520833
 30
0.0
 10
-0.3369303385416667
 20
0.9234578450520833
 30
0.0
  0
ENDBLK
  5
5A
100
AcDbEntity
  8
CALQUE_1
100
AcDbBlockEnd
  0
BLOCK
  5
5D
100
AcDbEntity
  8
CALQUE_1
 62
     7
100
AcDbBlockBegin
  2
AI9-BLK11
 70
     0
 10
0.0
 20
0.0
 30
0.0
  3
AI9-BLK11
  1

  0
SPLINE
  5
5E
100
AcDbEntity
  8
CALQUE_1
 62
     7
100
AcDbSpline
210
0.0
220
0.0
230
1.0
 70
     8
 71
     3
 72
    38
 73
    34
 74
     0
 42
0.00000001
 43
0.00000001
 40
0.0
 40
0.0
 40
0.0
 40
0.0
 40
1.0
 40
1.0
 40
1.0
 40
2.0
 40
2.0
 40
2.0
 40
3.0
 40
3.0
 40
3.0
 40
4.0
 40
4.0
 40
4.0
 40
5.0
 40
5.0
 40
5.0
 40
6.0
 40
6.0
 40
6.0
 40
7.0
 40
7.0
 40
7.0
 40
8.0
 40
8.0
 40
8.0
 40
9.0
 40
9.0
 40
9.0
 40
10.0
 40
10.0
 40
10.0
 40
11.0
 40
11.0
 40
11.0
 40
11.0
 10
-0.3371025933159722
 20
0.9234578450520833
 30
0.0
 10
-0.3371025933159722
 20
0.9234578450520833
 30
0.0
 10
-0.4246080186631944
 20
0.6719658745659721
 30
0.0
 10
-0.4955769856770833
 20
0.4680162217881944
 30
0.0
 10
-0.711928982204861
 20
0.4631930881076389
 30
0.0
 10
-2.0038397894965274
 20
0.4370103624131944
 30
0.0
 10
-2.0038397894965274
 20
0.4370103624131944
 30
0.0
 10
-2.0038397894965274
 20
0.4370103624131944
 30
0.0
 10
-0.9741007486979166
 20
-0.3436482747395833
 30
0.0
 10
-0.80150146484375
 20
-0.4745619032118055
 30
0.0
 10
-0.8642022026909721
 20
-0.6816121419270833
 30
0.0
 10
-1.2390285915798609
 20
-1.9187459309895831
 30
0.0
 10
-1.2390285915798609
 20
-1.9187459309895831
 30
0.0
 10
-1.2390285915798609
 20
-1.9187459309895831
 30
0.0
 10
-0.1779391818576389
 20
-1.1808064778645833
 30
0.0
 10
-0.0001722547743056
 20
-1.0567830403645833
 30
0.0
 10
0.1775946723090278
 20
-1.1808064778645833
 30
0.0
 10
1.2379950629340277
 20
-1.9187459309895831
 30
0.0
 10
1.2379950629340277
 20
-1.9187459309895831
 30
0.0
 10
1.2379950629340277
 20
-1.9187459309895831
 30
0.0
 10
0.8638576931423611
 20
-0.6816121419270833
 30
0.0
 10
0.80150146484375
 20
-0.4745619032118055
 30
0.0
 10
0.9741007486979166
 20
-0.3436482747395833
 30
0.0
 10
2.0038397894965274
 20
0.4370103624131944
 30
0.0
 10
2.0038397894965274
 20
0.4370103624131944
 30
0.0
 10
2.0038397894965274
 20
0.4370103624131944
 30
0.0
 10
0.7115844726562499
 20
0.4631930881076389
 30
0.0
 10
0.4952324761284722
 20
0.4680162217881944
 30
0.0
 10
0.4242635091145833
 20
0.6719658745659721
 30
0.0
 10
-0.0001722547743056
 20
1.8929077148437499
 30
0.0
 10
-0.0001722547743056
 20
1.8929077148437499
 30
0.0
 10
-0.0001722547743056
 20
1.8929077148437499
 30
0.0
 10
-0.3371025933159722
 20
0.9234578450520833
 30
0.0
 10
-0.3371025933159722
 20
0.9234578450520833
 30
0.0
  0
ENDBLK
  5
5F
100
AcDbEntity
  8
CALQUE_1
100
AcDbBlockEnd
  0
BLOCK
  5
62
100
AcDbEntity
  8
CALQUE_1
 62
     7
100
AcDbBlockBegin
  2
AI9-BLK12
 70
     0
 10
0.0
 20
0.0
 30
0.0
  3
AI9-BLK12
  1

  0
SPLINE
  5
63
100
AcDbEntity
  8
CALQUE_1
 62
     7
100
AcDbSpline
210
0.0
220
0.0
230
1.0
 70
     8
 71
     3
 72
    38
 73
    34
 74
     0
 42
0.00000001
 43
0.00000001
 40
0.0
 40
0.0
 40
0.0
 40
0.0
 40
1.0
 40
1.0
 40
1.0
 40
2.0
 40
2.0
 40
2.0
 40
3.0
 40
3.0
 40
3.0
 40
4.0
 40
4.0
 40
4.0
 40
5.0
 40
5.0
 40
5.0
 40
6.0
 40
6.0
 40
6.0
 40
7.0
 40
7.0
 40
7.0
 40
8.0
 40
8.0
 40
8.0
 40
9.0
 40
9.0
 40
9.0
 40
10.0
 40
10.0
 40
10.0
 40
11.0
 40
11.0
 40
11.0
 40
11.0
 10
-0.3369303385416667
 20
0.9237162272135416
 30
0.0
 10
-0.3369303385416667
 20
0.9237162272135416
 30
0.0
 10
-0.4244357638888889
 20
0.6722242567274305
 30
0.0
 10
-0.4957492404513889
 20
0.4675855848524305
 30
0.0
 10
-0.7121012369791666
 20
0.4634514702690972
 30
0.0
 10
-2.0040120442708331
 20
0.4372687445746528
 30
0.0
 10
-2.0040120442708331
 20
0.4372687445746528
 30
0.0
 10
-2.0040120442708331
 20
0.4372687445746528
 30
0.0
 10
-0.9742730034722221
 20
-0.343389892578125
 30
0.0
 10
-0.8016737196180555
 20
-0.4743035210503472
 30
0.0
 10
-0.8643744574652778
 20
-0.6816982693142361
 30
0.0
 10
-1.2385118272569444
 20
-1.9184875488281248
 30
0.0
 10
-1.2385118272569444
 20
-1.9184875488281248
 30
0.0
 10
-1.2385118272569444
 20
-1.9184875488281248
 30
0.0
 10
-0.1777669270833333
 20
-1.1805480957031249
 30
0.0
 10
-0.0003445095486111
 20
-1.0568691677517361
 30
0.0
 10
0.1774224175347222
 20
-1.1805480957031249
 30
0.0
 10
1.2381673177083332
 20
-1.9184875488281248
 30
0.0
 10
1.2381673177083332
 20
-1.9184875488281248
 30
0.0
 10
1.2381673177083332
 20
-1.9184875488281248
 30
0.0
 10
0.8640299479166665
 20
-0.6816982693142361
 30
0.0
 10
0.8016737196180555
 20
-0.4743035210503472
 30
0.0
 10
0.9735839843749999
 20
-0.343389892578125
 30
0.0
 10
2.0040120442708331
 20
0.4372687445746528
 30
0.0
 10
2.0040120442708331
 20
0.4372687445746528
 30
0.0
 10
2.0040120442708331
 20
0.4372687445746528
 30
0.0
 10
0.7114122178819444
 20
0.4634514702690972
 30
0.0
 10
0.4950602213541666
 20
0.4675855848524305
 30
0.0
 10
0.4240912543402777
 20
0.6722242567274305
 30
0.0
 10
-0.0003445095486111
 20
1.892821587456597
 30
0.0
 10
-0.0003445095486111
 20
1.892821587456597
 30
0.0
 10
-0.0003445095486111
 20
1.892821587456597
 30
0.0
 10
-0.3369303385416667
 20
0.9237162272135416
 30
0.0
 10
-0.3369303385416667
 20
0.9237162272135416
 30
0.0
  0
ENDBLK
  5
64
100
AcDbEntity
  8
CALQUE_1
100
AcDbBlockEnd
  0
BLOCK
  5
67
100
AcDbEntity
  8
CALQUE_1
 62
     7
100
AcDbBlockBegin
  2
AI9-BLK13
 70
     0
 10
0.0
 20
0.0
 30
0.0
  3
AI9-BLK13
  1

  0
SPLINE
  5
68
100
AcDbEntity
  8
CALQUE_1
 62
     7
100
AcDbSpline
210
0.0
220
0.0
230
1.0
 70
     8
 71
     3
 72
    38
 73
    34
 74
     0
 42
0.00000001
 43
0.00000001
 40
0.0
 40
0.0
 40
0.0
 40
0.0
 40
1.0
 40
1.0
 40
1.0
 40
2.0
 40
2.0
 40
2.0
 40
3.0
 40
3.0
 40
3.0
 40
4.0
 40
4.0
 40
4.0
 40
5.0
 40
5.0
 40
5.0
 40
6.0
 40
6.0
 40
6.0
 40
7.0
 40
7.0
 40
7.0
 40
8.0
 40
8.0
 40
8.0
 40
9.0
 40
9.0
 40
9.0
 40
10.0
 40
10.0
 40
10.0
 40
11.0
 40
11.0
 40
11.0
 40
11.0
 10
-0.3369303385416667
 20
0.9234578450520833
 30
0.0
 10
-0.3369303385416667
 20
0.9234578450520833
 30
0.0
 10
-0.4244357638888889
 20
0.6719658745659721
 30
0.0
 10
-0.4957492404513889
 20
0.4680162217881944
 30
0.0
 10
-0.7121012369791666
 20
0.4631930881076389
 30
0.0
 10
-2.0040120442708331
 20
0.4370103624131944
 30
0.0
 10
-2.0040120442708331
 20
0.4370103624131944
 30
0.0
 10
-2.0040120442708331
 20
0.4370103624131944
 30
0.0
 10
-0.9742730034722221
 20
-0.3436482747395833
 30
0.0
 10
-0.8016737196180555
 20
-0.4745619032118055
 30
0.0
 10
-0.8643744574652778
 20
-0.6819566514756944
 30
0.0
 10
-1.2385118272569444
 20
-1.9187459309895831
 30
0.0
 10
-1.2385118272569444
 20
-1.9187459309895831
 30
0.0
 10
-1.2385118272569444
 20
-1.9187459309895831
 30
0.0
 10
-0.1777669270833333
 20
-1.1808064778645833
 30
0.0
 10
-0.0003445095486111
 20
-1.0567830403645833
 30
0.0
 10
0.1774224175347222
 20
-1.1808064778645833
 30
0.0
 10
1.2381673177083332
 20
-1.9187459309895831
 30
0.0
 10
1.2381673177083332
 20
-1.9187459309895831
 30
0.0
 10
1.2381673177083332
 20
-1.9187459309895831
 30
0.0
 10
0.8640299479166665
 20
-0.6819566514756944
 30
0.0
 10
0.8016737196180555
 20
-0.4745619032118055
 30
0.0
 10
0.9735839843749999
 20
-0.3436482747395833
 30
0.0
 10
2.0040120442708331
 20
0.4370103624131944
 30
0.0
 10
2.0040120442708331
 20
0.4370103624131944
 30
0.0
 10
2.0040120442708331
 20
0.4370103624131944
 30
0.0
 10
0.7114122178819444
 20
0.4631930881076389
 30
0.0
 10
0.4950602213541666
 20
0.4680162217881944
 30
0.0
 10
0.4240912543402777
 20
0.6719658745659721
 30
0.0
 10
-0.0003445095486111
 20
1.8929077148437499
 30
0.0
 10
-0.0003445095486111
 20
1.8929077148437499
 30
0.0
 10
-0.0003445095486111
 20
1.8929077148437499
 30
0.0
 10
-0.3369303385416667
 20
0.9234578450520833
 30
0.0
 10
-0.3369303385416667
 20
0.9234578450520833
 30
0.0
  0
ENDBLK
  5
69
100
AcDbEntity
  8
CALQUE_1
100
AcDbBlockEnd
  0
BLOCK
  5
6C
100
AcDbEntity
  8
CALQUE_1
 62
     7
100
AcDbBlockBegin
  2
AI9-BLK14
 70
     0
 10
0.0
 20
0.0
 30
0.0
  3
AI9-BLK14
  1

  0
SPLINE
  5
6D
100
AcDbEntity
  8
CALQUE_1
 62
     7
100
AcDbSpline
210
0.0
220
0.0
230
1.0
 70
     8
 71
     3
 72
    38
 73
    34
 74
     0
 42
0.00000001
 43
0.00000001
 40
0.0
 40
0.0
 40
0.0
 40
0.0
 40
1.0
 40
1.0
 40
1.0
 40
2.0
 40
2.0
 40
2.0
 40
3.0
 40
3.0
 40
3.0
 40
4.0
 40
4.0
 40
4.0
 40
5.0
 40
5.0
 40
5.0
 40
6.0
 40
6.0
 40
6.0
 40
7.0
 40
7.0
 40
7.0
 40
8.0
 40
8.0
 40
8.0
 40
9.0
 40
9.0
 40
9.0
 40
10.0
 40
10.0
 40
10.0
 40
11.0
 40
11.0
 40
11.0
 40
11.0
 10
-0.3367580837673611
 20
0.9234578450520833
 30
0.0
 10
-0.3367580837673611
 20
0.9234578450520833
 30
0.0
 10
-0.4239189995659722
 20
0.6719658745659721
 30
0.0
 10
-0.4955769856770833
 20
0.4680162217881944
 30
0.0
 10
-0.711928982204861
 20
0.4631930881076389
 30
0.0
 10
-2.0038397894965274
 20
0.4370103624131944
 30
0.0
 10
-2.0038397894965274
 20
0.4370103624131944
 30
0.0
 10
-2.0038397894965274
 20
0.4370103624131944
 30
0.0
 10
-0.9737562391493054
 20
-0.3436482747395833
 30
0.0
 10
-0.80150146484375
 20
-0.4745619032118055
 30
0.0
 10
-0.8642022026909721
 20
-0.6819566514756944
 30
0.0
 10
-1.2383395724826387
 20
-1.9187459309895831
 30
0.0
 10
-1.2383395724826387
 20
-1.9187459309895831
 30
0.0
 10
-1.2383395724826387
 20
-1.9187459309895831
 30
0.0
 10
-0.1779391818576389
 20
-1.1808064778645833
 30
0.0
 10
0.0005167643229167
 20
-1.0567830403645833
 30
0.0
 10
0.1779391818576389
 20
-1.1808064778645833
 30
0.0
 10
1.2386840820312499
 20
-1.9187459309895831
 30
0.0
 10
1.2386840820312499
 20
-1.9187459309895831
 30
0.0
 10
1.2386840820312499
 20
-1.9187459309895831
 30
0.0
 10
0.8645467122395832
 20
-0.6816121419270833
 30
0.0
 10
0.80150146484375
 20
-0.4745619032118055
 30
0.0
 10
0.9741007486979166
 20
-0.3436482747395833
 30
0.0
 10
2.0038397894965274
 20
0.4370103624131944
 30
0.0
 10
2.0038397894965274
 20
0.4370103624131944
 30
0.0
 10
2.0038397894965274
 20
0.4370103624131944
 30
0.0
 10
0.711928982204861
 20
0.4631930881076389
 30
0.0
 10
0.4955769856770833
 20
0.4680162217881944
 30
0.0
 10
0.4242635091145833
 20
0.6719658745659721
 30
0.0
 10
0.0005167643229167
 20
1.8929077148437499
 30
0.0
 10
0.0005167643229167
 20
1.8929077148437499
 30
0.0
 10
0.0005167643229167
 20
1.8929077148437499
 30
0.0
 10
-0.3367580837673611
 20
0.9234578450520833
 30
0.0
 10
-0.3367580837673611
 20
0.9234578450520833
 30
0.0
  0
ENDBLK
  5
6E
100
AcDbEntity
  8
CALQUE_1
100
AcDbBlockEnd
  0
BLOCK
  5
71
100
AcDbEntity
  8
CALQUE_1
 62
     7
100
AcDbBlockBegin
  2
AI9-BLK15
 70
     0
 10
0.0
 20
0.0
 30
0.0
  3
AI9-BLK15
  1

  0
SPLINE
  5
72
100
AcDbEntity
  8
CALQUE_1
 62
     7
100
AcDbSpline
210
0.0
220
0.0
230
1.0
 70
     8
 71
     3
 72
    38
 73
    34
 74
     0
 42
0.00000001
 43
0.00000001
 40
0.0
 40
0.0
 40
0.0
 40
0.0
 40
1.0
 40
1.0
 40
1.0
 40
2.0
 40
2.0
 40
2.0
 40
3.0
 40
3.0
 40
3.0
 40
4.0
 40
4.0
 40
4.0
 40
5.0
 40
5.0
 40
5.0
 40
6.0
 40
6.0
 40
6.0
 40
7.0
 40
7.0
 40
7.0
 40
8.0
 40
8.0
 40
8.0
 40
9.0
 40
9.0
 40
9.0
 40
10.0
 40
10.0
 40
10.0
 40
11.0
 40
11.0
 40
11.0
 40
11.0
 10
-0.3367580837673611
 20
0.9234578450520833
 30
0.0
 10
-0.3367580837673611
 20
0.9234578450520833
 30
0.0
 10
-0.4239189995659722
 20
0.6719658745659721
 30
0.0
 10
-0.4955769856770833
 20
0.4673272026909722
 30
0.0
 10
-0.7115844726562499
 20
0.4631930881076389
 30
0.0
 10
-2.0038397894965274
 20
0.4370103624131944
 30
0.0
 10
-2.0038397894965274
 20
0.4370103624131944
 30
0.0
 10
-2.0038397894965274
 20
0.4370103624131944
 30
0.0
 10
-0.9741007486979166
 20
-0.3436482747395833
 30
0.0
 10
-0.80150146484375
 20
-0.4745619032118055
 30
0.0
 10
-0.8642022026909721
 20
-0.6819566514756944
 30
0.0
 10
-1.2383395724826387
 20
-1.9187459309895831
 30
0.0
 10
-1.2383395724826387
 20
-1.9187459309895831
 30
0.0
 10
-1.2383395724826387
 20
-1.9187459309895831
 30
0.0
 10
-0.1775946723090278
 20
-1.1808064778645833
 30
0.0
 10
0.0001722547743056
 20
-1.0567830403645833
 30
0.0
 10
0.1779391818576389
 20
-1.1808064778645833
 30
0.0
 10
1.2383395724826387
 20
-1.9187459309895831
 30
0.0
 10
1.2383395724826387
 20
-1.9187459309895831
 30
0.0
 10
1.2383395724826387
 20
-1.9187459309895831
 30
0.0
 10
0.8645467122395832
 20
-0.6819566514756944
 30
0.0
 10
0.80150146484375
 20
-0.4745619032118055
 30
0.0
 10
0.9741007486979166
 20
-0.3436482747395833
 30
0.0
 10
2.0038397894965274
 20
0.4370103624131944
 30
0.0
 10
2.0038397894965274
 20
0.4370103624131944
 30
0.0
 10
2.0038397894965274
 20
0.4370103624131944
 30
0.0
 10
0.711928982204861
 20
0.4631930881076389
 30
0.0
 10
0.4955769856770833
 20
0.4673272026909722
 30
0.0
 10
0.4246080186631944
 20
0.6719658745659721
 30
0.0
 10
0.0001722547743056
 20
1.8929077148437499
 30
0.0
 10
0.0001722547743056
 20
1.8929077148437499
 30
0.0
 10
0.0001722547743056
 20
1.8929077148437499
 30
0.0
 10
-0.3367580837673611
 20
0.9234578450520833
 30
0.0
 10
-0.3367580837673611
 20
0.9234578450520833
 30
0.0
  0
ENDBLK
  5
73
100
AcDbEntity
  8
CALQUE_1
100
AcDbBlockEnd
  0
BLOCK
  5
76
100
AcDbEntity
  8
CALQUE_1
 62
     7
100
AcDbBlockBegin
  2
AI9-BLK16
 70
     0
 10
0.0
 20
0.0
 30
0.0
  3
AI9-BLK16
  1

  0
SPLINE
  5
77
100
AcDbEntity
  8
CALQUE_1
 62
     7
100
AcDbSpline
210
0.0
220
0.0
230
1.0
 70
     8
 71
     3
 72
    38
 73
    34
 74
     0
 42
0.00000001
 43
0.00000001
 40
0.0
 40
0.0
 40
0.0
 40
0.0
 40
1.0
 40
1.0
 40
1.0
 40
2.0
 40
2.0
 40
2.0
 40
3.0
 40
3.0
 40
3.0
 40
4.0
 40
4.0
 40
4.0
 40
5.0
 40
5.0
 40
5.0
 40
6.0
 40
6.0
 40
6.0
 40
7.0
 40
7.0
 40
7.0
 40
8.0
 40
8.0
 40
8.0
 40
9.0
 40
9.0
 40
9.0
 40
10.0
 40
10.0
 40
10.0
 40
11.0
 40
11.0
 40
11.0
 40
11.0
 10
-0.3368442111545139
 20
0.9236300998263888
 30
0.0
 10
-0.3368442111545139
 20
0.9236300998263888
 30
0.0
 10
-0.4243496365017361
 20
0.6721381293402777
 30
0.0
 10
-0.495318603515625
 20
0.4678439670138889
 30
0.0
 10
-0.7120151095920139
 20
0.4633653428819444
 30
0.0
 10
-2.0035814073350693
 20
0.4371826171875
 30
0.0
 10
-2.0035814073350693
 20
0.4371826171875
 30
0.0
 10
-2.0035814073350693
 20
0.4371826171875
 30
0.0
 10
-0.9738423665364583
 20
-0.3434760199652778
 30
0.0
 10
-0.8015875922309027
 20
-0.4743896484375
 30
0.0
 10
-0.8642883300781249
 20
-0.6817843967013888
 30
0.0
 10
-1.2384256998697916
 20
-1.9185736762152776
 30
0.0
 10
-1.2384256998697916
 20
-1.9185736762152776
 30
0.0
 10
-1.2384256998697916
 20
-1.9185736762152776
 30
0.0
 10
-0.1780253092447917
 20
-1.1802897135416666
 30
0.0
 10
-0.0002583821614583
 20
-1.0566107855902778
 30
0.0
 10
0.177508544921875
 20
-1.1802897135416666
 30
0.0
 10
1.2379089355468749
 20
-1.9185736762152776
 30
0.0
 10
1.2379089355468749
 20
-1.9185736762152776
 30
0.0
 10
1.2379089355468749
 20
-1.9185736762152776
 30
0.0
 10
0.8644605848524305
 20
-0.6817843967013888
 30
0.0
 10
0.8014153374565971
 20
-0.4743896484375
 30
0.0
 10
0.9743591308593749
 20
-0.3434760199652778
 30
0.0
 10
2.003753662109375
 20
0.4371826171875
 30
0.0
 10
2.003753662109375
 20
0.4371826171875
 30
0.0
 10
2.003753662109375
 20
0.4371826171875
 30
0.0
 10
0.7114983452690972
 20
0.4633653428819444
 30
0.0
 10
0.4954908582899305
 20
0.4678439670138889
 30
0.0
 10
0.4241773817274305
 20
0.6721381293402777
 30
0.0
 10
-0.0002583821614583
 20
1.8930799696180554
 30
0.0
 10
-0.0002583821614583
 20
1.8930799696180554
 30
0.0
 10
-0.0002583821614583
 20
1.8930799696180554
 30
0.0
 10
-0.3368442111545139
 20
0.9236300998263888
 30
0.0
 10
-0.3368442111545139
 20
0.9236300998263888
 30
0.0
  0
ENDBLK
  5
78
100
AcDbEntity
  8
CALQUE_1
100
AcDbBlockEnd
  0
BLOCK
  5
7B
100
AcDbEntity
  8
CALQUE_1
 62
     7
100
AcDbBlockBegin
  2
AI9-BLK17
 70
     0
 10
0.0
 20
0.0
 30
0.0
  3
AI9-BLK17
  1

  0
SPLINE
  5
7C
100
AcDbEntity
  8
CALQUE_1
 62
     7
100
AcDbSpline
210
0.0
220
0.0
230
1.0
 70
     8
 71
     3
 72
    38
 73
    34
 74
     0
 42
0.00000001
 43
0.00000001
 40
0.0
 40
0.0
 40
0.0
 40
0.0
 40
1.0
 40
1.0
 40
1.0
 40
2.0
 40
2.0
 40
2.0
 40
3.0
 40
3.0
 40
3.0
 40
4.0
 40
4.0
 40
4.0
 40
5.0
 40
5.0
 40
5.0
 40
6.0
 40
6.0
 40
6.0
 40
7.0
 40
7.0
 40
7.0
 40
8.0
 40
8.0
 40
8.0
 40
9.0
 40
9.0
 40
9.0
 40
10.0
 40
10.0
 40
10.0
 40
11.0
 40
11.0
 40
11.0
 40
11.0
 10
-0.3366719563802083
 20
0.9236300998263888
 30
0.0
 10
-0.3366719563802083
 20
0.9236300998263888
 30
0.0
 10
-0.4241773817274305
 20
0.6721381293402777
 30
0.0
 10
-0.4951463487413194
 20
0.4678439670138889
 30
0.0
 10
-0.7118428548177083
 20
0.4633653428819444
 30
0.0
 10
-2.003753662109375
 20
0.4371826171875
 30
0.0
 10
-2.003753662109375
 20
0.4371826171875
 30
0.0
 10
-2.003753662109375
 20
0.4371826171875
 30
0.0
 10
-0.9736701117621527
 20
-0.3434760199652778
 30
0.0
 10
-0.8014153374565971
 20
-0.4743896484375
 30
0.0
 10
-0.8641160753038194
 20
-0.6817843967013888
 30
0.0
 10
-1.2379089355468749
 20
-1.9185736762152776
 30
0.0
 10
-1.2379089355468749
 20
-1.9185736762152776
 30
0.0
 10
-1.2379089355468749
 20
-1.9185736762152776
 30
0.0
 10
-0.1778530544704861
 20
-1.1802897135416666
 30
0.0
 10
-0.0000861273871528
 20
-1.0566107855902778
 30
0.0
 10
0.1776807996961805
 20
-1.1802897135416666
 30
0.0
 10
1.2380811903211804
 20
-1.9185736762152776
 30
0.0
 10
1.2380811903211804
 20
-1.9185736762152776
 30
0.0
 10
1.2380811903211804
 20
-1.9185736762152776
 30
0.0
 10
0.864632839626736
 20
-0.6817843967013888
 30
0.0
 10
0.8015875922309027
 20
-0.4743896484375
 30
0.0
 10
0.9745313856336805
 20
-0.3434760199652778
 30
0.0
 10
2.0039259168836803
 20
0.4371826171875
 30
0.0
 10
2.0039259168836803
 20
0.4371826171875
 30
0.0
 10
2.0039259168836803
 20
0.4371826171875
 30
0.0
 10
0.7120151095920139
 20
0.4633653428819444
 30
0.0
 10
0.4956631130642361
 20
0.4678439670138889
 30
0.0
 10
0.4243496365017361
 20
0.6721381293402777
 30
0.0
 10
-0.0000861273871528
 20
1.8930799696180554
 30
0.0
 10
-0.0000861273871528
 20
1.8930799696180554
 30
0.0
 10
-0.0000861273871528
 20
1.8930799696180554
 30
0.0
 10
-0.3366719563802083
 20
0.9236300998263888
 30
0.0
 10
-0.3366719563802083
 20
0.9236300998263888
 30
0.0
  0
ENDBLK
  5
7D
100
AcDbEntity
  8
CALQUE_1
100
AcDbBlockEnd
  0
BLOCK
  5
80
100
AcDbEntity
  8
CALQUE_1
 62
     7
100
AcDbBlockBegin
  2
AI9-BLK18
 70
     0
 10
0.0
 20
0.0
 30
0.0
  3
AI9-BLK18
  1

  0
SPLINE
  5
81
100
AcDbEntity
  8
CALQUE_1
 62
     7
100
AcDbSpline
210
0.0
220
0.0
230
1.0
 70
     8
 71
     3
 72
    38
 73
    34
 74
     0
 42
0.00000001
 43
0.00000001
 40
0.0
 40
0.0
 40
0.0
 40
0.0
 40
1.0
 40
1.0
 40
1.0
 40
2.0
 40
2.0
 40
2.0
 40
3.0
 40
3.0
 40
3.0
 40
4.0
 40
4.0
 40
4.0
 40
5.0
 40
5.0
 40
5.0
 40
6.0
 40
6.0
 40
6.0
 40
7.0
 40
7.0
 40
7.0
 40
8.0
 40
8.0
 40
8.0
 40
9.0
 40
9.0
 40
9.0
 40
10.0
 40
10.0
 40
10.0
 40
11.0
 40
11.0
 40
11.0
 40
11.0
 10
-0.3375332302517361
 20
0.9234578450520833
 30
0.0
 10
-0.3375332302517361
 20
0.9234578450520833
 30
0.0
 10
-0.4246941460503472
 20
0.6719658745659721
 30
0.0
 10
-0.4956631130642361
 20
0.4673272026909722
 30
0.0
 10
-0.7120151095920139
 20
0.4631930881076389
 30
0.0
 10
-2.0039259168836803
 20
0.4370103624131944
 30
0.0
 10
-2.0039259168836803
 20
0.4370103624131944
 30
0.0
 10
-2.0039259168836803
 20
0.4370103624131944
 30
0.0
 10
-0.9745313856336805
 20
-0.3436482747395833
 30
0.0
 10
-0.8015875922309027
 20
-0.4745619032118055
 30
0.0
 10
-0.8642883300781249
 20
-0.6819566514756944
 30
0.0
 10
-1.2391147189670138
 20
-1.9187459309895831
 30
0.0
 10
-1.2391147189670138
 20
-1.9187459309895831
 30
0.0
 10
-1.2391147189670138
 20
-1.9187459309895831
 30
0.0
 10
-0.1780253092447917
 20
-1.1808064778645833
 30
0.0
 10
-0.0002583821614583
 20
-1.0567830403645833
 30
0.0
 10
0.177508544921875
 20
-1.1808064778645833
 30
0.0
 10
1.2379089355468749
 20
-1.9187459309895831
 30
0.0
 10
1.2379089355468749
 20
-1.9187459309895831
 30
0.0
 10
1.2379089355468749
 20
-1.9187459309895831
 30
0.0
 10
0.8637715657552083
 20
-0.6819566514756944
 30
0.0
 10
0.8014153374565971
 20
-0.4745619032118055
 30
0.0
 10
0.9733256022135416
 20
-0.3436482747395833
 30
0.0
 10
2.003753662109375
 20
0.4370103624131944
 30
0.0
 10
2.003753662109375
 20
0.4370103624131944
 30
0.0
 10
2.003753662109375
 20
0.4370103624131944
 30
0.0
 10
0.7114983452690972
 20
0.4631930881076389
 30
0.0
 10
0.4948018391927083
 20
0.4673272026909722
 30
0.0
 10
0.4241773817274305
 20
0.6719658745659721
 30
0.0
 10
-0.0002583821614583
 20
1.8929077148437499
 30
0.0
 10
-0.0002583821614583
 20
1.8929077148437499
 30
0.0
 10
-0.0002583821614583
 20
1.8929077148437499
 30
0.0
 10
-0.3375332302517361
 20
0.9234578450520833
 30
0.0
 10
-0.3375332302517361
 20
0.9234578450520833
 30
0.0
  0
ENDBLK
  5
82
100
AcDbEntity
  8
CALQUE_1
100
AcDbBlockEnd
  0
BLOCK
  5
85
100
AcDbEntity
  8
CALQUE_1
 62
     7
100
AcDbBlockBegin
  2
AI9-BLK19
 70
     0
 10
0.0
 20
0.0
 30
0.0
  3
AI9-BLK19
  1

  0
SPLINE
  5
86
100
AcDbEntity
  8
CALQUE_1
 62
     7
100
AcDbSpline
210
0.0
220
0.0
230
1.0
 70
     8
 71
     3
 72
    38
 73
    34
 74
     0
 42
0.00000001
 43
0.00000001
 40
0.0
 40
0.0
 40
0.0
 40
0.0
 40
1.0
 40
1.0
 40
1.0
 40
2.0
 40
2.0
 40
2.0
 40
3.0
 40
3.0
 40
3.0
 40
4.0
 40
4.0
 40
4.0
 40
5.0
 40
5.0
 40
5.0
 40
6.0
 40
6.0
 40
6.0
 40
7.0
 40
7.0
 40
7.0
 40
8.0
 40
8.0
 40
8.0
 40
9.0
 40
9.0
 40
9.0
 40
10.0
 40
10.0
 40
10.0
 40
11.0
 40
11.0
 40
11.0
 40
11.0
 10
-0.3372748480902778
 20
0.9243191189236111
 30
0.0
 10
-0.3372748480902778
 20
0.9243191189236111
 30
0.0
 10
-0.4244357638888889
 20
0.6728271484374999
 30
0.0
 10
-0.4954047309027778
 20
0.4681884765625
 30
0.0
 10
-0.7117567274305555
 20
0.4640543619791666
 30
0.0
 10
-2.0036675347222221
 20
0.4371826171875
 30
0.0
 10
-2.0036675347222221
 20
0.4371826171875
 30
0.0
 10
-2.0036675347222221
 20
0.4371826171875
 30
0.0
 10
-0.9742730034722221
 20
-0.3434760199652778
 30
0.0
 10
-0.8013292100694444
 20
-0.4740451388888888
 30
0.0
 10
-0.8640299479166665
 20
-0.6810953776041666
 30
0.0
 10
-1.2388563368055554
 20
-1.9185736762152776
 30
0.0
 10
-1.2388563368055554
 20
-1.9185736762152776
 30
0.0
 10
-1.2388563368055554
 20
-1.9185736762152776
 30
0.0
 10
-0.1777669270833333
 20
-1.1802897135416666
 30
0.0
 10
0.0
 20
-1.0566107855902778
 30
0.0
 10
0.1777669270833333
 20
-1.1802897135416666
 30
0.0
 10
1.2381673177083332
 20
-1.9185736762152776
 30
0.0
 10
1.2381673177083332
 20
-1.9185736762152776
 30
0.0
 10
1.2381673177083332
 20
-1.9185736762152776
 30
0.0
 10
0.8640299479166665
 20
-0.6810953776041666
 30
0.0
 10
0.8016737196180555
 20
-0.4740451388888888
 30
0.0
 10
0.9735839843749999
 20
-0.3434760199652778
 30
0.0
 10
2.0036675347222221
 20
0.4371826171875
 30
0.0
 10
2.0036675347222221
 20
0.4371826171875
 30
0.0
 10
2.0036675347222221
 20
0.4371826171875
 30
0.0
 10
0.7117567274305555
 20
0.4640543619791666
 30
0.0
 10
0.4950602213541666
 20
0.4681884765625
 30
0.0
 10
0.4244357638888889
 20
0.6728271484374999
 30
0.0
 10
0.0
 20
1.8930799696180554
 30
0.0
 10
0.0
 20
1.8930799696180554
 30
0.0
 10
0.0
 20
1.8930799696180554
 30
0.0
 10
-0.3372748480902778
 20
0.9243191189236111
 30
0.0
 10
-0.3372748480902778
 20
0.9243191189236111
 30
0.0
  0
ENDBLK
  5
87
100
AcDbEntity
  8
CALQUE_1
100
AcDbBlockEnd
  0
BLOCK
  5
8A
100
AcDbEntity
  8
CALQUE_1
 62
     7
100
AcDbBlockBegin
  2
AI9-BLK20
 70
     0
 10
0.0
 20
0.0
 30
0.0
  3
AI9-BLK20
  1

  0
SPLINE
  5
8B
100
AcDbEntity
  8
CALQUE_1
 62
     7
100
AcDbSpline
210
0.0
220
0.0
230
1.0
 70
     8
 71
     3
 72
    38
 73
    34
 74
     0
 42
0.00000001
 43
0.00000001
 40
0.0
 40
0.0
 40
0.0
 40
0.0
 40
1.0
 40
1.0
 40
1.0
 40
2.0
 40
2.0
 40
2.0
 40
3.0
 40
3.0
 40
3.0
 40
4.0
 40
4.0
 40
4.0
 40
5.0
 40
5.0
 40
5.0
 40
6.0
 40
6.0
 40
6.0
 40
7.0
 40
7.0
 40
7.0
 40
8.0
 40
8.0
 40
8.0
 40
9.0
 40
9.0
 40
9.0
 40
10.0
 40
10.0
 40
10.0
 40
11.0
 40
11.0
 40
11.0
 40
11.0
 10
-0.3366719563802083
 20
0.923543972439236
 30
0.0
 10
-0.3366719563802083
 20
0.923543972439236
 30
0.0
 10
-0.4241773817274305
 20
0.672052001953125
 30
0.0
 10
-0.4951463487413194
 20
0.467413330078125
 30
0.0
 10
-0.7118428548177083
 20
0.4632792154947916
 30
0.0
 10
-2.003753662109375
 20
0.4370964898003472
 30
0.0
 10
-2.003753662109375
 20
0.4370964898003472
 30
0.0
 10
-2.003753662109375
 20
0.4370964898003472
 30
0.0
 10
-0.9736701117621527
 20
-0.3435621473524305
 30
0.0
 10
-0.8014153374565971
 20
-0.4744757758246527
 30
0.0
 10
-0.8641160753038194
 20
-0.6818705240885417
 30
0.0
 10
-1.2379089355468749
 20
-1.9186598036024305
 30
0.0
 10
-1.2379089355468749
 20
-1.9186598036024305
 30
0.0
 10
-1.2379089355468749
 20
-1.9186598036024305
 30
0.0
 10
-0.1778530544704861
 20
-1.1807203504774304
 30
0.0
 10
-0.0000861273871528
 20
-1.0566969129774304
 30
0.0
 10
0.1776807996961805
 20
-1.1807203504774304
 30
0.0
 10
1.2380811903211804
 20
-1.9186598036024305
 30
0.0
 10
1.2380811903211804
 20
-1.9186598036024305
 30
0.0
 10
1.2380811903211804
 20
-1.9186598036024305
 30
0.0
 10
0.864632839626736
 20
-0.6818705240885417
 30
0.0
 10
0.8015875922309027
 20
-0.4744757758246527
 30
0.0
 10
0.9745313856336805
 20
-0.3435621473524305
 30
0.0
 10
2.0039259168836803
 20
0.4370964898003472
 30
0.0
 10
2.0039259168836803
 20
0.4370964898003472
 30
0.0
 10
2.0039259168836803
 20
0.4370964898003472
 30
0.0
 10
0.7120151095920139
 20
0.4632792154947916
 30
0.0
 10
0.4956631130642361
 20
0.467413330078125
 30
0.0
 10
0.4243496365017361
 20
0.672052001953125
 30
0.0
 10
-0.0000861273871528
 20
1.8929938422309025
 30
0.0
 10
-0.0000861273871528
 20
1.8929938422309025
 30
0.0
 10
-0.0000861273871528
 20
1.8929938422309025
 30
0.0
 10
-0.3366719563802083
 20
0.923543972439236
 30
0.0
 10
-0.3366719563802083
 20
0.923543972439236
 30
0.0
  0
ENDBLK
  5
8C
100
AcDbEntity
  8
CALQUE_1
100
AcDbBlockEnd
  0
BLOCK
  5
8F
100
AcDbEntity
  8
CALQUE_1
 62
     7
100
AcDbBlockBegin
  2
AI9-BLK21
 70
     0
 10
0.0
 20
0.0
 30
0.0
  3
AI9-BLK21
  1

  0
SPLINE
  5
90
100
AcDbEntity
  8
CALQUE_1
 62
     7
100
AcDbSpline
210
0.0
220
0.0
230
1.0
 70
     8
 71
     3
 72
    38
 73
    34
 74
     0
 42
0.00000001
 43
0.00000001
 40
0.0
 40
0.0
 40
0.0
 40
0.0
 40
1.0
 40
1.0
 40
1.0
 40
2.0
 40
2.0
 40
2.0
 40
3.0
 40
3.0
 40
3.0
 40
4.0
 40
4.0
 40
4.0
 40
5.0
 40
5.0
 40
5.0
 40
6.0
 40
6.0
 40
6.0
 40
7.0
 40
7.0
 40
7.0
 40
8.0
 40
8.0
 40
8.0
 40
9.0
 40
9.0
 40
9.0
 40
10.0
 40
10.0
 40
10.0
 40
11.0
 40
11.0
 40
11.0
 40
11.0
 10
-0.3367580837673611
 20
0.923543972439236
 30
0.0
 10
-0.3367580837673611
 20
0.923543972439236
 30
0.0
 10
-0.4239189995659722
 20
0.672052001953125
 30
0.0
 10
-0.4952324761284722
 20
0.467413330078125
 30
0.0
 10
-0.711928982204861
 20
0.4632792154947916
 30
0.0
 10
-2.0038397894965274
 20
0.4370964898003472
 30
0.0
 10
-2.0038397894965274
 20
0.4370964898003472
 30
0.0
 10
-2.0038397894965274
 20
0.4370964898003472
 30
0.0
 10
-0.9737562391493054
 20
-0.3435621473524305
 30
0.0
 10
-0.8011569552951389
 20
-0.4744757758246527
 30
0.0
 10
-0.8638576931423611
 20
-0.6818705240885417
 30
0.0
 10
-1.2379950629340277
 20
-1.9186598036024305
 30
0.0
 10
-1.2379950629340277
 20
-1.9186598036024305
 30
0.0
 10
-1.2379950629340277
 20
-1.9186598036024305
 30
0.0
 10
-0.1775946723090278
 20
-1.1807203504774304
 30
0.0
 10
0.0001722547743056
 20
-1.0566969129774304
 30
0.0
 10
0.1779391818576389
 20
-1.1807203504774304
 30
0.0
 10
1.2386840820312499
 20
-1.9186598036024305
 30
0.0
 10
1.2386840820312499
 20
-1.9186598036024305
 30
0.0
 10
1.2386840820312499
 20
-1.9186598036024305
 30
0.0
 10
0.8642022026909721
 20
-0.6818705240885417
 30
0.0
 10
0.80150146484375
 20
-0.4744757758246527
 30
0.0
 10
0.9741007486979166
 20
-0.3435621473524305
 30
0.0
 10
2.0038397894965274
 20
0.4370964898003472
 30
0.0
 10
2.0038397894965274
 20
0.4370964898003472
 30
0.0
 10
2.0038397894965274
 20
0.4370964898003472
 30
0.0
 10
0.7122734917534722
 20
0.4632792154947916
 30
0.0
 10
0.4955769856770833
 20
0.467413330078125
 30
0.0
 10
0.4246080186631944
 20
0.672052001953125
 30
0.0
 10
0.0001722547743056
 20
1.8929938422309025
 30
0.0
 10
0.0001722547743056
 20
1.8929938422309025
 30
0.0
 10
0.0001722547743056
 20
1.8929938422309025
 30
0.0
 10
-0.3367580837673611
 20
0.923543972439236
 30
0.0
 10
-0.3367580837673611
 20
0.923543972439236
 30
0.0
  0
ENDBLK
  5
91
100
AcDbEntity
  8
CALQUE_1
100
AcDbBlockEnd
  0
BLOCK
  5
94
100
AcDbEntity
  8
CALQUE_1
 62
     7
100
AcDbBlockBegin
  2
AI9-BLK22
 70
     0
 10
0.0
 20
0.0
 30
0.0
  3
AI9-BLK22
  1

  0
SPLINE
  5
95
100
AcDbEntity
  8
CALQUE_1
 62
     7
100
AcDbSpline
210
0.0
220
0.0
230
1.0
 70
     8
 71
     3
 72
    38
 73
    34
 74
     0
 42
0.00000001
 43
0.00000001
 40
0.0
 40
0.0
 40
0.0
 40
0.0
 40
1.0
 40
1.0
 40
1.0
 40
2.0
 40
2.0
 40
2.0
 40
3.0
 40
3.0
 40
3.0
 40
4.0
 40
4.0
 40
4.0
 40
5.0
 40
5.0
 40
5.0
 40
6.0
 40
6.0
 40
6.0
 40
7.0
 40
7.0
 40
7.0
 40
8.0
 40
8.0
 40
8.0
 40
9.0
 40
9.0
 40
9.0
 40
10.0
 40
10.0
 40
10.0
 40
11.0
 40
11.0
 40
11.0
 40
11.0
 10
-0.3369303385416667
 20
0.9234578450520833
 30
0.0
 10
-0.3369303385416667
 20
0.9234578450520833
 30
0.0
 10
-0.4247802734375
 20
0.6719658745659721
 30
0.0
 10
-0.4954047309027778
 20
0.4676717122395833
 30
0.0
 10
-0.7121012369791666
 20
0.4631930881076389
 30
0.0
 10
-2.0036675347222221
 20
0.4370103624131944
 30
0.0
 10
-2.0036675347222221
 20
0.4370103624131944
 30
0.0
 10
-2.0036675347222221
 20
0.4370103624131944
 30
0.0
 10
-0.973928493923611
 20
-0.3436482747395833
 30
0.0
 10
-0.8016737196180555
 20
-0.4745619032118055
 30
0.0
 10
-0.8643744574652778
 20
-0.6819566514756944
 30
0.0
 10
-1.2385118272569444
 20
-1.9187459309895831
 30
0.0
 10
-1.2385118272569444
 20
-1.9187459309895831
 30
0.0
 10
-1.2385118272569444
 20
-1.9187459309895831
 30
0.0
 10
-0.1774224175347222
 20
-1.1808064778645833
 30
0.0
 10
-0.0003445095486111
 20
-1.0567830403645833
 30
0.0
 10
0.1774224175347222
 20
-1.1808064778645833
 30
0.0
 10
1.2385118272569444
 20
-1.9187459309895831
 30
0.0
 10
1.2385118272569444
 20
-1.9187459309895831
 30
0.0
 10
1.2385118272569444
 20
-1.9187459309895831
 30
0.0
 10
0.8643744574652778
 20
-0.6819566514756944
 30
0.0
 10
0.8013292100694444
 20
-0.4745619032118055
 30
0.0
 10
0.973928493923611
 20
-0.3436482747395833
 30
0.0
 10
2.0036675347222221
 20
0.4370103624131944
 30
0.0
 10
2.0036675347222221
 20
0.4370103624131944
 30
0.0
 10
2.0036675347222221
 20
0.4370103624131944
 30
0.0
 10
0.7114122178819444
 20
0.4631930881076389
 30
0.0
 10
0.4954047309027778
 20
0.4676717122395833
 30
0.0
 10
0.4240912543402777
 20
0.6719658745659721
 30
0.0
 10
-0.0003445095486111
 20
1.8929077148437499
 30
0.0
 10
-0.0003445095486111
 20
1.8929077148437499
 30
0.0
 10
-0.0003445095486111
 20
1.8929077148437499
 30
0.0
 10
-0.3369303385416667
 20
0.9234578450520833
 30
0.0
 10
-0.3369303385416667
 20
0.9234578450520833
 30
0.0
  0
ENDBLK
  5
96
100
AcDbEntity
  8
CALQUE_1
100
AcDbBlockEnd
  0
BLOCK
  5
99
100
AcDbEntity
  8
CALQUE_1
 62
     7
100
AcDbBlockBegin
  2
AI9-BLK23
 70
     0
 10
0.0
 20
0.0
 30
0.0
  3
AI9-BLK23
  1

  0
SPLINE
  5
9A
100
AcDbEntity
  8
CALQUE_1
 62
     7
100
AcDbSpline
210
0.0
220
0.0
230
1.0
 70
     8
 71
     3
 72
    38
 73
    34
 74
     0
 42
0.00000001
 43
0.00000001
 40
0.0
 40
0.0
 40
0.0
 40
0.0
 40
1.0
 40
1.0
 40
1.0
 40
2.0
 40
2.0
 40
2.0
 40
3.0
 40
3.0
 40
3.0
 40
4.0
 40
4.0
 40
4.0
 40
5.0
 40
5.0
 40
5.0
 40
6.0
 40
6.0
 40
6.0
 40
7.0
 40
7.0
 40
7.0
 40
8.0
 40
8.0
 40
8.0
 40
9.0
 40
9.0
 40
9.0
 40
10.0
 40
10.0
 40
10.0
 40
11.0
 40
11.0
 40
11.0
 40
11.0
 10
-0.3371025933159722
 20
0.9234578450520833
 30
0.0
 10
-0.3371025933159722
 20
0.9234578450520833
 30
0.0
 10
-0.4246080186631944
 20
0.6719658745659721
 30
0.0
 10
-0.4955769856770833
 20
0.4680162217881944
 30
0.0
 10
-0.711928982204861
 20
0.4631930881076389
 30
0.0
 10
-2.0038397894965274
 20
0.4370103624131944
 30
0.0
 10
-2.0038397894965274
 20
0.4370103624131944
 30
0.0
 10
-2.0038397894965274
 20
0.4370103624131944
 30
0.0
 10
-0.9741007486979166
 20
-0.3436482747395833
 30
0.0
 10
-0.80150146484375
 20
-0.4745619032118055
 30
0.0
 10
-0.8642022026909721
 20
-0.6816121419270833
 30
0.0
 10
-1.2390285915798609
 20
-1.9187459309895831
 30
0.0
 10
-1.2390285915798609
 20
-1.9187459309895831
 30
0.0
 10
-1.2390285915798609
 20
-1.9187459309895831
 30
0.0
 10
-0.1779391818576389
 20
-1.1808064778645833
 30
0.0
 10
-0.0001722547743056
 20
-1.0567830403645833
 30
0.0
 10
0.1775946723090278
 20
-1.1808064778645833
 30
0.0
 10
1.2379950629340277
 20
-1.9187459309895831
 30
0.0
 10
1.2379950629340277
 20
-1.9187459309895831
 30
0.0
 10
1.2379950629340277
 20
-1.9187459309895831
 30
0.0
 10
0.8638576931423611
 20
-0.6816121419270833
 30
0.0
 10
0.80150146484375
 20
-0.4745619032118055
 30
0.0
 10
0.9741007486979166
 20
-0.3436482747395833
 30
0.0
 10
2.0038397894965274
 20
0.4370103624131944
 30
0.0
 10
2.0038397894965274
 20
0.4370103624131944
 30
0.0
 10
2.0038397894965274
 20
0.4370103624131944
 30
0.0
 10
0.7115844726562499
 20
0.4631930881076389
 30
0.0
 10
0.4952324761284722
 20
0.4680162217881944
 30
0.0
 10
0.4242635091145833
 20
0.6719658745659721
 30
0.0
 10
-0.0001722547743056
 20
1.8929077148437499
 30
0.0
 10
-0.0001722547743056
 20
1.8929077148437499
 30
0.0
 10
-0.0001722547743056
 20
1.8929077148437499
 30
0.0
 10
-0.3371025933159722
 20
0.9234578450520833
 30
0.0
 10
-0.3371025933159722
 20
0.9234578450520833
 30
0.0
  0
ENDBLK
  5
9B
100
AcDbEntity
  8
CALQUE_1
100
AcDbBlockEnd
  0
BLOCK
  5
9E
100
AcDbEntity
  8
CALQUE_1
 62
     7
100
AcDbBlockBegin
  2
AI9-BLK24
 70
     0
 10
0.0
 20
0.0
 30
0.0
  3
AI9-BLK24
  1

  0
SPLINE
  5
9F
100
AcDbEntity
  8
CALQUE_1
 62
     7
100
AcDbSpline
210
0.0
220
0.0
230
1.0
 70
     8
 71
     3
 72
    38
 73
    34
 74
     0
 42
0.00000001
 43
0.00000001
 40
0.0
 40
0.0
 40
0.0
 40
0.0
 40
1.0
 40
1.0
 40
1.0
 40
2.0
 40
2.0
 40
2.0
 40
3.0
 40
3.0
 40
3.0
 40
4.0
 40
4.0
 40
4.0
 40
5.0
 40
5.0
 40
5.0
 40
6.0
 40
6.0
 40
6.0
 40
7.0
 40
7.0
 40
7.0
 40
8.0
 40
8.0
 40
8.0
 40
9.0
 40
9.0
 40
9.0
 40
10.0
 40
10.0
 40
10.0
 40
11.0
 40
11.0
 40
11.0
 40
11.0
 10
-0.3369303385416667
 20
0.9237162272135416
 30
0.0
 10
-0.3369303385416667
 20
0.9237162272135416
 30
0.0
 10
-0.4244357638888889
 20
0.6722242567274305
 30
0.0
 10
-0.4957492404513889
 20
0.4675855848524305
 30
0.0
 10
-0.7121012369791666
 20
0.4634514702690972
 30
0.0
 10
-2.0040120442708331
 20
0.4372687445746528
 30
0.0
 10
-2.0040120442708331
 20
0.4372687445746528
 30
0.0
 10
-2.0040120442708331
 20
0.4372687445746528
 30
0.0
 10
-0.9742730034722221
 20
-0.343389892578125
 30
0.0
 10
-0.8016737196180555
 20
-0.4743035210503472
 30
0.0
 10
-0.8643744574652778
 20
-0.6816982693142361
 30
0.0
 10
-1.2385118272569444
 20
-1.9184875488281248
 30
0.0
 10
-1.2385118272569444
 20
-1.9184875488281248
 30
0.0
 10
-1.2385118272569444
 20
-1.9184875488281248
 30
0.0
 10
-0.1777669270833333
 20
-1.1805480957031249
 30
0.0
 10
-0.0003445095486111
 20
-1.0568691677517361
 30
0.0
 10
0.1774224175347222
 20
-1.1805480957031249
 30
0.0
 10
1.2381673177083332
 20
-1.9184875488281248
 30
0.0
 10
1.2381673177083332
 20
-1.9184875488281248
 30
0.0
 10
1.2381673177083332
 20
-1.9184875488281248
 30
0.0
 10
0.8640299479166665
 20
-0.6816982693142361
 30
0.0
 10
0.8016737196180555
 20
-0.4743035210503472
 30
0.0
 10
0.9735839843749999
 20
-0.343389892578125
 30
0.0
 10
2.0040120442708331
 20
0.4372687445746528
 30
0.0
 10
2.0040120442708331
 20
0.4372687445746528
 30
0.0
 10
2.0040120442708331
 20
0.4372687445746528
 30
0.0
 10
0.7114122178819444
 20
0.4634514702690972
 30
0.0
 10
0.4950602213541666
 20
0.4675855848524305
 30
0.0
 10
0.4240912543402777
 20
0.6722242567274305
 30
0.0
 10
-0.0003445095486111
 20
1.892821587456597
 30
0.0
 10
-0.0003445095486111
 20
1.892821587456597
 30
0.0
 10
-0.0003445095486111
 20
1.892821587456597
 30
0.0
 10
-0.3369303385416667
 20
0.9237162272135416
 30
0.0
 10
-0.3369303385416667
 20
0.9237162272135416
 30
0.0
  0
ENDBLK
  5
A0
100
AcDbEntity
  8
CALQUE_1
100
AcDbBlockEnd
  0
ENDSEC
  0
SECTION
  2
ENTITIES
  0
INSERT
  5
9D
100
AcDbEntity
  8
CALQUE_1
 62
     7
100
AcDbBlockReference
  2
AI9-BLK24
 10
137.181807
 20
308.587107
 30
0.0
  0
INSERT
  5
98
100
AcDbEntity
  8
CALQUE_1
 62
     7
100
AcDbBlockReference
  2
AI9-BLK23
 10
146.044488
 20
299.724513
 30
0.0
  0
INSERT
  5
93
100
AcDbEntity
  8
CALQUE_1
 62
     7
100
AcDbBlockReference
  2
AI9-BLK22
 10
144.856791
 20
304.154217
 30
0.0
  0
INSERT
  5
8E
100
AcDbEntity
  8
CALQUE_1
 62
     7
100
AcDbBlockReference
  2
AI9-BLK21
 10
141.615129
 20
307.399411
 30
0.0
  0
INSERT
  5
89
100
AcDbEntity
  8
CALQUE_1
 62
     7
100
AcDbBlockReference
  2
AI9-BLK20
 10
132.751845
 20
307.399411
 30
0.0
  0
INSERT
  5
84
100
AcDbEntity
  8
CALQUE_1
 62
     7
100
AcDbBlockReference
  2
AI9-BLK19
 10
129.506479
 20
304.153356
 30
0.0
  0
INSERT
  5
7F
100
AcDbEntity
  8
CALQUE_1
 62
     7
100
AcDbBlockReference
  2
AI9-BLK18
 10
129.506738
 20
295.290675
 30
0.0
  0
INSERT
  5
7A
100
AcDbEntity
  8
CALQUE_1
 62
     7
100
AcDbBlockReference
  2
AI9-BLK17
 10
132.751845
 20
292.050046
 30
0.0
  0
INSERT
  5
75
100
AcDbEntity
  8
CALQUE_1
 62
     7
100
AcDbBlockReference
  2
AI9-BLK16
 10
141.610047
 20
292.050046
 30
0.0
  0
INSERT
  5
70
100
AcDbEntity
  8
CALQUE_1
 62
     7
100
AcDbBlockReference
  2
AI9-BLK15
 10
144.855585
 20
295.290675
 30
0.0
  0
INSERT
  5
6B
100
AcDbEntity
  8
CALQUE_1
 62
     7
100
AcDbBlockReference
  2
AI9-BLK14
 10
128.318783
 20
299.724513
 30
0.0
  0
INSERT
  5
66
100
AcDbEntity
  8
CALQUE_1
 62
     7
100
AcDbBlockReference
  2
AI9-BLK13
 10
137.181807
 20
290.86166
 30
0.0
  0
INSERT
  5
61
100
AcDbEntity
  8
CALQUE_1
 62
     7
100
AcDbBlockReference
  2
AI9-BLK12
 10
163.436708
 20
308.587107
 30
0.0
  0
INSERT
  5
5C
100
AcDbEntity
  8
CALQUE_1
 62
     7
100
AcDbBlockReference
  2
AI9-BLK11
 10
172.299388
 20
299.724513
 30
0.0
  0
INSERT
  5
57
100
AcDbEntity
  8
CALQUE_1
 62
     7
100
AcDbBlockReference
  2
AI9-BLK10
 10
171.111692
 20
304.154217
 30
0.0
  0
INSERT
  5
52
100
AcDbEntity
  8
CALQUE_1
 62
     7
100
AcDbBlockReference
  2
AI9-BLK9
 10
167.870029
 20
307.399411
 30
0.0
  0
INSERT
  5
4D
100
AcDbEntity
  8
CALQUE_1
 62
     7
100
AcDbBlockReference
  2
AI9-BLK8
 10
159.006832
 20
307.399411
 30
0.0
  0
INSERT
  5
48
100
AcDbEntity
  8
CALQUE_1
 62
     7
100
AcDbBlockReference
  2
AI9-BLK7
 10
155.761552
 20
304.153356
 30
0.0
  0
INSERT
  5
43
100
AcDbEntity
  8
CALQUE_1
 62
     7
100
AcDbBlockReference
  2
AI9-BLK6
 10
155.761552
 20
295.290675
 30
0.0
  0
INSERT
  5
3E
100
AcDbEntity
  8
CALQUE_1
 62
     7
100
AcDbBlockReference
  2
AI9-BLK5
 10
159.006832
 20
292.050046
 30
0.0
  0
INSERT
  5
39
100
AcDbEntity
  8
CALQUE_1
 62
     7
100
AcDbBlockReference
  2
AI9-BLK4
 10
167.865034
 20
292.050046
 30
0.0
  0
INSERT
  5
34
100
AcDbEntity
  8
CALQUE_1
 62
     7
100
AcDbBlockReference
  2
AI9-BLK3
 10
171.110486
 20
295.290675
 30
0.0
  0
INSERT
  5
2F
100
AcDbEntity
  8
CALQUE_1
 62
     7
100
AcDbBlockReference
  2
AI9-BLK2
 10
154.573683
 20
299.724513
 30
0.0
  0
INSERT
  5
2A
100
AcDbEntity
  8
CALQUE_1
 62
     7
100
AcDbBlockReference
  2
AI9-BLK1
 10
163.436708
 20
290.86166
 30
0.0
  0
ENDSEC
  0
SECTION
  2
OBJECTS
  0
DICTIONARY
  5
19
100
AcDbDictionary
280
     0
281
     1
  3
ACAD_GROUP
350
1A
  3
ACAD_MLINESTYLE
350
1B
  3
ACAD_LAYOUT
350
1E
  3
ACAD_PLOTSETTINGS
350
22
  3
ACAD_PLOTSTYLENAME
350
1F
  3
ACAD_WIPEOUT_VARS
350
23
  0
DICTIONARY
  5
1A
102
{ACAD_REACTORS
330
19
102
}
100
AcDbDictionary
280
     0
281
     1
  0
DICTIONARY
  5
1B
102
{ACAD_REACTORS
330
19
102
}
100
AcDbDictionary
280
     0
281
     1
  3
Standard
350
1C
  0
MLINESTYLE
  5
1C
102
{ACAD_REACTORS
330
1B
102
}
100
AcDbMlineStyle
  2
Standard
 70
     0
  3

 62
     0
 51
90.0
 52
90.0
 71
     2
 49
0.5
 62
   256
  6
ByLayer
 49
-0.5
 62
   256
  6
ByLayer
  0
ACDBDICTIONARYWDFLT
  5
1F
102
{ACAD_REACTORS
330
19
102
}
100
AcDbDictionary
281
     1
  3
Normal
350
1D
100
AcDbDictionaryWithDefault
340
1D
  0
ACDBPLACEHOLDER
  5
1D
102
{ACAD_REACTORS
330
1F
102
}
  0
LAYOUT
  5
20
102
{ACAD_REACTORS
330
1E
102
}
100
AcDbPlotSettings
  1

  2

  4

  6

 40
0.0
 41
0.0
 42
0.0
 43
0.0
 44
0.0
 45
0.0
 46
0.0
 47
0.0
 48
0.0
 49
0.0
140
0.0
141
0.0
142
1.0
143
1.0
 70
  1024
 72
     0
 73
     0
 74
     0
  7

 75
     0
147
1.0
148
0.0
149
0.0
100
AcDbLayout
  1
Model
 70
     0
 71
     0
 10
0.0
 20
0.0
 11
0.0
 21
0.0
 12
0.0
 22
0.0
 32
0.0
 14
0.0
 24
0.0
 34
0.0
 15
0.0
 25
0.0
 35
0.0
146
0.0
 13
0.0
 23
0.0
 33
0.0
 16
0.0
 26
0.0
 36
0.0
 17
0.0
 27
0.0
 37
0.0
 76
     0
330
A
331
0
345
0
346
0
  0
LAYOUT
  5
21
102
{ACAD_REACTORS
330
1E
102
}
100
AcDbPlotSettings
  1

  2

  4

  6

 40
0.0
 41
0.0
 42
0.0
 43
0.0
 44
0.0
 45
0.0
 46
0.0
 47
0.0
 48
0.0
 49
0.0
140
0.0
141
0.0
142
1.0
143
1.0
 70
     0
 72
     0
 73
     0
 74
     0
  7

 75
     0
147
1.0
148
0.0
149
0.0
100
AcDbLayout
  1
Layout1
 70
     0
 71
     0
 10
0.0
 20
0.0
 11
0.0
 21
0.0
 12
0.0
 22
0.0
 32
0.0
 14
0.0
 24
0.0
 34
0.0
 15
0.0
 25
0.0
 35
0.0
146
0.0
 13
0.0
 23
0.0
 33
0.0
 16
0.0
 26
0.0
 36
0.0
 17
0.0
 27
0.0
 37
0.0
 76
     0
330
B
331
0
345
0
346
0
  0
DICTIONARY
  5
1E
102
{ACAD_REACTORS
330
19
102
}
100
AcDbDictionary
280
     0
281
     1
  3
Layout1
350
21
  3
Model
350
20
  0
DICTIONARY
  5
22
102
{ACAD_REACTORS
330
19
102
}
100
AcDbDictionary
280
     0
281
     1
  0
WIPEOUTVARIABLES
  5
23
100
AcDbWipeoutVariables
 70
     1
  0
ENDSEC
  0
EOF
