  0
SECTION
  2
HEADER
  9
$ACADVER
  1
AC1018
  9
$ACADMAINTVER
 70
     0
  9
$DWGCODEPAGE
  3
ANSI_1252
  9
$INSBASE
 10
0.0
 20
0.0
 30
0.0
  9
$EXTMIN
 10
1.000000000000000E+20
 20
1.000000000000000E+20
 30
1.000000000000000E+20
  9
$EXTMAX
 10
-1.000000000000000E+20
 20
-1.000000000000000E+20
 30
-1.000000000000000E+20
  9
$LIMMIN
 10
0.0
 20
0.0
  9
$LIMMAX
 10
12.0
 20
9.0
  9
$ORTHOMODE
 70
     0
  9
$REGENMODE
 70
     1
  9
$FILLMODE
 70
     1
  9
$QTEXTMODE
 70
     0
  9
$MIRRTEXT
 70
     1
  9
$LTSCALE
 40
1.0
  9
$ATTMODE
 70
     1
  9
$TEXTSIZE
 40
0.2
  9
$TRACEWID
 40
0.05
  9
$TEXTSTYLE
  7
Standard
  9
$CLAYER
  8
0
  9
$CELTYPE
  6
ByLayer
  9
$CECOLOR
 62
   256
  9
$CELTSCALE
 40
1.0
  9
$DISPSILH
 70
     0
  9
$DIMSCALE
 40
1.0
  9
$DIMASZ
 40
0.18
  9
$DIMEXO
 40
0.0625
  9
$DIMDLI
 40
0.38
  9
$DIMRND
 40
0.0
  9
$DIMDLE
 40
0.0
  9
$DIMEXE
 40
0.18
  9
$DIMTP
 40
0.0
  9
$DIMTM
 40
0.0
  9
$DIMTXT
 40
0.18
  9
$DIMCEN
 40
0.09
  9
$DIMTSZ
 40
0.0
  9
$DIMTOL
 70
     0
  9
$DIMLIM
 70
     0
  9
$DIMTIH
 70
     1
  9
$DIMTOH
 70
     1
  9
$DIMSE1
 70
     0
  9
$DIMSE2
 70
     0
  9
$DIMTAD
 70
     0
  9
$DIMZIN
 70
     0
  9
$DIMBLK
  1

  9
$DIMASO
 70
     1
  9
$DIMSHO
 70
     1
  9
$DIMPOST
  1

  9
$DIMAPOST
  1

  9
$DIMALT
 70
     0
  9
$DIMALTD
 70
     2
  9
$DIMALTF
 40
25.4
  9
$DIMLFAC
 40
1.0
  9
$DIMTOFL
 70
     0
  9
$DIMTVP
 40
0.0
  9
$DIMTIX
 70
     0
  9
$DIMSOXD
 70
     0
  9
$DIMSAH
 70
     0
  9
$DIMBLK1
  1

  9
$DIMBLK2
  1

  9
$DIMSTYLE
  2
Standard
  9
$DIMCLRD
 70
     0
  9
$DIMCLRE
 70
     0
  9
$DIMCLRT
 70
     0
  9
$DIMTFAC
 40
1.0
  9
$DIMGAP
 40
0.09
  9
$DIMJUST
 70
     0
  9
$DIMSD1
 70
     0
  9
$DIMSD2
 70
     0
  9
$DIMTOLJ
 70
     1
  9
$DIMTZIN
 70
     0
  9
$DIMALTZ
 70
     0
  9
$DIMALTTZ
 70
     0
  9
$DIMUPT
 70
     0
  9
$DIMDEC
 70
     4
  9
$DIMTDEC
 70
     4
  9
$DIMALTU
 70
     2
  9
$DIMALTTD
 70
     2
  9
$DIMTXSTY
  7
Standard
  9
$DIMAUNIT
 70
     0
  9
$DIMADEC
 70
     0
  9
$DIMALTRND
 40
0.0
  9
$DIMAZIN
 70
     0
  9
$DIMDSEP
 70
    46
  9
$DIMATFIT
 70
     3
  9
$DIMFRAC
 70
     0
  9
$DIMLDRBLK
  1

  9
$DIMLUNIT
 70
     2
  9
$DIMLWD
 70
    -2
  9
$DIMLWE
 70
    -2
  9
$DIMTMOVE
 70
     0
  9
$LUNITS
 70
     2
  9
$LUPREC
 70
     4
  9
$SKETCHINC
 40
0.1
  9
$FILLETRAD
 40
0.5
  9
$AUNITS
 70
     0
  9
$AUPREC
 70
     0
  9
$MENU
  1
.
  9
$ELEVATION
 40
0.0
  9
$PELEVATION
 40
0.0
  9
$THICKNESS
 40
0.0
  9
$LIMCHECK
 70
     0
  9
$CHAMFERA
 40
0.5
  9
$CHAMFERB
 40
0.5
  9
$CHAMFERC
 40
1.0
  9
$CHAMFERD
 40
0.0
  9
$SKPOLY
 70
     0
  9
$TDCREATE
 40
2460002.969122662
  9
$TDUCREATE
 40
2460002.927455995
  9
$TDUPDATE
 40
2460002.969122673
  9
$TDUUPDATE
 40
2460002.927456007
  9
$TDINDWG
 40
0.0000000116
  9
$TDUSRTIMER
 40
0.0000000116
  9
$USRTIMER
 70
     1
  9
$ANGBASE
 50
0.0
  9
$ANGDIR
 70
     0
  9
$PDMODE
 70
     0
  9
$PDSIZE
 40
0.0
  9
$PLINEWID
 40
0.0
  9
$SPLFRAME
 70
     0
  9
$SPLINETYPE
 70
     6
  9
$SPLINESEGS
 70
     8
  9
$HANDSEED
  5
126
  9
$SURFTAB1
 70
     6
  9
$SURFTAB2
 70
     6
  9
$SURFTYPE
 70
     6
  9
$SURFU
 70
     6
  9
$SURFV
 70
     6
  9
$UCSBASE
  2

  9
$UCSNAME
  2

  9
$UCSORG
 10
0.0
 20
0.0
 30
0.0
  9
$UCSXDIR
 10
1.0
 20
0.0
 30
0.0
  9
$UCSYDIR
 10
0.0
 20
1.0
 30
0.0
  9
$UCSORTHOREF
  2

  9
$UCSORTHOVIEW
 70
     0
  9
$UCSORGTOP
 10
0.0
 20
0.0
 30
0.0
  9
$UCSORGBOTTOM
 10
0.0
 20
0.0
 30
0.0
  9
$UCSORGLEFT
 10
0.0
 20
0.0
 30
0.0
  9
$UCSORGRIGHT
 10
0.0
 20
0.0
 30
0.0
  9
$UCSORGFRONT
 10
0.0
 20
0.0
 30
0.0
  9
$UCSORGBACK
 10
0.0
 20
0.0
 30
0.0
  9
$PUCSBASE
  2

  9
$PUCSNAME
  2

  9
$PUCSORG
 10
0.0
 20
0.0
 30
0.0
  9
$PUCSXDIR
 10
1.0
 20
0.0
 30
0.0
  9
$PUCSYDIR
 10
0.0
 20
1.0
 30
0.0
  9
$PUCSORTHOREF
  2

  9
$PUCSORTHOVIEW
 70
     0
  9
$PUCSORGTOP
 10
0.0
 20
0.0
 30
0.0
  9
$PUCSORGBOTTOM
 10
0.0
 20
0.0
 30
0.0
  9
$PUCSORGLEFT
 10
0.0
 20
0.0
 30
0.0
  9
$PUCSORGRIGHT
 10
0.0
 20
0.0
 30
0.0
  9
$PUCSORGFRONT
 10
0.0
 20
0.0
 30
0.0
  9
$PUCSORGBACK
 10
0.0
 20
0.0
 30
0.0
  9
$USERI1
 70
     0
  9
$USERI2
 70
     0
  9
$USERI3
 70
     0
  9
$USERI4
 70
     0
  9
$USERI5
 70
     0
  9
$USERR1
 40
0.0
  9
$USERR2
 40
0.0
  9
$USERR3
 40
0.0
  9
$USERR4
 40
0.0
  9
$USERR5
 40
0.0
  9
$WORLDVIEW
 70
     1
  9
$SHADEDGE
 70
     3
  9
$SHADEDIF
 70
    70
  9
$TILEMODE
 70
     1
  9
$MAXACTVP
 70
    64
  9
$PINSBASE
 10
0.0
 20
0.0
 30
0.0
  9
$PLIMCHECK
 70
     0
  9
$PEXTMIN
 10
1.000000000000000E+20
 20
1.000000000000000E+20
 30
1.000000000000000E+20
  9
$PEXTMAX
 10
-1.000000000000000E+20
 20
-1.000000000000000E+20
 30
-1.000000000000000E+20
  9
$PLIMMIN
 10
0.0
 20
0.0
  9
$PLIMMAX
 10
12.0
 20
9.0
  9
$UNITMODE
 70
     0
  9
$VISRETAIN
 70
     1
  9
$PLINEGEN
 70
     0
  9
$PSLTSCALE
 70
     1
  9
$TREEDEPTH
 70
  3020
  9
$CMLSTYLE
  2
Standard
  9
$CMLJUST
 70
     0
  9
$CMLSCALE
 40
1.0
  9
$PROXYGRAPHICS
 70
     1
  9
$MEASUREMENT
 70
     0
  9
$CELWEIGHT
370
    -1
  9
$ENDCAPS
280
     0
  9
$JOINSTYLE
280
     0
  9
$LWDISPLAY
290
     1
  9
$INSUNITS
 70
     1
  9
$HYPERLINKBASE
  1

  9
$STYLESHEET
  1

  9
$XEDIT
290
     1
  9
$CEPSNTYPE
380
     0
  9
$PSTYLEMODE
290
     1
  9
$FINGERPRINTGUID
  2
{A78FA143-A786-48B3-B461-3CC22A69C031}
  9
$VERSIONGUID
  2
{FAEB1C32-E019-11D5-929B-00C0DF256EC4}
  9
$EXTNAMES
290
     1
  9
$PSVPSCALE
 40
0.0
  9
$OLESTARTUP
290
     0
  9
$SORTENTS
280
   127
  9
$INDEXCTL
280
     0
  9
$HIDETEXT
280
     1
  9
$XCLIPFRAME
290
     0
  9
$HALOGAP
280
     0
  9
$OBSCOLOR
 70
   257
  9
$OBSLTYPE
280
     0
  9
$INTERSECTIONDISPLAY
280
     0
  9
$INTERSECTIONCOLOR
 70
   257
  9
$DIMASSOC
280
     2
  9
$PROJECTNAME
  1

  0
ENDSEC
  0
SECTION
  2
CLASSES
  0
CLASS
  1
ACDBDICTIONARYWDFLT
  2
AcDbDictionaryWithDefault
  3
ObjectDBX Classes
 90
        0
 91
        3
280
     0
281
     0
  0
CLASS
  1
VISUALSTYLE
  2
AcDbVisualStyle
  3
ObjectDBX Classes
 90
     4095
 91
        3
280
     0
281
     0
  0
ENDSEC
  0
SECTION
  2
TABLES
  0
TABLE
  2
VPORT
  5
8
330
0
100
AcDbSymbolTable
 70
     1
  0
VPORT
  5
29
330
8
100
AcDbSymbolTableRecord
100
AcDbViewportTableRecord
  2
*Active
 70
     0
 10
0.0
 20
0.0
 11
1.0
 21
1.0
 12
0.0
 22
0.0
 13
0.0
 23
0.0
 14
0.5
 24
0.5
 15
0.5
 25
0.5
 16
0.0
 26
0.0
 36
1.0
 17
500.0008326657984
 27
-149.9992851730037
 37
0.0
 40
299.9985703460073
 41
3.333354769585174
 42
50.0
 43
0.0
 44
0.0
 50
0.0
 51
0.0
 71
     0
 72
   100
 73
     1
 74
     3
 75
     0
 76
     0
 77
     0
 78
     0
281
     0
 65
     1
110
0.0
120
0.0
130
0.0
111
1.0
121
0.0
131
0.0
112
0.0
122
1.0
132
0.0
 79
     0
146
0.0
  0
ENDTAB
  0
TABLE
  2
LTYPE
  5
5
330
0
100
AcDbSymbolTable
 70
     5
  0
LTYPE
  5
14
330
5
100
AcDbSymbolTableRecord
100
AcDbLinetypeTableRecord
  2
ByBlock
 70
     0
  3

 72
    65
 73
     0
 40
0.0
  0
LTYPE
  5
15
330
5
100
AcDbSymbolTableRecord
100
AcDbLinetypeTableRecord
  2
ByLayer
 70
     0
  3

 72
    65
 73
     0
 40
0.0
  0
LTYPE
  5
16
330
5
100
AcDbSymbolTableRecord
100
AcDbLinetypeTableRecord
  2
Continuous
 70
     0
  3
Solid line
 72
    65
 73
     0
 40
0.0
  0
LTYPE
  5
41
330
5
100
AcDbSymbolTableRecord
100
AcDbLinetypeTableRecord
  2
AI-Linetype-1
 70
     0
  3
Adobe Illustrator Linetype No. 1
 72
    65
 73
     2
 40
3.527777776895833
 49
1.763888888447917
 74
     0
 49
-1.763888888447917
 74
     0
  0
LTYPE
  5
46
330
5
100
AcDbSymbolTableRecord
100
AcDbLinetypeTableRecord
  2
AI-Linetype-2
 70
     0
  3
Adobe Illustrator Linetype No. 2
 72
    65
 73
     2
 40
3.527777776895833
 49
1.763888888447917
 74
     0
 49
-1.763888888447917
 74
     0
  0
LTYPE
  5
50
330
5
100
AcDbSymbolTableRecord
100
AcDbLinetypeTableRecord
  2
AI-Linetype-3
 70
     0
  3
Adobe Illustrator Linetype No. 3
 72
    65
 73
     2
 40
3.527777776895833
 49
1.763888888447917
 74
     0
 49
-1.763888888447917
 74
     0
  0
LTYPE
  5
55
330
5
100
AcDbSymbolTableRecord
100
AcDbLinetypeTableRecord
  2
AI-Linetype-4
 70
     0
  3
Adobe Illustrator Linetype No. 4
 72
    65
 73
     2
 40
3.527777776895833
 49
1.763888888447917
 74
     0
 49
-1.763888888447917
 74
     0
  0
ENDTAB
  0
TABLE
  2
LAYER
  5
2
330
0
100
AcDbSymbolTable
 70
     2
  0
LAYER
  5
10
330
2
100
AcDbSymbolTableRecord
100
AcDbLayerTableRecord
  2
0
 70
     0
 62
     7
  6
Continuous
370
    -3
390
F
  0
LAYER
  5
3B
330
2
100
AcDbSymbolTableRecord
100
AcDbLayerTableRecord
  2
Calque 1
 70
     0
 62
     7
  6
Continuous
370
    -3
390
F
  0
ENDTAB
  0
TABLE
  2
STYLE
  5
3
330
0
100
AcDbSymbolTable
 70
     1
  0
STYLE
  5
11
330
3
100
AcDbSymbolTableRecord
100
AcDbTextStyleTableRecord
  2
Standard
 70
     0
 40
0.0
 41
1.0
 50
0.0
 71
     0
 42
0.2
  3
txt
  4

  0
ENDTAB
  0
TABLE
  2
VIEW
  5
6
330
0
100
AcDbSymbolTable
 70
     0
  0
ENDTAB
  0
TABLE
  2
UCS
  5
7
330
0
100
AcDbSymbolTable
 70
     0
  0
ENDTAB
  0
TABLE
  2
APPID
  5
9
330
0
100
AcDbSymbolTable
 70
     1
  0
APPID
  5
12
330
9
100
AcDbSymbolTableRecord
100
AcDbRegAppTableRecord
  2
ACAD
 70
     0
  0
ENDTAB
  0
TABLE
  2
DIMSTYLE
  5
A
330
0
100
AcDbSymbolTable
 70
     1
100
AcDbDimStyleTable
  0
DIMSTYLE
105
27
330
A
100
AcDbSymbolTableRecord
100
AcDbDimStyleTableRecord
  2
Standard
 70
     0
340
11
  0
ENDTAB
  0
TABLE
  2
BLOCK_RECORD
  5
1
330
0
100
AcDbSymbolTable
 70
    14
  0
BLOCK_RECORD
  5
1F
330
1
100
AcDbSymbolTableRecord
100
AcDbBlockTableRecord
  2
*Model_Space
340
22
  0
BLOCK_RECORD
  5
1B
330
1
100
AcDbSymbolTableRecord
100
AcDbBlockTableRecord
  2
*Paper_Space
340
1E
  0
BLOCK_RECORD
  5
23
330
1
100
AcDbSymbolTableRecord
100
AcDbBlockTableRecord
  2
*Paper_Space0
340
26
  0
BLOCK_RECORD
  5
47
330
1
100
AcDbSymbolTableRecord
100
AcDbBlockTableRecord
  2
block 2
340
0
102
{BLKREFS
331
48
102
}
  0
BLOCK_RECORD
  5
6C
330
1
100
AcDbSymbolTableRecord
100
AcDbBlockTableRecord
  2
block 3
340
0
102
{BLKREFS
331
6D
102
}
  0
BLOCK_RECORD
  5
72
330
1
100
AcDbSymbolTableRecord
100
AcDbBlockTableRecord
  2
block 4
340
0
102
{BLKREFS
331
73
102
}
  0
BLOCK_RECORD
  5
AD
330
1
100
AcDbSymbolTableRecord
100
AcDbBlockTableRecord
  2
block 5
340
0
102
{BLKREFS
331
AE
102
}
  0
BLOCK_RECORD
  5
B1
330
1
100
AcDbSymbolTableRecord
100
AcDbBlockTableRecord
  2
block 6
340
0
102
{BLKREFS
331
B2
102
}
  0
BLOCK_RECORD
  5
C4
330
1
100
AcDbSymbolTableRecord
100
AcDbBlockTableRecord
  2
block 7
340
0
102
{BLKREFS
331
C5
102
}
  0
BLOCK_RECORD
  5
CF
330
1
100
AcDbSymbolTableRecord
100
AcDbBlockTableRecord
  2
block 8
340
0
102
{BLKREFS
331
D0
102
}
  0
BLOCK_RECORD
  5
D3
330
1
100
AcDbSymbolTableRecord
100
AcDbBlockTableRecord
  2
block 9
340
0
102
{BLKREFS
331
D4
102
}
  0
BLOCK_RECORD
  5
E6
330
1
100
AcDbSymbolTableRecord
100
AcDbBlockTableRecord
  2
block 10
340
0
102
{BLKREFS
331
E7
102
}
  0
BLOCK_RECORD
  5
F1
330
1
100
AcDbSymbolTableRecord
100
AcDbBlockTableRecord
  2
block 11
340
0
102
{BLKREFS
331
F2
102
}
  0
BLOCK_RECORD
  5
F5
330
1
100
AcDbSymbolTableRecord
100
AcDbBlockTableRecord
  2
block 12
340
0
102
{BLKREFS
331
F6
102
}
  0
BLOCK_RECORD
  5
F9
330
1
100
AcDbSymbolTableRecord
100
AcDbBlockTableRecord
  2
block 13
340
0
102
{BLKREFS
331
FA
102
}
  0
BLOCK_RECORD
  5
10D
330
1
100
AcDbSymbolTableRecord
100
AcDbBlockTableRecord
  2
block 14
340
0
102
{BLKREFS
331
10E
102
}
  0
ENDTAB
  0
ENDSEC
  0
SECTION
  2
BLOCKS
  0
BLOCK
  5
20
330
1F
100
AcDbEntity
  8
0
100
AcDbBlockBegin
  2
*Model_Space
 70
     0
 71
     0
 10
0.0
 20
0.0
 30
0.0
  3
*Model_Space
  1

  0
ENDBLK
  5
21
330
1F
100
AcDbEntity
  8
0
100
AcDbBlockEnd
  0
BLOCK
  5
1C
330
1B
100
AcDbEntity
 67
     1
  8
0
100
AcDbBlockBegin
  2
*Paper_Space
 70
     0
 71
     0
 10
0.0
 20
0.0
 30
0.0
  3
*Paper_Space
  1

  0
ENDBLK
  5
1D
330
1B
100
AcDbEntity
 67
     1
  8
0
100
AcDbBlockEnd
  0
BLOCK
  5
24
330
23
100
AcDbEntity
  8
0
100
AcDbBlockBegin
  2
*Paper_Space0
 70
     0
 71
     0
 10
0.0
 20
0.0
 30
0.0
  3
*Paper_Space0
  1

  0
ENDBLK
  5
25
330
23
100
AcDbEntity
  8
0
100
AcDbBlockEnd
  0
BLOCK
  5
49
330
47
100
AcDbEntity
  8
0
100
AcDbBlockBegin
  2
block 2
 70
     0
 71
     0
 10
0.0
 20
0.0
 30
0.0
  3
block 2
  1

  0
SPLINE
  5
4B
330
47
100
AcDbEntity
  8
Calque 1
 62
   250
370
    35
100
AcDbSpline
210
0.0
220
0.0
230
1.0
 70
    11
 71
     3
 72
    35
 73
    31
 74
     0
 42
0.0000000001
 43
0.0000000001
 40
0.0
 40
0.0
 40
0.0
 40
0.0
 40
1.0
 40
1.0
 40
1.0
 40
2.0
 40
2.0
 40
2.0
 40
3.0
 40
3.0
 40
3.0
 40
4.0
 40
4.0
 40
4.0
 40
5.0
 40
5.0
 40
5.0
 40
6.0
 40
6.0
 40
6.0
 40
7.0
 40
7.0
 40
7.0
 40
8.0
 40
8.0
 40
8.0
 40
9.0
 40
9.0
 40
9.0
 40
10.0
 40
10.0
 40
10.0
 40
10.0
 10
576.3934134843739
 20
-38.1165364488042
 30
0.0
 10
576.3934134843739
 20
-38.1165364488042
 30
0.0
 10
635.646299754283
 20
-57.34705944746879
 30
0.0
 10
635.7475855615493
 20
-58.77608505475042
 30
0.0
 10
637.7588323058382
 20
-87.29079587661481
 30
0.0
 10
637.3895180698194
 20
-134.0720919803709
 30
0.0
 10
613.3151908188935
 20
-134.0720919803709
 30
0.0
 10
604.1222980260528
 20
-134.0720919803709
 30
0.0
 10
594.9170028894653
 20
-131.6343424150081
 30
0.0
 10
585.9191025010897
 20
-127.5071180236788
 30
0.0
 10
585.9191025010897
 20
-127.5071180236788
 30
0.0
 10
585.39820406372
 20
-127.2663058492598
 30
0.0
 10
585.39820406372
 20
-127.2663058492598
 30
0.0
 10
535.937657201085
 20
-104.2007025564151
 30
0.0
 10
492.8879162721773
 20
-33.2613633814416
 30
0.0
 10
492.8879162721773
 20
-33.2613633814416
 30
0.0
 10
492.8879162721773
 20
-33.2613633814416
 30
0.0
 10
492.8879162721773
 20
-6.625607637232488
 30
0.0
 10
492.8879162721773
 20
-6.625607637232488
 30
0.0
 10
492.8879162721773
 20
-6.625607637232488
 30
0.0
 10
552.52648098166
 20
-13.7576443107967
 30
0.0
 10
552.52648098166
 20
-13.7576443107967
 30
0.0
 10
552.52648098166
 20
-13.7576443107967
 30
0.0
 10
552.52648098166
 20
-34.67970919271896
 30
0.0
 10
552.52648098166
 20
-34.67970919271896
 30
0.0
 10
552.52648098166
 20
-34.67970919271896
 30
0.0
 10
575.4584145696771
 20
-34.67970919271896
 30
0.0
 10
575.4584145696771
 20
-34.67970919271896
 30
0.0
 10
575.4584145696771
 20
-34.67970919271896
 30
0.0
 10
576.3934134843739
 20
-38.1165364488042
 30
0.0
 10
576.3934134843739
 20
-38.1165364488042
 30
0.0
  0
POLYLINE
  5
4C
330
47
100
AcDbEntity
  8
Calque 1
  6
AI-Linetype-3
 62
   250
370
    18
100
AcDb2dPolyline
 66
     1
 10
0.0
 20
0.0
 30
0.0
  0
VERTEX
  5
4D
330
4C
100
AcDbEntity
  8
Calque 1
  6
AI-Linetype-3
 62
   250
370
    18
100
AcDbVertex
100
AcDb2dVertex
 10
575.4584145696771
 20
-34.67970919271896
 30
0.0
  0
VERTEX
  5
4E
330
4C
100
AcDbEntity
  8
Calque 1
  6
AI-Linetype-3
 62
   250
370
    18
100
AcDbVertex
100
AcDb2dVertex
 10
585.39820406372
 20
-127.2663058492598
 30
0.0
  0
SEQEND
  5
4F
330
4C
100
AcDbEntity
  8
Calque 1
  6
AI-Linetype-3
370
    18
  0
POLYLINE
  5
51
330
47
100
AcDbEntity
  8
Calque 1
  6
AI-Linetype-4
 62
   250
370
    18
100
AcDb2dPolyline
 66
     1
 10
0.0
 20
0.0
 30
0.0
  0
VERTEX
  5
52
330
51
100
AcDbEntity
  8
Calque 1
  6
AI-Linetype-4
 62
   250
370
    18
100
AcDbVertex
100
AcDb2dVertex
 10
585.9191025010897
 20
-127.5071180236788
 30
0.0
  0
VERTEX
  5
53
330
51
100
AcDbEntity
  8
Calque 1
  6
AI-Linetype-4
 62
   250
370
    18
100
AcDbVertex
100
AcDb2dVertex
 10
576.3934134843739
 20
-38.1165364488042
 30
0.0
  0
SEQEND
  5
54
330
51
100
AcDbEntity
  8
Calque 1
  6
AI-Linetype-4
370
    18
  0
ENDBLK
  5
4A
330
47
100
AcDbEntity
  8
0
100
AcDbBlockEnd
  0
BLOCK
  5
6E
330
6C
100
AcDbEntity
  8
0
100
AcDbBlockBegin
  2
block 3
 70
     0
 71
     0
 10
0.0
 20
0.0
 30
0.0
  3
block 3
  1

  0
SPLINE
  5
70
330
6C
100
AcDbEntity
  8
Calque 1
 62
   250
370
    35
100
AcDbSpline
210
0.0
220
0.0
230
1.0
 70
    11
 71
     3
 72
    20
 73
    16
 74
     0
 42
0.0000000001
 43
0.0000000001
 40
0.0
 40
0.0
 40
0.0
 40
0.0
 40
1.0
 40
1.0
 40
1.0
 40
2.0
 40
2.0
 40
2.0
 40
3.0
 40
3.0
 40
3.0
 40
4.0
 40
4.0
 40
4.0
 40
5.0
 40
5.0
 40
5.0
 40
5.0
 10
907.4095565222796
 20
-84.4949286355603
 30
0.0
 10
907.4095565222796
 20
-84.4949286355603
 30
0.0
 10
878.2637042075174
 20
-55.34873181124963
 30
0.0
 10
878.2637042075174
 20
-55.34873181124963
 30
0.0
 10
877.5233531877373
 20
-55.60022378167287
 30
0.0
 10
876.7830021679571
 20
-55.85516084758135
 30
0.0
 10
876.0423066386284
 20
-56.11423202807214
 30
0.0
 10
862.2099037558017
 20
-60.95252412755701
 30
0.0
 10
851.437434682974
 20
-66.02232664365067
 30
0.0
 10
844.0249672369105
 20
-71.1827351710064
 30
0.0
 10
837.5819496603962
 20
-75.66824949280169
 30
0.0
 10
833.8240395050857
 20
-80.13516029897663
 30
0.0
 10
832.8146265279075
 20
-84.4949286355603
 30
0.0
 10
832.8146265279075
 20
-84.4949286355603
 30
0.0
 10
907.4095565222796
 20
-84.4949286355603
 30
0.0
 10
907.4095565222796
 20
-84.4949286355603
 30
0.0
  0
SPLINE
  5
71
330
6C
100
AcDbEntity
  8
Calque 1
 62
   250
370
    35
100
AcDbSpline
210
0.0
220
0.0
230
1.0
 70
    11
 71
     3
 72
    17
 73
    13
 74
     0
 42
0.0000000001
 43
0.0000000001
 40
0.0
 40
0.0
 40
0.0
 40
0.0
 40
1.0
 40
1.0
 40
1.0
 40
2.0
 40
2.0
 40
2.0
 40
3.0
 40
3.0
 40
3.0
 40
4.0
 40
4.0
 40
4.0
 40
4.0
 10
832.5555553474167
 20
-87.49491778411586
 30
0.0
 10
832.8800833421273
 20
-93.23375784344503
 30
0.0
 10
837.7473142436883
 20
-98.44377574578837
 30
0.0
 10
847.03804774831
 20
-102.989234729027
 30
0.0
 10
855.2432316655295
 20
-107.0038044979886
 30
0.0
 10
866.8521699221759
 20
-110.4664699702133
 30
0.0
 10
881.5999346754334
 20
-113.3052286500591
 30
0.0
 10
881.5999346754334
 20
-113.3052286500591
 30
0.0
 10
907.4102455413766
 20
-87.49491778411586
 30
0.0
 10
907.4102455413766
 20
-87.49491778411586
 30
0.0
 10
907.4102455413766
 20
-87.49491778411586
 30
0.0
 10
832.5555553474167
 20
-87.49491778411586
 30
0.0
 10
832.5555553474167
 20
-87.49491778411586
 30
0.0
  0
ENDBLK
  5
6F
330
6C
100
AcDbEntity
  8
0
100
AcDbBlockEnd
  0
BLOCK
  5
74
330
72
100
AcDbEntity
  8
0
100
AcDbBlockBegin
  2
block 4
 70
     0
 71
     0
 10
0.0
 20
0.0
 30
0.0
  3
block 4
  1

  0
SPLINE
  5
76
330
72
100
AcDbEntity
  8
Calque 1
 62
   250
370
    35
100
AcDbSpline
210
0.0
220
0.0
230
1.0
 70
    11
 71
     3
 72
    20
 73
    16
 74
     0
 42
0.0000000001
 43
0.0000000001
 40
0.0
 40
0.0
 40
0.0
 40
0.0
 40
1.0
 40
1.0
 40
1.0
 40
2.0
 40
2.0
 40
2.0
 40
3.0
 40
3.0
 40
3.0
 40
4.0
 40
4.0
 40
4.0
 40
5.0
 40
5.0
 40
5.0
 40
5.0
 10
914.1326603617447
 20
-84.4949286355603
 30
0.0
 10
914.1326603617447
 20
-84.4949286355603
 30
0.0
 10
943.2785126765068
 20
-55.34873181124963
 30
0.0
 10
943.2785126765068
 20
-55.34873181124963
 30
0.0
 10
944.018863696287
 20
-55.60022378167287
 30
0.0
 10
944.7592147160672
 20
-55.85516084758135
 30
0.0
 10
945.4995657358473
 20
-56.11423202807214
 30
0.0
 10
959.3323131282225
 20
-60.95252412755701
 30
0.0
 10
970.1044376915017
 20
-66.02232664365067
 30
0.0
 10
977.5172496471138
 20
-71.1827351710064
 30
0.0
 10
983.9602672236281
 20
-75.66824949280169
 30
0.0
 10
987.7181773789385
 20
-80.13516029897663
 30
0.0
 10
988.7272458465683
 20
-84.4949286355603
 30
0.0
 10
988.7272458465683
 20
-84.4949286355603
 30
0.0
 10
914.1326603617447
 20
-84.4949286355603
 30
0.0
 10
914.1326603617447
 20
-84.4949286355603
 30
0.0
  0
SPLINE
  5
77
330
72
100
AcDbEntity
  8
Calque 1
 62
   250
370
    35
100
AcDbSpline
210
0.0
220
0.0
230
1.0
 70
    11
 71
     3
 72
    17
 73
    13
 74
     0
 42
0.0000000001
 43
0.0000000001
 40
0.0
 40
0.0
 40
0.0
 40
0.0
 40
1.0
 40
1.0
 40
1.0
 40
2.0
 40
2.0
 40
2.0
 40
3.0
 40
3.0
 40
3.0
 40
4.0
 40
4.0
 40
4.0
 40
4.0
 10
988.986317027059
 20
-87.49491778411586
 30
0.0
 10
988.6617890323485
 20
-93.23375784344503
 30
0.0
 10
983.7945581307875
 20
-98.44377574578837
 30
0.0
 10
974.5041691357143
 20
-102.989234729027
 30
0.0
 10
966.2989852184947
 20
-107.0038044979886
 30
0.0
 10
954.6897024522998
 20
-110.4664699702133
 30
0.0
 10
939.9422822085909
 20
-113.3052286500591
 30
0.0
 10
939.9422822085909
 20
-113.3052286500591
 30
0.0
 10
914.1319713426476
 20
-87.49491778411586
 30
0.0
 10
914.1319713426476
 20
-87.49491778411586
 30
0.0
 10
914.1319713426476
 20
-87.49491778411586
 30
0.0
 10
988.986317027059
 20
-87.49491778411586
 30
0.0
 10
988.986317027059
 20
-87.49491778411586
 30
0.0
  0
ENDBLK
  5
75
330
72
100
AcDbEntity
  8
0
100
AcDbBlockEnd
  0
BLOCK
  5
AF
330
AD
100
AcDbEntity
  8
0
100
AcDbBlockBegin
  2
block 5
 70
     0
 71
     0
 10
0.0
 20
0.0
 30
0.0
  3
block 5
  1

  0
INSERT
  5
B2
330
AD
100
AcDbEntity
  8
Calque 1
100
AcDbBlockReference
  2
block 6
 10
0.0
 20
0.0
 30
0.0
  0
INSERT
  5
C5
330
AD
100
AcDbEntity
  8
Calque 1
100
AcDbBlockReference
  2
block 7
 10
0.0
 20
0.0
 30
0.0
  0
ENDBLK
  5
B0
330
AD
100
AcDbEntity
  8
0
100
AcDbBlockEnd
  0
BLOCK
  5
B3
330
B1
100
AcDbEntity
  8
0
100
AcDbBlockBegin
  2
block 6
 70
     0
 71
     0
 10
0.0
 20
0.0
 30
0.0
  3
block 6
  1

  0
POLYLINE
  5
B5
330
B1
100
AcDbEntity
  8
Calque 1
 62
   250
370
    35
100
AcDb2dPolyline
 66
     1
 10
0.0
 20
0.0
 30
0.0
  0
VERTEX
  5
B6
330
B5
100
AcDbEntity
  8
Calque 1
 62
   250
370
    35
100
AcDbVertex
100
AcDb2dVertex
 10
135.5431477525726
 20
-80.98248153357383
 30
0.0
  0
VERTEX
  5
B7
330
B5
100
AcDbEntity
  8
Calque 1
 62
   250
370
    35
100
AcDbVertex
100
AcDb2dVertex
 10
135.5431477525726
 20
-50.98259004801825
 30
0.0
  0
VERTEX
  5
B8
330
B5
100
AcDbEntity
  8
Calque 1
 62
   250
370
    35
100
AcDbVertex
100
AcDb2dVertex
 10
138.0429090366698
 20
-50.98259004801825
 30
0.0
  0
VERTEX
  5
B9
330
B5
100
AcDbEntity
  8
Calque 1
 62
   250
370
    35
100
AcDbVertex
100
AcDb2dVertex
 10
138.0429090366698
 20
-80.98248153357383
 30
0.0
  0
VERTEX
  5
BA
330
B5
100
AcDbEntity
  8
Calque 1
 62
   250
370
    35
100
AcDbVertex
100
AcDb2dVertex
 10
135.5431477525726
 20
-80.98248153357383
 30
0.0
  0
SEQEND
  5
BB
330
B5
100
AcDbEntity
  8
Calque 1
370
    35
  0
POLYLINE
  5
BC
330
B1
100
AcDbEntity
  8
Calque 1
 62
   250
370
    35
100
AcDb2dPolyline
 66
     1
 10
0.0
 20
0.0
 30
0.0
  0
VERTEX
  5
BD
330
BC
100
AcDbEntity
  8
Calque 1
 62
   250
370
    35
100
AcDbVertex
100
AcDb2dVertex
 10
410.5323919329572
 20
-80.98248153357383
 30
0.0
  0
VERTEX
  5
BE
330
BC
100
AcDbEntity
  8
Calque 1
 62
   250
370
    35
100
AcDbVertex
100
AcDb2dVertex
 10
410.5323919329572
 20
-50.98259004801825
 30
0.0
  0
VERTEX
  5
BF
330
BC
100
AcDbEntity
  8
Calque 1
 62
   250
370
    35
100
AcDbVertex
100
AcDb2dVertex
 10
408.0329751584084
 20
-50.98259004801825
 30
0.0
  0
VERTEX
  5
C0
330
BC
100
AcDbEntity
  8
Calque 1
 62
   250
370
    35
100
AcDbVertex
100
AcDb2dVertex
 10
408.0329751584084
 20
-80.98248153357383
 30
0.0
  0
VERTEX
  5
C1
330
BC
100
AcDbEntity
  8
Calque 1
 62
   250
370
    35
100
AcDbVertex
100
AcDb2dVertex
 10
410.5323919329572
 20
-80.98248153357383
 30
0.0
  0
SEQEND
  5
C2
330
BC
100
AcDbEntity
  8
Calque 1
370
    35
  0
SPLINE
  5
C3
330
B1
100
AcDbEntity
  8
Calque 1
 62
   250
370
    35
100
AcDbSpline
210
0.0
220
0.0
230
1.0
 70
    11
 71
     3
 72
    29
 73
    25
 74
     0
 42
0.0000000001
 43
0.0000000001
 40
0.0
 40
0.0
 40
0.0
 40
0.0
 40
1.0
 40
1.0
 40
1.0
 40
2.0
 40
2.0
 40
2.0
 40
3.0
 40
3.0
 40
3.0
 40
4.0
 40
4.0
 40
4.0
 40
5.0
 40
5.0
 40
5.0
 40
6.0
 40
6.0
 40
6.0
 40
7.0
 40
7.0
 40
7.0
 40
8.0
 40
8.0
 40
8.0
 40
8.0
 10
452.4250975431437
 20
-149.9949788036471
 30
0.0
 10
452.4250975431437
 20
-149.9949788036471
 30
0.0
 10
533.041709936184
 20
-148.5421820375173
 30
0.0
 10
533.041709936184
 20
-117.3998968890528
 30
0.0
 10
533.041709936184
 20
-42.60136175150244
 30
0.0
 10
383.4401610369525
 20
-9.744452580029165
 30
0.0
 10
305.502799402791
 20
-9.744452580029165
 30
0.0
 10
305.502799402791
 20
-9.744452580029165
 30
0.0
 10
273.0475883648978
 20
-9.744452580029165
 30
0.0
 10
273.0475883648978
 20
-9.744452580029165
 30
0.0
 10
273.0475883648978
 20
-9.744452580029165
 30
0.0
 10
240.5930663461018
 20
-9.744452580029165
 30
0.0
 10
240.5930663461018
 20
-9.744452580029165
 30
0.0
 10
162.6536376546491
 20
-9.744452580029165
 30
0.0
 10
13.04623209309261
 20
-42.60136175150244
 30
0.0
 10
13.04623209309261
 20
-117.3998968890528
 30
0.0
 10
13.04623209309261
 20
-148.5421820375173
 30
0.0
 10
93.66491154342405
 20
-149.9949788036471
 30
0.0
 10
93.66491154342405
 20
-149.9949788036471
 30
0.0
 10
93.66491154342405
 20
-149.9949788036471
 30
0.0
 10
273.0475883648978
 20
-141.7453531546678
 30
0.0
 10
273.0475883648978
 20
-141.7453531546678
 30
0.0
 10
273.0475883648978
 20
-141.7453531546678
 30
0.0
 10
452.4250975431437
 20
-149.9949788036471
 30
0.0
 10
452.4250975431437
 20
-149.9949788036471
 30
0.0
  0
ENDBLK
  5
B4
330
B1
100
AcDbEntity
  8
0
100
AcDbBlockEnd
  0
BLOCK
  5
C6
330
C4
100
AcDbEntity
  8
0
100
AcDbBlockBegin
  2
block 7
 70
     0
 71
     0
 10
0.0
 20
0.0
 30
0.0
  3
block 7
  1

  0
POLYLINE
  5
C8
330
C4
100
AcDbEntity
  8
Calque 1
 62
   250
370
    35
100
AcDb2dPolyline
 66
     1
 10
0.0
 20
0.0
 30
0.0
  0
VERTEX
  5
C9
330
C8
100
AcDbEntity
  8
Calque 1
 62
   250
370
    35
100
AcDbVertex
100
AcDb2dVertex
 10
272.7625067134934
 20
-134.2209201053337
 30
0.0
  0
VERTEX
  5
CA
330
C8
100
AcDbEntity
  8
Calque 1
 62
   250
370
    35
100
AcDbVertex
100
AcDb2dVertex
 10
272.2624511038094
 20
-55.89925806979255
 30
0.0
  0
VERTEX
  5
CB
330
C8
100
AcDbEntity
  8
Calque 1
 62
   250
370
    35
100
AcDbVertex
100
AcDb2dVertex
 10
272.7625067134934
 20
-16.00987548427878
 30
0.0
  0
VERTEX
  5
CC
330
C8
100
AcDbEntity
  8
Calque 1
 62
   250
370
    35
100
AcDbVertex
100
AcDb2dVertex
 10
273.2625623231774
 20
-55.89925806979255
 30
0.0
  0
VERTEX
  5
CD
330
C8
100
AcDbEntity
  8
Calque 1
 62
   250
370
    35
100
AcDbVertex
100
AcDb2dVertex
 10
272.7625067134934
 20
-134.2209201053337
 30
0.0
  0
SEQEND
  5
CE
330
C8
100
AcDbEntity
  8
Calque 1
370
    35
  0
ENDBLK
  5
C7
330
C4
100
AcDbEntity
  8
0
100
AcDbBlockEnd
  0
BLOCK
  5
D1
330
CF
100
AcDbEntity
  8
0
100
AcDbBlockBegin
  2
block 8
 70
     0
 71
     0
 10
0.0
 20
0.0
 30
0.0
  3
block 8
  1

  0
INSERT
  5
D4
330
CF
100
AcDbEntity
  8
Calque 1
100
AcDbBlockReference
  2
block 9
 10
0.0
 20
0.0
 30
0.0
  0
INSERT
  5
E7
330
CF
100
AcDbEntity
  8
Calque 1
100
AcDbBlockReference
  2
block 10
 10
0.0
 20
0.0
 30
0.0
  0
ENDBLK
  5
D2
330
CF
100
AcDbEntity
  8
0
100
AcDbBlockEnd
  0
BLOCK
  5
D5
330
D3
100
AcDbEntity
  8
0
100
AcDbBlockBegin
  2
block 9
 70
     0
 71
     0
 10
0.0
 20
0.0
 30
0.0
  3
block 9
  1

  0
POLYLINE
  5
D7
330
D3
100
AcDbEntity
  8
Calque 1
 62
   250
370
    35
100
AcDb2dPolyline
 66
     1
 10
0.0
 20
0.0
 30
0.0
  0
VERTEX
  5
D8
330
D7
100
AcDbEntity
  8
Calque 1
 62
   250
370
    35
100
AcDbVertex
100
AcDb2dVertex
 10
185.5431965681975
 20
-221.0600639638322
 30
0.0
  0
VERTEX
  5
D9
330
D7
100
AcDbEntity
  8
Calque 1
 62
   250
370
    35
100
AcDbVertex
100
AcDb2dVertex
 10
185.5431965681975
 20
-191.0601724782766
 30
0.0
  0
VERTEX
  5
DA
330
D7
100
AcDbEntity
  8
Calque 1
 62
   250
370
    35
100
AcDbVertex
100
AcDb2dVertex
 10
188.0429578522948
 20
-191.0601724782766
 30
0.0
  0
VERTEX
  5
DB
330
D7
100
AcDbEntity
  8
Calque 1
 62
   250
370
    35
100
AcDbVertex
100
AcDb2dVertex
 10
188.0429578522948
 20
-221.0600639638322
 30
0.0
  0
VERTEX
  5
DC
330
D7
100
AcDbEntity
  8
Calque 1
 62
   250
370
    35
100
AcDbVertex
100
AcDb2dVertex
 10
185.5431965681975
 20
-221.0600639638322
 30
0.0
  0
SEQEND
  5
DD
330
D7
100
AcDbEntity
  8
Calque 1
370
    35
  0
POLYLINE
  5
DE
330
D3
100
AcDbEntity
  8
Calque 1
 62
   250
370
    35
100
AcDb2dPolyline
 66
     1
 10
0.0
 20
0.0
 30
0.0
  0
VERTEX
  5
DF
330
DE
100
AcDbEntity
  8
Calque 1
 62
   250
370
    35
100
AcDbVertex
100
AcDb2dVertex
 10
460.5324407485822
 20
-221.0600639638322
 30
0.0
  0
VERTEX
  5
E0
330
DE
100
AcDbEntity
  8
Calque 1
 62
   250
370
    35
100
AcDbVertex
100
AcDb2dVertex
 10
460.5324407485822
 20
-191.0601724782766
 30
0.0
  0
VERTEX
  5
E1
330
DE
100
AcDbEntity
  8
Calque 1
 62
   250
370
    35
100
AcDbVertex
100
AcDb2dVertex
 10
458.0330239740334
 20
-191.0601724782766
 30
0.0
  0
VERTEX
  5
E2
330
DE
100
AcDbEntity
  8
Calque 1
 62
   250
370
    35
100
AcDbVertex
100
AcDb2dVertex
 10
458.0330239740334
 20
-221.0600639638322
 30
0.0
  0
VERTEX
  5
E3
330
DE
100
AcDbEntity
  8
Calque 1
 62
   250
370
    35
100
AcDbVertex
100
AcDb2dVertex
 10
460.5324407485822
 20
-221.0600639638322
 30
0.0
  0
SEQEND
  5
E4
330
DE
100
AcDbEntity
  8
Calque 1
370
    35
  0
SPLINE
  5
E5
330
D3
100
AcDbEntity
  8
Calque 1
 62
   250
370
    35
100
AcDbSpline
210
0.0
220
0.0
230
1.0
 70
    11
 71
     3
 72
    29
 73
    25
 74
     0
 42
0.0000000001
 43
0.0000000001
 40
0.0
 40
0.0
 40
0.0
 40
0.0
 40
1.0
 40
1.0
 40
1.0
 40
2.0
 40
2.0
 40
2.0
 40
3.0
 40
3.0
 40
3.0
 40
4.0
 40
4.0
 40
4.0
 40
5.0
 40
5.0
 40
5.0
 40
6.0
 40
6.0
 40
6.0
 40
7.0
 40
7.0
 40
7.0
 40
8.0
 40
8.0
 40
8.0
 40
8.0
 10
536.9215764716724
 20
-290.245505027265
 30
0.0
 10
536.9215764716724
 20
-290.245505027265
 30
0.0
 10
633.041807567434
 20
-288.7927082611351
 30
0.0
 10
633.041807567434
 20
-257.6504231126708
 30
0.0
 10
633.041807567434
 20
-182.8518879751204
 30
0.0
 10
454.669577251784
 20
-149.9949788036471
 30
0.0
 10
361.7443277090431
 20
-149.9949788036471
 30
0.0
 10
361.7443277090431
 20
-149.9949788036471
 30
0.0
 10
323.0479816900714
 20
-149.9949788036471
 30
0.0
 10
323.0479816900714
 20
-149.9949788036471
 30
0.0
 10
323.0479816900714
 20
-149.9949788036471
 30
0.0
 10
284.3518079258739
 20
-149.9949788036471
 30
0.0
 10
284.3518079258739
 20
-149.9949788036471
 30
0.0
 10
191.4241468162933
 20
-149.9949788036471
 30
0.0
 10
13.04640434786687
 20
-182.8518879751204
 30
0.0
 10
13.04640434786687
 20
-257.6504231126708
 30
0.0
 10
13.04640434786687
 20
-288.7927082611351
 30
0.0
 10
109.1683579913711
 20
-290.245505027265
 30
0.0
 10
109.1683579913711
 20
-290.245505027265
 30
0.0
 10
109.1683579913711
 20
-290.245505027265
 30
0.0
 10
323.0479816900714
 20
-281.9958793782858
 30
0.0
 10
323.0479816900714
 20
-281.9958793782858
 30
0.0
 10
323.0479816900714
 20
-281.9958793782858
 30
0.0
 10
536.9215764716724
 20
-290.245505027265
 30
0.0
 10
536.9215764716724
 20
-290.245505027265
 30
0.0
  0
ENDBLK
  5
D6
330
D3
100
AcDbEntity
  8
0
100
AcDbBlockEnd
  0
BLOCK
  5
E8
330
E6
100
AcDbEntity
  8
0
100
AcDbBlockBegin
  2
block 10
 70
     0
 71
     0
 10
0.0
 20
0.0
 30
0.0
  3
block 10
  1

  0
POLYLINE
  5
EA
330
E6
100
AcDbEntity
  8
Calque 1
 62
   250
370
    35
100
AcDb2dPolyline
 66
     1
 10
0.0
 20
0.0
 30
0.0
  0
VERTEX
  5
EB
330
EA
100
AcDbEntity
  8
Calque 1
 62
   250
370
    35
100
AcDbVertex
100
AcDb2dVertex
 10
323.0462591423287
 20
-274.1820583081906
 30
0.0
  0
VERTEX
  5
EC
330
EA
100
AcDbEntity
  8
Calque 1
 62
   250
370
    35
100
AcDbVertex
100
AcDb2dVertex
 10
322.5462035326447
 20
-195.8605685274238
 30
0.0
  0
VERTEX
  5
ED
330
EA
100
AcDbEntity
  8
Calque 1
 62
   250
370
    35
100
AcDbVertex
100
AcDb2dVertex
 10
323.0462591423287
 20
-155.97118594191
 30
0.0
  0
VERTEX
  5
EE
330
EA
100
AcDbEntity
  8
Calque 1
 62
   250
370
    35
100
AcDbVertex
100
AcDb2dVertex
 10
323.5463147520127
 20
-195.8605685274238
 30
0.0
  0
VERTEX
  5
EF
330
EA
100
AcDbEntity
  8
Calque 1
 62
   250
370
    35
100
AcDbVertex
100
AcDb2dVertex
 10
323.0462591423287
 20
-274.1820583081906
 30
0.0
  0
SEQEND
  5
F0
330
EA
100
AcDbEntity
  8
Calque 1
370
    35
  0
ENDBLK
  5
E9
330
E6
100
AcDbEntity
  8
0
100
AcDbBlockEnd
  0
BLOCK
  5
F3
330
F1
100
AcDbEntity
  8
0
100
AcDbBlockBegin
  2
block 11
 70
     0
 71
     0
 10
0.0
 20
0.0
 30
0.0
  3
block 11
  1

  0
INSERT
  5
F6
330
F1
100
AcDbEntity
  8
Calque 1
100
AcDbBlockReference
  2
block 12
 10
0.0
 20
0.0
 30
0.0
  0
SPLINE
  5
11C
330
F1
100
AcDbEntity
  8
Calque 1
 62
   250
370
    35
100
AcDbSpline
210
0.0
220
0.0
230
1.0
 70
    11
 71
     3
 72
    17
 73
    13
 74
     0
 42
0.0000000001
 43
0.0000000001
 40
0.0
 40
0.0
 40
0.0
 40
0.0
 40
1.0
 40
1.0
 40
1.0
 40
2.0
 40
2.0
 40
2.0
 40
3.0
 40
3.0
 40
3.0
 40
4.0
 40
4.0
 40
4.0
 40
4.0
 10
787.7651799245865
 20
-262.0749592443771
 30
0.0
 10
789.1459741950747
 20
-262.0749592443771
 30
0.0
 10
790.2652857182323
 20
-262.5228216574596
 30
0.0
 10
790.2652857182323
 20
-263.0747259541966
 30
0.0
 10
790.2652857182323
 20
-263.6273192700307
 30
0.0
 10
789.1459741950747
 20
-264.0751816831132
 30
0.0
 10
787.7651799245865
 20
-264.0751816831132
 30
0.0
 10
786.3843856540984
 20
-264.0751816831132
 30
0.0
 10
785.2654186404892
 20
-263.6273192700307
 30
0.0
 10
785.2654186404892
 20
-263.0747259541966
 30
0.0
 10
785.2654186404892
 20
-262.5228216574596
 30
0.0
 10
786.3843856540984
 20
-262.0749592443771
 30
0.0
 10
787.7651799245865
 20
-262.0749592443771
 30
0.0
  0
SPLINE
  5
11D
330
F1
100
AcDbEntity
  8
Calque 1
 62
   250
370
    35
100
AcDbSpline
210
0.0
220
0.0
230
1.0
 70
    11
 71
     3
 72
    17
 73
    13
 74
     0
 42
0.0000000001
 43
0.0000000001
 40
0.0
 40
0.0
 40
0.0
 40
0.0
 40
1.0
 40
1.0
 40
1.0
 40
2.0
 40
2.0
 40
2.0
 40
3.0
 40
3.0
 40
3.0
 40
4.0
 40
4.0
 40
4.0
 40
4.0
 10
787.7651799245865
 20
-282.1584878851896
 30
0.0
 10
786.3843856540984
 20
-282.1584878851896
 30
0.0
 10
785.2654186404892
 20
-281.7106254721071
 30
0.0
 10
785.2654186404892
 20
-281.158032156273
 30
0.0
 10
785.2654186404892
 20
-280.606127859536
 30
0.0
 10
786.3843856540984
 20
-280.1582654464535
 30
0.0
 10
787.7651799245865
 20
-280.1582654464535
 30
0.0
 10
789.1459741950747
 20
-280.1582654464535
 30
0.0
 10
790.2652857182323
 20
-280.606127859536
 30
0.0
 10
790.2652857182323
 20
-281.158032156273
 30
0.0
 10
790.2652857182323
 20
-281.7106254721071
 30
0.0
 10
789.1459741950747
 20
-282.1584878851896
 30
0.0
 10
787.7651799245865
 20
-282.1584878851896
 30
0.0
  0
ENDBLK
  5
F4
330
F1
100
AcDbEntity
  8
0
100
AcDbBlockEnd
  0
BLOCK
  5
F7
330
F5
100
AcDbEntity
  8
0
100
AcDbBlockBegin
  2
block 12
 70
     0
 71
     0
 10
0.0
 20
0.0
 30
0.0
  3
block 12
  1

  0
INSERT
  5
FA
330
F5
100
AcDbEntity
  8
Calque 1
100
AcDbBlockReference
  2
block 13
 10
0.0
 20
0.0
 30
0.0
  0
POLYLINE
  5
104
330
F5
100
AcDbEntity
  8
Calque 1
 62
   250
370
    35
100
AcDb2dPolyline
 66
     1
 10
0.0
 20
0.0
 30
0.0
  0
VERTEX
  5
105
330
104
100
AcDbEntity
  8
Calque 1
 62
   250
370
    35
100
AcDbVertex
100
AcDb2dVertex
 10
890.9960881019038
 20
-285.6903997766677
 30
0.0
  0
VERTEX
  5
106
330
104
100
AcDbEntity
  8
Calque 1
 62
   250
370
    35
100
AcDbVertex
100
AcDb2dVertex
 10
890.9960881019038
 20
-258.8069416670691
 30
0.0
  0
VERTEX
  5
107
330
104
100
AcDbEntity
  8
Calque 1
 62
   250
370
    35
100
AcDbVertex
100
AcDb2dVertex
 10
797.5554522745695
 20
-254.2108397801973
 30
0.0
  0
VERTEX
  5
108
330
104
100
AcDbEntity
  8
Calque 1
 62
   250
370
    35
100
AcDbVertex
100
AcDb2dVertex
 10
797.5554522745695
 20
-290.2334471930666
 30
0.0
  0
VERTEX
  5
109
330
104
100
AcDbEntity
  8
Calque 1
 62
   250
370
    35
100
AcDbVertex
100
AcDb2dVertex
 10
890.9960881019038
 20
-285.6903997766677
 30
0.0
  0
SEQEND
  5
10A
330
104
100
AcDbEntity
  8
Calque 1
370
    35
  0
SPLINE
  5
10B
330
F5
100
AcDbEntity
  8
Calque 1
 62
   250
370
    35
100
AcDbSpline
210
0.0
220
0.0
230
1.0
 70
    11
 71
     3
 72
    17
 73
    13
 74
     0
 42
0.0000000001
 43
0.0000000001
 40
0.0
 40
0.0
 40
0.0
 40
0.0
 40
1.0
 40
1.0
 40
1.0
 40
2.0
 40
2.0
 40
2.0
 40
3.0
 40
3.0
 40
3.0
 40
4.0
 40
4.0
 40
4.0
 40
4.0
 10
802.7658146864613
 20
-262.0749592443771
 30
0.0
 10
804.1466089569495
 20
-262.0749592443771
 30
0.0
 10
805.2655759705586
 20
-262.5228216574596
 30
0.0
 10
805.2655759705586
 20
-263.0747259541966
 30
0.0
 10
805.2655759705586
 20
-263.6273192700307
 30
0.0
 10
804.1466089569495
 20
-264.0751816831132
 30
0.0
 10
802.7658146864613
 20
-264.0751816831132
 30
0.0
 10
801.3850204159733
 20
-264.0751816831132
 30
0.0
 10
800.2657088928156
 20
-263.6273192700307
 30
0.0
 10
800.2657088928156
 20
-263.0747259541966
 30
0.0
 10
800.2657088928156
 20
-262.5228216574596
 30
0.0
 10
801.3850204159733
 20
-262.0749592443771
 30
0.0
 10
802.7658146864613
 20
-262.0749592443771
 30
0.0
  0
SPLINE
  5
10C
330
F5
100
AcDbEntity
  8
Calque 1
 62
   250
370
    35
100
AcDbSpline
210
0.0
220
0.0
230
1.0
 70
    11
 71
     3
 72
    17
 73
    13
 74
     0
 42
0.0000000001
 43
0.0000000001
 40
0.0
 40
0.0
 40
0.0
 40
0.0
 40
1.0
 40
1.0
 40
1.0
 40
2.0
 40
2.0
 40
2.0
 40
3.0
 40
3.0
 40
3.0
 40
4.0
 40
4.0
 40
4.0
 40
4.0
 10
802.7658146864613
 20
-282.1584878851896
 30
0.0
 10
801.3850204159733
 20
-282.1584878851896
 30
0.0
 10
800.2657088928156
 20
-281.7106254721071
 30
0.0
 10
800.2657088928156
 20
-281.158032156273
 30
0.0
 10
800.2657088928156
 20
-280.606127859536
 30
0.0
 10
801.3850204159733
 20
-280.1582654464535
 30
0.0
 10
802.7658146864613
 20
-280.1582654464535
 30
0.0
 10
804.1466089569495
 20
-280.1582654464535
 30
0.0
 10
805.2655759705586
 20
-280.606127859536
 30
0.0
 10
805.2655759705586
 20
-281.158032156273
 30
0.0
 10
805.2655759705586
 20
-281.7106254721071
 30
0.0
 10
804.1466089569495
 20
-282.1584878851896
 30
0.0
 10
802.7658146864613
 20
-282.1584878851896
 30
0.0
  0
INSERT
  5
10E
330
F5
100
AcDbEntity
  8
Calque 1
100
AcDbBlockReference
  2
block 14
 10
0.0
 20
0.0
 30
0.0
  0
ENDBLK
  5
F8
330
F5
100
AcDbEntity
  8
0
100
AcDbBlockEnd
  0
BLOCK
  5
FB
330
F9
100
AcDbEntity
  8
0
100
AcDbBlockBegin
  2
block 13
 70
     0
 71
     0
 10
0.0
 20
0.0
 30
0.0
  3
block 13
  1

  0
POLYLINE
  5
FD
330
F9
100
AcDbEntity
  8
Calque 1
 62
   250
370
    35
100
AcDb2dPolyline
 66
     1
 10
0.0
 20
0.0
 30
0.0
  0
VERTEX
  5
FE
330
FD
100
AcDbEntity
  8
Calque 1
 62
   250
370
    35
100
AcDbVertex
100
AcDb2dVertex
 10
756.0279267858194
 20
-290.245505027265
 30
0.0
  0
VERTEX
  5
FF
330
FD
100
AcDbEntity
  8
Calque 1
 62
   250
370
    35
100
AcDbVertex
100
AcDb2dVertex
 10
756.0279267858194
 20
-254.2446017159527
 30
0.0
  0
VERTEX
  5
100
330
FD
100
AcDbEntity
  8
Calque 1
 62
   250
370
    35
100
AcDbVertex
100
AcDb2dVertex
 10
792.0274520589376
 20
-254.2446017159527
 30
0.0
  0
VERTEX
  5
101
330
FD
100
AcDbEntity
  8
Calque 1
 62
   250
370
    35
100
AcDbVertex
100
AcDb2dVertex
 10
792.0274520589376
 20
-290.245505027265
 30
0.0
  0
VERTEX
  5
102
330
FD
100
AcDbEntity
  8
Calque 1
 62
   250
370
    35
100
AcDbVertex
100
AcDb2dVertex
 10
756.0279267858194
 20
-290.245505027265
 30
0.0
  0
SEQEND
  5
103
330
FD
100
AcDbEntity
  8
Calque 1
370
    35
  0
ENDBLK
  5
FC
330
F9
100
AcDbEntity
  8
0
100
AcDbBlockEnd
  0
BLOCK
  5
10F
330
10D
100
AcDbEntity
  8
0
100
AcDbBlockBegin
  2
block 14
 70
     0
 71
     0
 10
0.0
 20
0.0
 30
0.0
  3
block 14
  1

  0
POLYLINE
  5
111
330
10D
100
AcDbEntity
  8
Calque 1
 62
   250
370
    35
100
AcDb2dPolyline
 66
     1
 10
0.0
 20
0.0
 30
0.0
  0
VERTEX
  5
112
330
111
100
AcDbEntity
  8
Calque 1
 62
   250
370
    35
100
AcDbVertex
100
AcDb2dVertex
 10
894.3481660090519
 20
-285.5443277280931
 30
0.0
  0
VERTEX
  5
113
330
111
100
AcDbEntity
  8
Calque 1
 62
   250
370
    35
100
AcDbVertex
100
AcDb2dVertex
 10
894.3481660090519
 20
-258.949913129707
 30
0.0
  0
VERTEX
  5
114
330
111
100
AcDbEntity
  8
Calque 1
 62
   250
370
    35
100
AcDbVertex
100
AcDb2dVertex
 10
988.943597843042
 20
-263.9608045130029
 30
0.0
  0
VERTEX
  5
115
330
111
100
AcDbEntity
  8
Calque 1
 62
   250
370
    35
100
AcDbVertex
100
AcDb2dVertex
 10
988.943597843042
 20
-270.7472981093965
 30
0.0
  0
VERTEX
  5
116
330
111
100
AcDbEntity
  8
Calque 1
 62
   250
370
    35
100
AcDbVertex
100
AcDb2dVertex
 10
944.1952525851318
 20
-270.7472981093965
 30
0.0
  0
VERTEX
  5
117
330
111
100
AcDbEntity
  8
Calque 1
 62
   250
370
    35
100
AcDbVertex
100
AcDb2dVertex
 10
944.1952525851318
 20
-273.7472872579521
 30
0.0
  0
VERTEX
  5
118
330
111
100
AcDbEntity
  8
Calque 1
 62
   250
370
    35
100
AcDbVertex
100
AcDb2dVertex
 10
988.943597843042
 20
-273.7472872579521
 30
0.0
  0
VERTEX
  5
119
330
111
100
AcDbEntity
  8
Calque 1
 62
   250
370
    35
100
AcDbVertex
100
AcDb2dVertex
 10
988.943597843042
 20
-280.5334363447972
 30
0.0
  0
VERTEX
  5
11A
330
111
100
AcDbEntity
  8
Calque 1
 62
   250
370
    35
100
AcDbVertex
100
AcDb2dVertex
 10
894.3481660090519
 20
-285.5443277280931
 30
0.0
  0
SEQEND
  5
11B
330
111
100
AcDbEntity
  8
Calque 1
370
    35
  0
ENDBLK
  5
110
330
10D
100
AcDbEntity
  8
0
100
AcDbBlockEnd
  0
ENDSEC
  0
SECTION
  2
ENTITIES
  0
SPLINE
  5
3C
330
1F
100
AcDbEntity
  8
Calque 1
 62
   250
370
    35
100
AcDbSpline
210
0.0
220
0.0
230
1.0
 70
    11
 71
     3
 72
    50
 73
    46
 74
     0
 42
0.0000000001
 43
0.0000000001
 40
0.0
 40
0.0
 40
0.0
 40
0.0
 40
1.0
 40
1.0
 40
1.0
 40
2.0
 40
2.0
 40
2.0
 40
3.0
 40
3.0
 40
3.0
 40
4.0
 40
4.0
 40
4.0
 40
5.0
 40
5.0
 40
5.0
 40
6.0
 40
6.0
 40
6.0
 40
7.0
 40
7.0
 40
7.0
 40
8.0
 40
8.0
 40
8.0
 40
9.0
 40
9.0
 40
9.0
 40
10.0
 40
10.0
 40
10.0
 40
11.0
 40
11.0
 40
11.0
 40
12.0
 40
12.0
 40
12.0
 40
13.0
 40
13.0
 40
13.0
 40
14.0
 40
14.0
 40
14.0
 40
15.0
 40
15.0
 40
15.0
 40
15.0
 10
706.0461369762663
 20
-294.140874492437
 30
0.0
 10
708.642705443499
 20
-294.4550672006918
 30
0.0
 10
711.3278128647028
 20
-294.6200872744353
 30
0.0
 10
714.1066268831053
 20
-294.6200872744353
 30
0.0
 10
737.4609291776139
 20
-294.6200872744353
 30
0.0
 10
738.5516464082441
 20
-244.4023084241425
 30
0.0
 10
738.5516464082441
 20
-244.4023084241425
 30
0.0
 10
738.5516464082441
 20
-244.4023084241425
 30
0.0
 10
738.5516464082441
 20
-159.6202310798866
 30
0.0
 10
738.5516464082441
 20
-159.6202310798866
 30
0.0
 10
738.5516464082441
 20
-159.6202310798866
 30
0.0
 10
738.5516464082441
 20
-74.83815373563074
 30
0.0
 10
738.5516464082441
 20
-74.83815373563074
 30
0.0
 10
738.5516464082441
 20
-74.83815373563074
 30
0.0
 10
737.4609291776139
 20
-24.62313096172616
 30
0.0
 10
714.1066268831053
 20
-24.62313096172616
 30
0.0
 10
711.3278128647028
 20
-24.62313096172616
 30
0.0
 10
708.642705443499
 20
-24.78849554501815
 30
0.0
 10
706.0461369762663
 20
-25.10303276282146
 30
0.0
 10
706.0461369762663
 20
-25.10303276282146
 30
0.0
 10
705.5462536213565
 20
-25.16504448155596
 30
0.0
 10
705.5462536213565
 20
-25.16504448155596
 30
0.0
 10
656.111544974861
 20
-31.55948621172818
 30
0.0
 10
639.5464923531342
 20
-93.41652015893754
 30
0.0
 10
639.5464923531342
 20
-139.403377243795
 30
0.0
 10
639.5464923531342
 20
-139.403377243795
 30
0.0
 10
639.5464923531342
 20
-158.1202365056088
 30
0.0
 10
639.5464923531342
 20
-158.1202365056088
 30
0.0
 10
639.5464923531342
 20
-158.1202365056088
 30
0.0
 10
659.9066621614122
 20
-158.1202365056088
 30
0.0
 10
659.9066621614122
 20
-158.1202365056088
 30
0.0
 10
659.9066621614122
 20
-158.1202365056088
 30
0.0
 10
659.9066621614122
 20
-161.1202256541644
 30
0.0
 10
659.9066621614122
 20
-161.1202256541644
 30
0.0
 10
659.9066621614122
 20
-161.1202256541644
 30
0.0
 10
639.5464923531342
 20
-161.1202256541644
 30
0.0
 10
639.5464923531342
 20
-161.1202256541644
 30
0.0
 10
639.5464923531342
 20
-161.1202256541644
 30
0.0
 10
639.5464923531342
 20
-179.8363958968812
 30
0.0
 10
639.5464923531342
 20
-179.8363958968812
 30
0.0
 10
639.5464923531342
 20
-225.8242865103842
 30
0.0
 10
656.111544974861
 20
-287.6833875148847
 30
0.0
 10
705.5462536213565
 20
-294.0781737546055
 30
0.0
 10
705.5462536213565
 20
-294.0781737546055
 30
0.0
 10
706.0461369762663
 20
-294.140874492437
 30
0.0
 10
706.0461369762663
 20
-294.140874492437
 30
0.0
  0
POLYLINE
  5
3D
330
1F
100
AcDbEntity
  8
Calque 1
  6
AI-Linetype-1
 62
   250
370
    18
100
AcDb2dPolyline
 66
     1
 10
0.0
 20
0.0
 30
0.0
  0
VERTEX
  5
3E
330
3D
100
AcDbEntity
  8
Calque 1
  6
AI-Linetype-1
 62
   250
370
    18
100
AcDbVertex
100
AcDb2dVertex
 10
706.0461369762663
 20
-25.10303276282146
 30
0.0
  0
VERTEX
  5
3F
330
3D
100
AcDbEntity
  8
Calque 1
  6
AI-Linetype-1
 62
   250
370
    18
100
AcDbVertex
100
AcDb2dVertex
 10
706.0461369762663
 20
-294.140874492437
 30
0.0
  0
SEQEND
  5
40
330
3D
100
AcDbEntity
  8
Calque 1
  6
AI-Linetype-1
370
    18
  0
POLYLINE
  5
42
330
1F
100
AcDbEntity
  8
Calque 1
  6
AI-Linetype-2
 62
   250
370
    18
100
AcDb2dPolyline
 66
     1
 10
0.0
 20
0.0
 30
0.0
  0
VERTEX
  5
43
330
42
100
AcDbEntity
  8
Calque 1
  6
AI-Linetype-2
 62
   250
370
    18
100
AcDbVertex
100
AcDb2dVertex
 10
705.5462536213565
 20
-294.0781737546055
 30
0.0
  0
VERTEX
  5
44
330
42
100
AcDbEntity
  8
Calque 1
  6
AI-Linetype-2
 62
   250
370
    18
100
AcDbVertex
100
AcDb2dVertex
 10
705.5462536213565
 20
-25.16504448155596
 30
0.0
  0
SEQEND
  5
45
330
42
100
AcDbEntity
  8
Calque 1
  6
AI-Linetype-2
370
    18
  0
INSERT
  5
48
330
1F
100
AcDbEntity
  8
Calque 1
100
AcDbBlockReference
  2
block 2
 10
0.0
 20
0.0
 30
0.0
  0
POLYLINE
  5
56
330
1F
100
AcDbEntity
  8
Calque 1
 62
   250
370
    35
100
AcDb2dPolyline
 66
     1
 10
0.0
 20
0.0
 30
0.0
  0
VERTEX
  5
57
330
56
100
AcDbEntity
  8
Calque 1
 62
   250
370
    35
100
AcDbVertex
100
AcDb2dVertex
 10
774.7075790163926
 20
-203.3412488640953
 30
0.0
  0
VERTEX
  5
58
330
56
100
AcDbEntity
  8
Calque 1
 62
   250
370
    35
100
AcDbVertex
100
AcDb2dVertex
 10
774.7075790163926
 20
-200.3412597155397
 30
0.0
  0
VERTEX
  5
59
330
56
100
AcDbEntity
  8
Calque 1
 62
   250
370
    35
100
AcDbVertex
100
AcDb2dVertex
 10
788.708447068448
 20
-200.3412597155397
 30
0.0
  0
VERTEX
  5
5A
330
56
100
AcDbEntity
  8
Calque 1
 62
   250
370
    35
100
AcDbVertex
100
AcDb2dVertex
 10
788.708447068448
 20
-100.8272650572585
 30
0.0
  0
VERTEX
  5
5B
330
56
100
AcDbEntity
  8
Calque 1
 62
   250
370
    35
100
AcDbVertex
100
AcDb2dVertex
 10
769.2071395646427
 20
-103.2377983682878
 30
0.0
  0
VERTEX
  5
5C
330
56
100
AcDbEntity
  8
Calque 1
 62
   250
370
    35
100
AcDbVertex
100
AcDb2dVertex
 10
769.2071395646427
 20
-110.0158514807426
 30
0.0
  0
VERTEX
  5
5D
330
56
100
AcDbEntity
  8
Calque 1
 62
   250
370
    35
100
AcDbVertex
100
AcDb2dVertex
 10
766.2071504160872
 20
-110.0158514807426
 30
0.0
  0
VERTEX
  5
5E
330
56
100
AcDbEntity
  8
Calque 1
 62
   250
370
    35
100
AcDbVertex
100
AcDb2dVertex
 10
766.2071504160872
 20
-103.2377983682878
 30
0.0
  0
VERTEX
  5
5F
330
56
100
AcDbEntity
  8
Calque 1
 62
   250
370
    35
100
AcDbVertex
100
AcDb2dVertex
 10
746.7085989886701
 20
-100.827609566807
 30
0.0
  0
VERTEX
  5
60
330
56
100
AcDbEntity
  8
Calque 1
 62
   250
370
    35
100
AcDbVertex
100
AcDb2dVertex
 10
746.7085989886701
 20
-200.3412597155397
 30
0.0
  0
VERTEX
  5
61
330
56
100
AcDbEntity
  8
Calque 1
 62
   250
370
    35
100
AcDbVertex
100
AcDb2dVertex
 10
760.7087780216284
 20
-200.3412597155397
 30
0.0
  0
VERTEX
  5
62
330
56
100
AcDbEntity
  8
Calque 1
 62
   250
370
    35
100
AcDbVertex
100
AcDb2dVertex
 10
760.7087780216284
 20
-203.3412488640953
 30
0.0
  0
VERTEX
  5
63
330
56
100
AcDbEntity
  8
Calque 1
 62
   250
370
    35
100
AcDbVertex
100
AcDb2dVertex
 10
746.7085989886701
 20
-203.3412488640953
 30
0.0
  0
VERTEX
  5
64
330
56
100
AcDbEntity
  8
Calque 1
 62
   250
370
    35
100
AcDbVertex
100
AcDb2dVertex
 10
746.7085989886701
 20
-238.0547199925697
 30
0.0
  0
VERTEX
  5
65
330
56
100
AcDbEntity
  8
Calque 1
 62
   250
370
    35
100
AcDbVertex
100
AcDb2dVertex
 10
788.708447068448
 20
-238.0547199925697
 30
0.0
  0
VERTEX
  5
66
330
56
100
AcDbEntity
  8
Calque 1
 62
   250
370
    35
100
AcDbVertex
100
AcDb2dVertex
 10
788.708447068448
 20
-203.3412488640953
 30
0.0
  0
VERTEX
  5
67
330
56
100
AcDbEntity
  8
Calque 1
 62
   250
370
    35
100
AcDbVertex
100
AcDb2dVertex
 10
774.7075790163926
 20
-203.3412488640953
 30
0.0
  0
SEQEND
  5
68
330
56
100
AcDbEntity
  8
Calque 1
370
    35
  0
SPLINE
  5
69
330
1F
100
AcDbEntity
  8
Calque 1
 62
   250
370
    35
100
AcDbSpline
210
0.0
220
0.0
230
1.0
 70
    11
 71
     3
 72
    17
 73
    13
 74
     0
 42
0.0000000001
 43
0.0000000001
 40
0.0
 40
0.0
 40
0.0
 40
0.0
 40
1.0
 40
1.0
 40
1.0
 40
2.0
 40
2.0
 40
2.0
 40
3.0
 40
3.0
 40
3.0
 40
4.0
 40
4.0
 40
4.0
 40
4.0
 10
756.7083331441563
 20
-185.3420029918589
 30
0.0
 10
756.1564288474193
 20
-185.3420029918589
 30
0.0
 10
755.7085664343368
 20
-184.8941405787765
 30
0.0
 10
755.7085664343368
 20
-184.3415472629424
 30
0.0
 10
755.7085664343368
 20
-183.7896429662054
 30
0.0
 10
756.1564288474193
 20
-183.3417805531229
 30
0.0
 10
756.7083331441563
 20
-183.3417805531229
 30
0.0
 10
757.2609264599904
 20
-183.3417805531229
 30
0.0
 10
757.7087888730729
 20
-183.7896429662054
 30
0.0
 10
757.7087888730729
 20
-184.3415472629424
 30
0.0
 10
757.7087888730729
 20
-184.8941405787765
 30
0.0
 10
757.2609264599904
 20
-185.3420029918589
 30
0.0
 10
756.7083331441563
 20
-185.3420029918589
 30
0.0
  0
SPLINE
  5
6A
330
1F
100
AcDbEntity
  8
Calque 1
 62
   250
370
    35
100
AcDbSpline
210
0.0
220
0.0
230
1.0
 70
    11
 71
     3
 72
    17
 73
    13
 74
     0
 42
0.0000000001
 43
0.0000000001
 40
0.0
 40
0.0
 40
0.0
 40
0.0
 40
1.0
 40
1.0
 40
1.0
 40
2.0
 40
2.0
 40
2.0
 40
3.0
 40
3.0
 40
3.0
 40
4.0
 40
4.0
 40
4.0
 40
4.0
 10
767.7071449903649
 20
-172.9231227866303
 30
0.0
 10
762.1846569275094
 20
-172.9231227866303
 30
0.0
 10
757.7074108348787
 20
-163.968630601369
 30
0.0
 10
757.7074108348787
 20
-152.9229654565609
 30
0.0
 10
757.7074108348787
 20
-141.8771280569786
 30
0.0
 10
762.1846569275094
 20
-132.9226358717173
 30
0.0
 10
767.7071449903649
 20
-132.9226358717173
 30
0.0
 10
773.2303220723174
 20
-132.9226358717173
 30
0.0
 10
777.7075681649482
 20
-141.8771280569786
 30
0.0
 10
777.7075681649482
 20
-152.9229654565609
 30
0.0
 10
777.7075681649482
 20
-163.968630601369
 30
0.0
 10
773.2303220723174
 20
-172.9231227866303
 30
0.0
 10
767.7071449903649
 20
-172.9231227866303
 30
0.0
  0
SPLINE
  5
6B
330
1F
100
AcDbEntity
  8
Calque 1
 62
   250
370
    35
100
AcDbSpline
210
0.0
220
0.0
230
1.0
 70
    11
 71
     3
 72
    17
 73
    13
 74
     0
 42
0.0000000001
 43
0.0000000001
 40
0.0
 40
0.0
 40
0.0
 40
0.0
 40
1.0
 40
1.0
 40
1.0
 40
2.0
 40
2.0
 40
2.0
 40
3.0
 40
3.0
 40
3.0
 40
4.0
 40
4.0
 40
4.0
 40
4.0
 10
778.7080238938647
 20
-185.3420029918589
 30
0.0
 10
778.1554305780306
 20
-185.3420029918589
 30
0.0
 10
777.7082571840452
 20
-184.8941405787765
 30
0.0
 10
777.7082571840452
 20
-184.3415472629424
 30
0.0
 10
777.7082571840452
 20
-183.7896429662054
 30
0.0
 10
778.1554305780306
 20
-183.3417805531229
 30
0.0
 10
778.7080238938647
 20
-183.3417805531229
 30
0.0
 10
779.2599281906017
 20
-183.3417805531229
 30
0.0
 10
779.7077906036842
 20
-183.7896429662054
 30
0.0
 10
779.7077906036842
 20
-184.3415472629424
 30
0.0
 10
779.7077906036842
 20
-184.8941405787765
 30
0.0
 10
779.2599281906017
 20
-185.3420029918589
 30
0.0
 10
778.7080238938647
 20
-185.3420029918589
 30
0.0
  0
INSERT
  5
6D
330
1F
100
AcDbEntity
  8
Calque 1
100
AcDbBlockReference
  2
block 3
 10
0.0
 20
0.0
 30
0.0
  0
INSERT
  5
73
330
1F
100
AcDbEntity
  8
Calque 1
100
AcDbBlockReference
  2
block 4
 10
0.0
 20
0.0
 30
0.0
  0
SPLINE
  5
78
330
1F
100
AcDbEntity
  8
Calque 1
 62
   250
370
    35
100
AcDbSpline
210
0.0
220
0.0
230
1.0
 70
    11
 71
     3
 72
    74
 73
    70
 74
     0
 42
0.0000000001
 43
0.0000000001
 40
0.0
 40
0.0
 40
0.0
 40
0.0
 40
1.0
 40
1.0
 40
1.0
 40
2.0
 40
2.0
 40
2.0
 40
3.0
 40
3.0
 40
3.0
 40
4.0
 40
4.0
 40
4.0
 40
5.0
 40
5.0
 40
5.0
 40
6.0
 40
6.0
 40
6.0
 40
7.0
 40
7.0
 40
7.0
 40
8.0
 40
8.0
 40
8.0
 40
9.0
 40
9.0
 40
9.0
 40
10.0
 40
10.0
 40
10.0
 40
11.0
 40
11.0
 40
11.0
 40
12.0
 40
12.0
 40
12.0
 40
13.0
 40
13.0
 40
13.0
 40
14.0
 40
14.0
 40
14.0
 40
15.0
 40
15.0
 40
15.0
 40
16.0
 40
16.0
 40
16.0
 40
17.0
 40
17.0
 40
17.0
 40
18.0
 40
18.0
 40
18.0
 40
19.0
 40
19.0
 40
19.0
 40
20.0
 40
20.0
 40
20.0
 40
21.0
 40
21.0
 40
21.0
 40
22.0
 40
22.0
 40
22.0
 40
23.0
 40
23.0
 40
23.0
 40
23.0
 10
940.5872040834296
 20
-35.26658120863127
 30
0.0
 10
940.5872040834296
 20
-35.26658120863127
 30
0.0
 10
937.587214934874
 20
-35.26658120863127
 30
0.0
 10
937.587214934874
 20
-35.26658120863127
 30
0.0
 10
937.587214934874
 20
-35.26658120863127
 30
0.0
 10
937.587214934874
 20
-21.26778021386708
 30
0.0
 10
937.587214934874
 20
-21.26778021386708
 30
0.0
 10
937.587214934874
 20
-21.26778021386708
 30
0.0
 10
940.5872040834296
 20
-21.26778021386708
 30
0.0
 10
940.5872040834296
 20
-21.26778021386708
 30
0.0
 10
940.5872040834296
 20
-21.26778021386708
 30
0.0
 10
940.5872040834296
 20
-21.3549411296439
 30
0.0
 10
940.5872040834296
 20
-21.3549411296439
 30
0.0
 10
940.5872040834296
 20
-21.3549411296439
 30
0.0
 10
988.1005829778013
 20
-10.26517876262468
 30
0.0
 10
988.1005829778013
 20
-10.26517876262468
 30
0.0
 10
988.1005829778013
 20
-10.26517876262468
 30
0.0
 10
988.1005829778013
 20
-7.265017359294857
 30
0.0
 10
988.1005829778013
 20
-7.265017359294857
 30
0.0
 10
988.1005829778013
 20
-7.265017359294857
 30
0.0
 10
895.4912486910578
 20
-7.265017359294857
 30
0.0
 10
895.4912486910578
 20
-7.265017359294857
 30
0.0
 10
895.4912486910578
 20
-7.265017359294857
 30
0.0
 10
895.4912486910578
 20
-18.26641302711743
 30
0.0
 10
895.4912486910578
 20
-18.26641302711743
 30
0.0
 10
895.4912486910578
 20
-18.26641302711743
 30
0.0
 10
866.1914006081049
 20
-18.26641302711743
 30
0.0
 10
866.1914006081049
 20
-18.26641302711743
 30
0.0
 10
866.1914006081049
 20
-18.26641302711743
 30
0.0
 10
866.1914006081049
 20
-7.265017359294857
 30
0.0
 10
866.1914006081049
 20
-7.265017359294857
 30
0.0
 10
866.1914006081049
 20
-7.265017359294857
 30
0.0
 10
840.6287921075511
 20
-7.265017359294857
 30
0.0
 10
840.6287921075511
 20
-7.265017359294857
 30
0.0
 10
805.5198240173701
 20
-7.265017359294857
 30
0.0
 10
783.8646428161867
 20
-12.46693928724785
 30
0.0
 10
771.8808781707451
 20
-16.83118624796234
 30
0.0
 10
761.9452227912846
 20
-20.4488810170232
 30
0.0
 10
756.8578502882161
 20
-24.09585909770868
 30
0.0
 10
754.022881213404
 20
-25.60308837250548
 30
0.0
 10
754.022881213404
 20
-25.60308837250548
 30
0.0
 10
754.022881213404
 20
-30.94333088419125
 30
0.0
 10
754.022881213404
 20
-30.94333088419125
 30
0.0
 10
759.2328991157474
 20
-34.44216985901099
 30
0.0
 10
780.6296981555371
 20
-49.26813827978366
 30
0.0
 10
840.6287921075511
 20
-49.26813827978366
 30
0.0
 10
840.6287921075511
 20
-49.26813827978366
 30
0.0
 10
866.1914006081049
 20
-49.26813827978366
 30
0.0
 10
866.1914006081049
 20
-49.26813827978366
 30
0.0
 10
866.1914006081049
 20
-49.26813827978366
 30
0.0
 10
866.1914006081049
 20
-38.26794839538093
 30
0.0
 10
866.1914006081049
 20
-38.26794839538093
 30
0.0
 10
866.1914006081049
 20
-38.26794839538093
 30
0.0
 10
895.4912486910578
 20
-38.26794839538093
 30
0.0
 10
895.4912486910578
 20
-38.26794839538093
 30
0.0
 10
895.4912486910578
 20
-38.26794839538093
 30
0.0
 10
895.4912486910578
 20
-49.26813827978366
 30
0.0
 10
895.4912486910578
 20
-49.26813827978366
 30
0.0
 10
895.4912486910578
 20
-49.26813827978366
 30
0.0
 10
988.1005829778013
 20
-49.26813827978366
 30
0.0
 10
988.1005829778013
 20
-49.26813827978366
 30
0.0
 10
988.1005829778013
 20
-49.26813827978366
 30
0.0
 10
988.1005829778013
 20
-46.26780462167958
 30
0.0
 10
988.1005829778013
 20
-46.26780462167958
 30
0.0
 10
988.1005829778013
 20
-46.26780462167958
 30
0.0
 10
940.5872040834296
 20
-35.17942029285445
 30
0.0
 10
940.5872040834296
 20
-35.17942029285445
 30
0.0
 10
940.5872040834296
 20
-35.17942029285445
 30
0.0
 10
940.5872040834296
 20
-35.26658120863127
 30
0.0
 10
940.5872040834296
 20
-35.26658120863127
 30
0.0
  0
POLYLINE
  5
79
330
1F
100
AcDbEntity
  8
Calque 1
 62
   250
370
    35
100
AcDb2dPolyline
 66
     1
 10
0.0
 20
0.0
 30
0.0
  0
VERTEX
  5
7A
330
79
100
AcDbEntity
  8
Calque 1
 62
   250
370
    35
100
AcDbVertex
100
AcDb2dVertex
 10
630.4579859534966
 20
-183.9970377144174
 30
0.0
  0
VERTEX
  5
7B
330
79
100
AcDbEntity
  8
Calque 1
 62
   250
370
    35
100
AcDbVertex
100
AcDb2dVertex
 10
630.4579859534966
 20
-141.9940890487029
 30
0.0
  0
VERTEX
  5
7C
330
79
100
AcDbEntity
  8
Calque 1
 62
   250
370
    35
100
AcDbVertex
100
AcDb2dVertex
 10
617.6077797935147
 20
-141.9940890487029
 30
0.0
  0
VERTEX
  5
7D
330
79
100
AcDbEntity
  8
Calque 1
 62
   250
370
    35
100
AcDbVertex
100
AcDb2dVertex
 10
617.6077797935147
 20
-152.9953124617512
 30
0.0
  0
VERTEX
  5
7E
330
79
100
AcDbEntity
  8
Calque 1
 62
   250
370
    35
100
AcDbVertex
100
AcDb2dVertex
 10
588.3079317105619
 20
-152.9953124617512
 30
0.0
  0
VERTEX
  5
7F
330
79
100
AcDbEntity
  8
Calque 1
 62
   250
370
    35
100
AcDbVertex
100
AcDb2dVertex
 10
588.3079317105619
 20
-141.9940890487029
 30
0.0
  0
VERTEX
  5
80
330
79
100
AcDbEntity
  8
Calque 1
 62
   250
370
    35
100
AcDbVertex
100
AcDb2dVertex
 10
575.4584145696771
 20
-141.9940890487029
 30
0.0
  0
VERTEX
  5
81
330
79
100
AcDbEntity
  8
Calque 1
 62
   250
370
    35
100
AcDbVertex
100
AcDb2dVertex
 10
575.4584145696771
 20
-183.9970377144174
 30
0.0
  0
VERTEX
  5
82
330
79
100
AcDbEntity
  8
Calque 1
 62
   250
370
    35
100
AcDbVertex
100
AcDb2dVertex
 10
588.3079317105619
 20
-183.9970377144174
 30
0.0
  0
VERTEX
  5
83
330
79
100
AcDbEntity
  8
Calque 1
 62
   250
370
    35
100
AcDbVertex
100
AcDb2dVertex
 10
588.3079317105619
 20
-172.9968478300147
 30
0.0
  0
VERTEX
  5
84
330
79
100
AcDbEntity
  8
Calque 1
 62
   250
370
    35
100
AcDbVertex
100
AcDb2dVertex
 10
617.6077797935147
 20
-172.9968478300147
 30
0.0
  0
VERTEX
  5
85
330
79
100
AcDbEntity
  8
Calque 1
 62
   250
370
    35
100
AcDbVertex
100
AcDb2dVertex
 10
617.6077797935147
 20
-183.9970377144174
 30
0.0
  0
VERTEX
  5
86
330
79
100
AcDbEntity
  8
Calque 1
 62
   250
370
    35
100
AcDbVertex
100
AcDb2dVertex
 10
630.4579859534966
 20
-183.9970377144174
 30
0.0
  0
SEQEND
  5
87
330
79
100
AcDbEntity
  8
Calque 1
370
    35
  0
SPLINE
  5
88
330
1F
100
AcDbEntity
  8
Calque 1
 62
   250
370
    35
100
AcDbSpline
210
0.0
220
0.0
230
1.0
 70
    11
 71
     3
 72
    23
 73
    19
 74
     0
 42
0.0000000001
 43
0.0000000001
 40
0.0
 40
0.0
 40
0.0
 40
0.0
 40
1.0
 40
1.0
 40
1.0
 40
2.0
 40
2.0
 40
2.0
 40
3.0
 40
3.0
 40
3.0
 40
4.0
 40
4.0
 40
4.0
 40
5.0
 40
5.0
 40
5.0
 40
6.0
 40
6.0
 40
6.0
 40
6.0
 10
641.2859210636369
 20
-43.41595457898976
 30
0.0
 10
641.2859210636369
 20
-43.41595457898976
 30
0.0
 10
665.8652993127004
 20
-7.528050399593682
 30
0.0
 10
665.8652993127004
 20
-7.528050399593682
 30
0.0
 10
655.0783608388346
 20
-7.113949922266651
 30
0.0
 10
644.8457382285455
 20
-6.914134384122161
 30
0.0
 10
635.6383760346669
 20
-6.914134384122161
 30
0.0
 10
635.6383760346669
 20
-6.914134384122161
 30
0.0
 10
635.6352754487301
 20
-6.914134384122161
 30
0.0
 10
635.6352754487301
 20
-6.914134384122161
 30
0.0
 10
634.1897133831193
 20
-6.914134384122161
 30
0.0
 10
632.7365721074409
 20
-6.920680065544136
 30
0.0
 10
631.2858423986022
 20
-6.92515868967496
 30
0.0
 10
631.2858423986022
 20
-6.92515868967496
 30
0.0
 10
631.2858423986022
 20
-43.41595457898976
 30
0.0
 10
631.2858423986022
 20
-43.41595457898976
 30
0.0
 10
631.2858423986022
 20
-43.41595457898976
 30
0.0
 10
641.2859210636369
 20
-43.41595457898976
 30
0.0
 10
641.2859210636369
 20
-43.41595457898976
 30
0.0
  0
SPLINE
  5
89
330
1F
100
AcDbEntity
  8
Calque 1
 62
   250
370
    35
100
AcDbSpline
210
0.0
220
0.0
230
1.0
 70
    11
 71
     3
 72
    17
 73
    13
 74
     0
 42
0.0000000001
 43
0.0000000001
 40
0.0
 40
0.0
 40
0.0
 40
0.0
 40
1.0
 40
1.0
 40
1.0
 40
2.0
 40
2.0
 40
2.0
 40
3.0
 40
3.0
 40
3.0
 40
4.0
 40
4.0
 40
4.0
 40
4.0
 10
645.1382268352432
 20
-9.924803328681994
 30
0.0
 10
645.9667722994459
 20
-9.924803328681994
 30
0.0
 10
646.6382214095211
 20
-10.59625243875719
 30
0.0
 10
646.6382214095211
 20
-11.42479790295977
 30
0.0
 10
646.6382214095211
 20
-12.25334336716236
 30
0.0
 10
645.9667722994459
 20
-12.92479247723755
 30
0.0
 10
645.1382268352432
 20
-12.92479247723755
 30
0.0
 10
644.3100258805891
 20
-12.92479247723755
 30
0.0
 10
643.6382322609654
 20
-12.25334336716236
 30
0.0
 10
643.6382322609654
 20
-11.42479790295977
 30
0.0
 10
643.6382322609654
 20
-10.59625243875719
 30
0.0
 10
644.3100258805891
 20
-9.924803328681994
 30
0.0
 10
645.1382268352432
 20
-9.924803328681994
 30
0.0
  0
SPLINE
  5
8A
330
1F
100
AcDbEntity
  8
Calque 1
 62
   250
370
    35
100
AcDbSpline
210
0.0
220
0.0
230
1.0
 70
    11
 71
     3
 72
    23
 73
    19
 74
     0
 42
0.0000000001
 43
0.0000000001
 40
0.0
 40
0.0
 40
0.0
 40
0.0
 40
1.0
 40
1.0
 40
1.0
 40
2.0
 40
2.0
 40
2.0
 40
3.0
 40
3.0
 40
3.0
 40
4.0
 40
4.0
 40
4.0
 40
5.0
 40
5.0
 40
5.0
 40
6.0
 40
6.0
 40
6.0
 40
6.0
 10
625.4364147741965
 20
-43.41595457898976
 30
0.0
 10
625.4364147741965
 20
-43.41595457898976
 30
0.0
 10
625.4364147741965
 20
-6.92515868967496
 30
0.0
 10
625.4364147741965
 20
-6.92515868967496
 30
0.0
 10
623.9856850653578
 20
-6.920680065544136
 30
0.0
 10
622.5328882992279
 20
-6.914134384122161
 30
0.0
 10
621.0873262336171
 20
-6.914134384122161
 30
0.0
 10
621.0873262336171
 20
-6.914134384122161
 30
0.0
 10
621.0838811381318
 20
-6.914134384122161
 30
0.0
 10
621.0838811381318
 20
-6.914134384122161
 30
0.0
 10
611.8765189442531
 20
-6.914134384122161
 30
0.0
 10
601.6438963339641
 20
-7.113949922266651
 30
0.0
 10
590.8569578600983
 20
-7.528050399593682
 30
0.0
 10
590.8569578600983
 20
-7.528050399593682
 30
0.0
 10
615.4366806187103
 20
-43.41595457898976
 30
0.0
 10
615.4366806187103
 20
-43.41595457898976
 30
0.0
 10
615.4366806187103
 20
-43.41595457898976
 30
0.0
 10
625.4364147741965
 20
-43.41595457898976
 30
0.0
 10
625.4364147741965
 20
-43.41595457898976
 30
0.0
  0
SPLINE
  5
8B
330
1F
100
AcDbEntity
  8
Calque 1
 62
   250
370
    35
100
AcDbSpline
210
0.0
220
0.0
230
1.0
 70
    11
 71
     3
 72
    17
 73
    13
 74
     0
 42
0.0000000001
 43
0.0000000001
 40
0.0
 40
0.0
 40
0.0
 40
0.0
 40
1.0
 40
1.0
 40
1.0
 40
2.0
 40
2.0
 40
2.0
 40
3.0
 40
3.0
 40
3.0
 40
4.0
 40
4.0
 40
4.0
 40
4.0
 10
613.0840249118332
 20
-11.42479790295977
 30
0.0
 10
613.0840249118332
 20
-12.25334336716236
 30
0.0
 10
612.412575801758
 20
-12.92479247723755
 30
0.0
 10
611.5840303375554
 20
-12.92479247723755
 30
0.0
 10
610.7554848733528
 20
-12.92479247723755
 30
0.0
 10
610.0840357632776
 20
-12.25334336716236
 30
0.0
 10
610.0840357632776
 20
-11.42479790295977
 30
0.0
 10
610.0840357632776
 20
-10.59625243875719
 30
0.0
 10
610.7554848733528
 20
-9.924803328681994
 30
0.0
 10
611.5840303375554
 20
-9.924803328681994
 30
0.0
 10
612.412575801758
 20
-9.924803328681994
 30
0.0
 10
613.0840249118332
 20
-10.59625243875719
 30
0.0
 10
613.0840249118332
 20
-11.42479790295977
 30
0.0
  0
SPLINE
  5
8C
330
1F
100
AcDbEntity
  8
Calque 1
 62
   250
370
    35
100
AcDbSpline
210
0.0
220
0.0
230
1.0
 70
    11
 71
     3
 72
    53
 73
    49
 74
     0
 42
0.0000000001
 43
0.0000000001
 40
0.0
 40
0.0
 40
0.0
 40
0.0
 40
1.0
 40
1.0
 40
1.0
 40
2.0
 40
2.0
 40
2.0
 40
3.0
 40
3.0
 40
3.0
 40
4.0
 40
4.0
 40
4.0
 40
5.0
 40
5.0
 40
5.0
 40
6.0
 40
6.0
 40
6.0
 40
7.0
 40
7.0
 40
7.0
 40
8.0
 40
8.0
 40
8.0
 40
9.0
 40
9.0
 40
9.0
 40
10.0
 40
10.0
 40
10.0
 40
11.0
 40
11.0
 40
11.0
 40
12.0
 40
12.0
 40
12.0
 40
13.0
 40
13.0
 40
13.0
 40
14.0
 40
14.0
 40
14.0
 40
15.0
 40
15.0
 40
15.0
 40
16.0
 40
16.0
 40
16.0
 40
16.0
 10
815.4437660721808
 20
-226.2201279816394
 30
0.0
 10
817.1373750127295
 20
-226.8319769398198
 30
0.0
 10
820.6069306759247
 20
-228.1624728162233
 30
0.0
 10
825.45211296638
 20
-230.2384873556348
 30
0.0
 10
825.45211296638
 20
-230.2384873556348
 30
0.0
 10
824.430297645455
 20
-232.9690700372439
 30
0.0
 10
824.430297645455
 20
-232.9690700372439
 30
0.0
 10
827.070274315802
 20
-233.9650471420296
 30
0.0
 10
835.9148679550839
 20
-238.196657926562
 30
0.0
 10
851.4326115492946
 20
-246.4083875252035
 30
0.0
 10
851.4326115492946
 20
-246.4083875252035
 30
0.0
 10
852.4778535195195
 20
-243.6147595962144
 30
0.0
 10
852.4778535195195
 20
-243.6147595962144
 30
0.0
 10
852.4778535195195
 20
-243.6147595962144
 30
0.0
 10
855.0530623947437
 20
-245.0403401080108
 30
0.0
 10
858.9019230708649
 20
-247.1859455762244
 30
0.0
 10
858.9019230708649
 20
-247.1859455762244
 30
0.0
 10
858.9019230708649
 20
-247.1859455762244
 30
0.0
 10
858.9019230708649
 20
-247.1859455762244
 30
0.0
 10
828.216113074196
 20
-206.8924532902908
 30
0.0
 10
831.3573511376468
 20
-154.9631510029259
 30
0.0
 10
843.218125874265
 20
-150.5134656741772
 30
0.0
 10
843.218125874265
 20
-150.5134656741772
 30
0.0
 10
843.8031030876604
 20
-150.4810817766158
 30
0.0
 10
843.8031030876604
 20
-150.4810817766158
 30
0.0
 10
840.1678383316247
 20
-148.3926648934574
 30
0.0
 10
836.7165416745015
 20
-146.4479084920339
 30
0.0
 10
828.9974607302506
 20
-142.2111300642736
 30
0.0
 10
828.9974607302506
 20
-142.2111300642736
 30
0.0
 10
830.0578611206106
 20
-139.3771945181071
 30
0.0
 10
830.0578611206106
 20
-139.3771945181071
 30
0.0
 10
823.8932072593045
 20
-135.9410562811189
 30
0.0
 10
815.0596379255754
 20
-131.4517523542899
 30
0.0
 10
803.0434893825725
 20
-125.9716389659029
 30
0.0
 10
803.0434893825725
 20
-125.9716389659029
 30
0.0
 10
801.9872231067949
 20
-128.7935166778711
 30
0.0
 10
801.9872231067949
 20
-128.7935166778711
 30
0.0
 10
801.9872231067949
 20
-128.7935166778711
 30
0.0
 10
798.7722599999597
 20
-127.3834390957583
 30
0.0
 10
795.4470538375966
 20
-126.0842935882706
 30
0.0
 10
795.4470538375966
 20
-126.0842935882706
 30
0.0
 10
795.4229381691998
 20
-126.0975572058888
 30
0.0
 10
795.4229381691998
 20
-126.0975572058888
 30
0.0
 10
805.2021862136301
 20
-145.3645982166971
 30
0.0
 10
819.3529159192938
 20
-182.1101589171461
 30
0.0
 10
815.3707300478935
 20
-225.9197156553256
 30
0.0
 10
815.3707300478935
 20
-225.9197156553256
 30
0.0
 10
815.4437660721808
 20
-226.2201279816394
 30
0.0
 10
815.4437660721808
 20
-226.2201279816394
 30
0.0
  0
SPLINE
  5
8D
330
1F
100
AcDbEntity
  8
Calque 1
 62
   250
370
    35
100
AcDbSpline
210
0.0
220
0.0
230
1.0
 70
    11
 71
     3
 72
    53
 73
    49
 74
     0
 42
0.0000000001
 43
0.0000000001
 40
0.0
 40
0.0
 40
0.0
 40
0.0
 40
1.0
 40
1.0
 40
1.0
 40
2.0
 40
2.0
 40
2.0
 40
3.0
 40
3.0
 40
3.0
 40
4.0
 40
4.0
 40
4.0
 40
5.0
 40
5.0
 40
5.0
 40
6.0
 40
6.0
 40
6.0
 40
7.0
 40
7.0
 40
7.0
 40
8.0
 40
8.0
 40
8.0
 40
9.0
 40
9.0
 40
9.0
 40
10.0
 40
10.0
 40
10.0
 40
11.0
 40
11.0
 40
11.0
 40
12.0
 40
12.0
 40
12.0
 40
13.0
 40
13.0
 40
13.0
 40
14.0
 40
14.0
 40
14.0
 40
15.0
 40
15.0
 40
15.0
 40
16.0
 40
16.0
 40
16.0
 40
16.0
 10
860.6851044940302
 20
-226.2201279816394
 30
0.0
 10
862.378713434579
 20
-226.8316324302713
 30
0.0
 10
865.848269097774
 20
-228.1624728162233
 30
0.0
 10
870.6934513882295
 20
-230.2381428460863
 30
0.0
 10
870.6934513882295
 20
-230.2381428460863
 30
0.0
 10
869.6716360673043
 20
-232.9687255276953
 30
0.0
 10
869.6716360673043
 20
-232.9687255276953
 30
0.0
 10
872.3116127376513
 20
-233.9650471420296
 30
0.0
 10
881.1562063769333
 20
-238.196657926562
 30
0.0
 10
896.6736054615956
 20
-246.4083875252035
 30
0.0
 10
896.6736054615956
 20
-246.4083875252035
 30
0.0
 10
897.7195364509174
 20
-243.6144150866658
 30
0.0
 10
897.7195364509174
 20
-243.6144150866658
 30
0.0
 10
897.7195364509174
 20
-243.6144150866658
 30
0.0
 10
900.2944008165931
 20
-245.0403401080108
 30
0.0
 10
904.1432614927143
 20
-247.1859455762244
 30
0.0
 10
904.1432614927143
 20
-247.1859455762244
 30
0.0
 10
904.1432614927143
 20
-247.1859455762244
 30
0.0
 10
904.1432614927143
 20
-247.1859455762244
 30
0.0
 10
873.4574514960455
 20
-206.8921087807423
 30
0.0
 10
876.5986895594962
 20
-154.9628064933774
 30
0.0
 10
888.4591197865658
 20
-150.5134656741772
 30
0.0
 10
888.4591197865658
 20
-150.5134656741772
 30
0.0
 10
889.0444415095097
 20
-150.4810817766158
 30
0.0
 10
889.0444415095097
 20
-150.4810817766158
 30
0.0
 10
885.4088322439256
 20
-148.3926648934574
 30
0.0
 10
881.9575355868024
 20
-146.4477362372596
 30
0.0
 10
874.2387991521001
 20
-142.2109578094993
 30
0.0
 10
874.2387991521001
 20
-142.2109578094993
 30
0.0
 10
875.2995440520085
 20
-139.3771945181071
 30
0.0
 10
875.2995440520085
 20
-139.3771945181071
 30
0.0
 10
869.1345456811539
 20
-135.9410562811189
 30
0.0
 10
860.3009763474248
 20
-131.4515800995156
 30
0.0
 10
848.2848278044219
 20
-125.9714667111287
 30
0.0
 10
848.2848278044219
 20
-125.9714667111287
 30
0.0
 10
847.2285615286443
 20
-128.7935166778711
 30
0.0
 10
847.2285615286443
 20
-128.7935166778711
 30
0.0
 10
847.2285615286443
 20
-128.7935166778711
 30
0.0
 10
844.0135984218091
 20
-127.3834390957583
 30
0.0
 10
840.688392259446
 20
-126.0842935882706
 30
0.0
 10
840.688392259446
 20
-126.0842935882706
 30
0.0
 10
840.6639320815008
 20
-126.0973849511145
 30
0.0
 10
840.6639320815008
 20
-126.0973849511145
 30
0.0
 10
850.4431801259309
 20
-145.3644259619228
 30
0.0
 10
864.5942543411431
 20
-182.1101589171461
 30
0.0
 10
860.6124129792914
 20
-225.9197156553256
 30
0.0
 10
860.6124129792914
 20
-225.9197156553256
 30
0.0
 10
860.6851044940302
 20
-226.2201279816394
 30
0.0
 10
860.6851044940302
 20
-226.2201279816394
 30
0.0
  0
POLYLINE
  5
8E
330
1F
100
AcDbEntity
  8
Calque 1
 62
   250
370
    35
100
AcDb2dPolyline
 66
     1
 10
0.0
 20
0.0
 30
0.0
  0
VERTEX
  5
8F
330
8E
100
AcDbEntity
  8
Calque 1
 62
   250
370
    35
100
AcDbVertex
100
AcDb2dVertex
 10
940.4852292570662
 20
-123.3177096588407
 30
0.0
  0
VERTEX
  5
90
330
8E
100
AcDbEntity
  8
Calque 1
 62
   250
370
    35
100
AcDbVertex
100
AcDb2dVertex
 10
940.4852292570662
 20
-192.6717881462765
 30
0.0
  0
VERTEX
  5
91
330
8E
100
AcDbEntity
  8
Calque 1
 62
   250
370
    35
100
AcDbVertex
100
AcDb2dVertex
 10
988.4871226912463
 20
-192.6717881462765
 30
0.0
  0
VERTEX
  5
92
330
8E
100
AcDbEntity
  8
Calque 1
 62
   250
370
    35
100
AcDbVertex
100
AcDb2dVertex
 10
988.4871226912463
 20
-123.3177096588407
 30
0.0
  0
VERTEX
  5
93
330
8E
100
AcDbEntity
  8
Calque 1
 62
   250
370
    35
100
AcDbVertex
100
AcDb2dVertex
 10
964.4861759741563
 20
-126.2846258907379
 30
0.0
  0
VERTEX
  5
94
330
8E
100
AcDbEntity
  8
Calque 1
 62
   250
370
    35
100
AcDbVertex
100
AcDb2dVertex
 10
940.4852292570662
 20
-123.3177096588407
 30
0.0
  0
SEQEND
  5
95
330
8E
100
AcDbEntity
  8
Calque 1
370
    35
  0
POLYLINE
  5
96
330
1F
100
AcDbEntity
  8
Calque 1
 62
   250
370
    35
100
AcDb2dPolyline
 66
     1
 10
0.0
 20
0.0
 30
0.0
  0
VERTEX
  5
97
330
96
100
AcDbEntity
  8
Calque 1
 62
   250
370
    35
100
AcDbVertex
100
AcDb2dVertex
 10
988.4860891626007
 20
-247.8484374380379
 30
0.0
  0
VERTEX
  5
98
330
96
100
AcDbEntity
  8
Calque 1
 62
   250
370
    35
100
AcDbVertex
100
AcDb2dVertex
 10
940.4862627857118
 20
-247.8484374380379
 30
0.0
  0
VERTEX
  5
99
330
96
100
AcDbEntity
  8
Calque 1
 62
   250
370
    35
100
AcDbVertex
100
AcDb2dVertex
 10
940.4862627857118
 20
-204.8488226484406
 30
0.0
  0
VERTEX
  5
9A
330
96
100
AcDbEntity
  8
Calque 1
 62
   250
370
    35
100
AcDbVertex
100
AcDb2dVertex
 10
988.4860891626007
 20
-204.8488226484406
 30
0.0
  0
VERTEX
  5
9B
330
96
100
AcDbEntity
  8
Calque 1
 62
   250
370
    35
100
AcDbVertex
100
AcDb2dVertex
 10
988.4860891626007
 20
-247.8484374380379
 30
0.0
  0
SEQEND
  5
9C
330
96
100
AcDbEntity
  8
Calque 1
370
    35
  0
POLYLINE
  5
9D
330
1F
100
AcDbEntity
  8
Calque 1
 62
   250
370
    35
100
AcDb2dPolyline
 66
     1
 10
0.0
 20
0.0
 30
0.0
  0
VERTEX
  5
9E
330
9D
100
AcDbEntity
  8
Calque 1
 62
   250
370
    35
100
AcDbVertex
100
AcDb2dVertex
 10
902.0941186980876
 20
-232.3475748117048
 30
0.0
  0
VERTEX
  5
9F
330
9D
100
AcDbEntity
  8
Calque 1
 62
   250
370
    35
100
AcDbVertex
100
AcDb2dVertex
 10
902.0941186980876
 20
-192.3486381897601
 30
0.0
  0
VERTEX
  5
A0
330
9D
100
AcDbEntity
  8
Calque 1
 62
   250
370
    35
100
AcDbVertex
100
AcDb2dVertex
 10
907.0936412662821
 20
-191.3481824608435
 30
0.0
  0
VERTEX
  5
A1
330
9D
100
AcDbEntity
  8
Calque 1
 62
   250
370
    35
100
AcDbVertex
100
AcDb2dVertex
 10
927.0944876154487
 20
-191.3481824608435
 30
0.0
  0
VERTEX
  5
A2
330
9D
100
AcDbEntity
  8
Calque 1
 62
   250
370
    35
100
AcDbVertex
100
AcDb2dVertex
 10
927.0944876154487
 20
-233.3480305406213
 30
0.0
  0
VERTEX
  5
A3
330
9D
100
AcDbEntity
  8
Calque 1
 62
   250
370
    35
100
AcDbVertex
100
AcDb2dVertex
 10
907.0936412662821
 20
-233.3480305406213
 30
0.0
  0
VERTEX
  5
A4
330
9D
100
AcDbEntity
  8
Calque 1
 62
   250
370
    35
100
AcDbVertex
100
AcDb2dVertex
 10
902.0941186980876
 20
-232.3475748117048
 30
0.0
  0
SEQEND
  5
A5
330
9D
100
AcDbEntity
  8
Calque 1
370
    35
  0
POLYLINE
  5
A6
330
1F
100
AcDbEntity
  8
Calque 1
 62
   250
370
    35
100
AcDb2dPolyline
 66
     1
 10
0.0
 20
0.0
 30
0.0
  0
VERTEX
  5
A7
330
A6
100
AcDbEntity
  8
Calque 1
 62
   250
370
    35
100
AcDbVertex
100
AcDb2dVertex
 10
1000.294498447843
 20
-299.9947807409736
 30
0.0
  0
VERTEX
  5
A8
330
A6
100
AcDbEntity
  8
Calque 1
 62
   250
370
    35
100
AcDbVertex
100
AcDb2dVertex
 10
0.2945556639888611
 20
-299.9947807409736
 30
0.0
  0
VERTEX
  5
A9
330
A6
100
AcDbEntity
  8
Calque 1
 62
   250
370
    35
100
AcDbVertex
100
AcDb2dVertex
 10
0.2945556639888611
 20
0.0049953884536123
 30
0.0
  0
VERTEX
  5
AA
330
A6
100
AcDbEntity
  8
Calque 1
 62
   250
370
    35
100
AcDbVertex
100
AcDb2dVertex
 10
1000.294498447843
 20
0.0049953884536123
 30
0.0
  0
VERTEX
  5
AB
330
A6
100
AcDbEntity
  8
Calque 1
 62
   250
370
    35
100
AcDbVertex
100
AcDb2dVertex
 10
1000.294498447843
 20
-299.9947807409736
 30
0.0
  0
SEQEND
  5
AC
330
A6
100
AcDbEntity
  8
Calque 1
370
    35
  0
INSERT
  5
AE
330
1F
100
AcDbEntity
  8
Calque 1
100
AcDbBlockReference
  2
block 5
 10
0.0
 20
0.0
 30
0.0
  0
INSERT
  5
D0
330
1F
100
AcDbEntity
  8
Calque 1
100
AcDbBlockReference
  2
block 8
 10
0.0
 20
0.0
 30
0.0
  0
INSERT
  5
F2
330
1F
100
AcDbEntity
  8
Calque 1
100
AcDbBlockReference
  2
block 11
 10
0.0
 20
0.0
 30
0.0
  0
POLYLINE
  5
11E
330
1F
100
AcDbEntity
  8
Calque 1
 62
   250
370
    35
100
AcDb2dPolyline
 66
     1
 10
0.0
 20
0.0
 30
0.0
  0
VERTEX
  5
11F
330
11E
100
AcDbEntity
  8
Calque 1
 62
   250
370
    35
100
AcDbVertex
100
AcDb2dVertex
 10
932.5935490290044
 20
-171.6219102218515
 30
0.0
  0
VERTEX
  5
120
330
11E
100
AcDbEntity
  8
Calque 1
 62
   250
370
    35
100
AcDbVertex
100
AcDb2dVertex
 10
896.5943682654348
 20
-171.6219102218515
 30
0.0
  0
VERTEX
  5
121
330
11E
100
AcDbEntity
  8
Calque 1
 62
   250
370
    35
100
AcDbVertex
100
AcDb2dVertex
 10
896.5943682654348
 20
-137.6215738588238
 30
0.0
  0
VERTEX
  5
122
330
11E
100
AcDbEntity
  8
Calque 1
 62
   250
370
    35
100
AcDbVertex
100
AcDb2dVertex
 10
932.5935490290044
 20
-137.6215738588238
 30
0.0
  0
VERTEX
  5
123
330
11E
100
AcDbEntity
  8
Calque 1
 62
   250
370
    35
100
AcDbVertex
100
AcDb2dVertex
 10
932.5935490290044
 20
-171.6219102218515
 30
0.0
  0
SEQEND
  5
124
330
11E
100
AcDbEntity
  8
Calque 1
370
    35
  0
ENDSEC
  0
SECTION
  2
OBJECTS
  0
DICTIONARY
  5
C
330
0
100
AcDbDictionary
281
     1
  3
ACAD_GROUP
350
D
  3
ACAD_LAYOUT
350
1A
  3
ACAD_MLINESTYLE
350
17
  3
ACAD_PLOTSETTINGS
350
19
  3
ACAD_PLOTSTYLENAME
350
E
  3
ACAD_TABLESTYLE
350
125
  3
ACAD_VISUALSTYLE
350
2A
  0
DICTIONARY
  5
D
102
{ACAD_REACTORS
330
C
102
}
330
C
100
AcDbDictionary
281
     1
  0
DICTIONARY
  5
1A
102
{ACAD_REACTORS
330
C
102
}
330
C
100
AcDbDictionary
281
     1
  3
Layout1
350
1E
  3
Layout2
350
26
  3
Model
350
22
  0
DICTIONARY
  5
17
102
{ACAD_REACTORS
330
C
102
}
330
C
100
AcDbDictionary
281
     1
  3
Standard
350
18
  0
DICTIONARY
  5
19
102
{ACAD_REACTORS
330
C
102
}
330
C
100
AcDbDictionary
281
     1
  0
ACDBDICTIONARYWDFLT
  5
E
102
{ACAD_REACTORS
330
C
102
}
330
C
100
AcDbDictionary
281
     1
  3
Normal
350
F
100
AcDbDictionaryWithDefault
340
F
  0
DICTIONARY
  5
125
102
{ACAD_REACTORS
330
C
102
}
330
C
100
AcDbDictionary
281
     1
  0
DICTIONARY
  5
2A
102
{ACAD_REACTORS
330
C
102
}
330
C
100
AcDbDictionary
281
     1
  3
2dWireframe
350
2F
  3
3D Hidden
350
31
  3
3dWireframe
350
30
  3
Basic
350
32
  3
Brighten
350
36
  3
ColorChange
350
3A
  3
Conceptual
350
34
  3
Dim
350
35
  3
Facepattern
350
39
  3
Flat
350
2B
  3
FlatWithEdges
350
2C
  3
Gouraud
350
2D
  3
GouraudWithEdges
350
2E
  3
Linepattern
350
38
  3
Realistic
350
33
  3
Thicken
350
37
  0
LAYOUT
  5
1E
102
{ACAD_REACTORS
330
1A
102
}
330
1A
100
AcDbPlotSettings
  1

  2
none_device
  4

  6

 40
0.0
 41
0.0
 42
0.0
 43
0.0
 44
0.0
 45
0.0
 46
0.0
 47
0.0
 48
0.0
 49
0.0
140
0.0
141
0.0
142
1.0
143
1.0
 70
   688
 72
     0
 73
     0
 74
     5
  7

 75
    16
 76
     0
 77
     2
 78
   300
147
1.0
148
0.0
149
0.0
100
AcDbLayout
  1
Layout1
 70
     1
 71
     1
 10
0.0
 20
0.0
 11
12.0
 21
9.0
 12
0.0
 22
0.0
 32
0.0
 14
1.000000000000000E+20
 24
1.000000000000000E+20
 34
1.000000000000000E+20
 15
-1.000000000000000E+20
 25
-1.000000000000000E+20
 35
-1.000000000000000E+20
146
0.0
 13
0.0
 23
0.0
 33
0.0
 16
1.0
 26
0.0
 36
0.0
 17
0.0
 27
1.0
 37
0.0
 76
     0
330
1B
  0
LAYOUT
  5
26
102
{ACAD_REACTORS
330
1A
102
}
330
1A
100
AcDbPlotSettings
  1

  2
none_device
  4

  6

 40
0.0
 41
0.0
 42
0.0
 43
0.0
 44
0.0
 45
0.0
 46
0.0
 47
0.0
 48
0.0
 49
0.0
140
0.0
141
0.0
142
1.0
143
1.0
 70
   688
 72
     0
 73
     0
 74
     5
  7

 75
    16
 76
     0
 77
     2
 78
   300
147
1.0
148
0.0
149
0.0
100
AcDbLayout
  1
Layout2
 70
     1
 71
     2
 10
0.0
 20
0.0
 11
0.0
 21
0.0
 12
0.0
 22
0.0
 32
0.0
 14
0.0
 24
0.0
 34
0.0
 15
0.0
 25
0.0
 35
0.0
146
0.0
 13
0.0
 23
0.0
 33
0.0
 16
1.0
 26
0.0
 36
0.0
 17
0.0
 27
1.0
 37
0.0
 76
     0
330
23
  0
LAYOUT
  5
22
102
{ACAD_REACTORS
330
1A
102
}
330
1A
100
AcDbPlotSettings
  1

  2
none_device
  4

  6

 40
0.0
 41
0.0
 42
0.0
 43
0.0
 44
0.0
 45
0.0
 46
0.0
 47
0.0
 48
0.0
 49
0.0
140
0.0
141
0.0
142
1.0
143
1.0
 70
  1712
 72
     0
 73
     0
 74
     0
  7

 75
     0
 76
     0
 77
     2
 78
   300
147
1.0
148
0.0
149
0.0
100
AcDbLayout
  1
Model
 70
     1
 71
     0
 10
0.0
 20
0.0
 11
12.0
 21
9.0
 12
0.0
 22
0.0
 32
0.0
 14
1.000000000000000E+20
 24
1.000000000000000E+20
 34
1.000000000000000E+20
 15
-1.000000000000000E+20
 25
-1.000000000000000E+20
 35
-1.000000000000000E+20
146
0.0
 13
0.0
 23
0.0
 33
0.0
 16
1.0
 26
0.0
 36
0.0
 17
0.0
 27
1.0
 37
0.0
 76
     0
330
1F
331
29
  0
MLINESTYLE
  5
18
102
{ACAD_REACTORS
330
17
102
}
330
17
100
AcDbMlineStyle
  2
Standard
 70
     0
  3

 62
   256
 51
90.0
 52
90.0
 71
     2
 49
0.5
 62
   256
  6
BYLAYER
 49
-0.5
 62
   256
  6
BYLAYER
  0
ACDBPLACEHOLDER
  5
F
102
{ACAD_REACTORS
330
E
102
}
330
E
  0
VISUALSTYLE
  5
2F
102
{ACAD_REACTORS
330
2A
102
}
330
2A
100
AcDbVisualStyle
  2
2dWireframe
 70
     4
 71
     0
 72
     2
 73
     0
 90
        0
 40
-0.6
 41
-30.0
 62
     5
 63
     7
421
 16777215
 74
     1
 91
        4
 64
     7
 65
   257
 75
     1
175
     1
 42
1.0
 92
        0
 66
   257
 43
1.0
 76
     1
 77
     6
 78
     2
 67
     7
 79
     5
170
     0
171
     0
290
     0
174
     0
 93
        1
 44
0.0
173
     0
291
     0
 45
0.0
1001
ACAD
1000
AcDbSavedByObjectVersion
1070
     0
  0
VISUALSTYLE
  5
31
102
{ACAD_REACTORS
330
2A
102
}
330
2A
100
AcDbVisualStyle
  2
3D Hidden
 70
     6
 71
     1
 72
     2
 73
     2
 90
        0
 40
-0.6
 41
-30.0
 62
     5
 63
     7
421
 16777215
 74
     2
 91
        2
 64
     7
 65
   257
 75
     2
175
     1
 42
40.0
 92
        0
 66
   257
 43
1.0
 76
     1
 77
     6
 78
     2
 67
     7
 79
     3
170
     0
171
     0
290
     0
174
     0
 93
        1
 44
0.0
173
     0
291
     0
 45
0.0
1001
ACAD
1000
AcDbSavedByObjectVersion
1070
     0
  0
VISUALSTYLE
  5
30
102
{ACAD_REACTORS
330
2A
102
}
330
2A
100
AcDbVisualStyle
  2
3dWireframe
 70
     5
 71
     0
 72
     2
 73
     0
 90
        0
 40
-0.6
 41
-30.0
 62
     5
 63
     7
421
 16777215
 74
     1
 91
        4
 64
     7
 65
   257
 75
     1
175
     1
 42
1.0
 92
        0
 66
   257
 43
1.0
 76
     1
 77
     6
 78
     2
 67
     7
 79
     5
170
     0
171
     0
290
     0
174
     0
 93
        1
 44
0.0
173
     0
291
     0
 45
0.0
1001
ACAD
1000
AcDbSavedByObjectVersion
1070
     0
  0
VISUALSTYLE
  5
32
102
{ACAD_REACTORS
330
2A
102
}
330
2A
100
AcDbVisualStyle
  2
Basic
 70
     7
 71
     1
 72
     0
 73
     1
 90
        0
 40
-0.6
 41
-30.0
 62
     5
 63
     7
421
 16777215
 74
     0
 91
        4
 64
     7
 65
   257
 75
     1
175
     1
 42
1.0
 92
        8
 66
     7
 43
1.0
 76
     1
 77
     6
 78
     2
 67
     7
 79
     5
170
     0
171
     0
290
     0
174
     0
 93
        1
 44
0.0
173
     0
291
     1
 45
0.0
1001
ACAD
1000
AcDbSavedByObjectVersion
1070
     0
  0
VISUALSTYLE
  5
36
102
{ACAD_REACTORS
330
2A
102
}
330
2A
100
AcDbVisualStyle
  2
Brighten
 70
    12
 71
     2
 72
     2
 73
     0
 90
        0
 40
-0.6
 41
-30.0
 62
     5
 63
     7
421
 16777215
 74
     1
 91
        4
 64
     7
 65
   257
 75
     1
175
     1
 42
1.0
 92
        8
 66
     7
 43
1.0
 76
     1
 77
     6
 78
     2
 67
     7
 79
     5
170
     0
171
     0
290
     0
174
     0
 93
        1
 44
50.0
173
     0
291
     1
 45
0.0
1001
ACAD
1000
AcDbSavedByObjectVersion
1070
     0
  0
VISUALSTYLE
  5
3A
102
{ACAD_REACTORS
330
2A
102
}
330
2A
100
AcDbVisualStyle
  2
ColorChange
 70
    16
 71
     2
 72
     2
 73
     3
 90
        0
 40
-0.6
 41
-30.0
 62
     5
 63
     8
421
  8421504
 74
     1
 91
        4
 64
     7
 65
   257
 75
     1
175
     1
 42
1.0
 92
        8
 66
     8
424
  8421504
 43
1.0
 76
     1
 77
     6
 78
     2
 67
     7
 79
     5
170
     0
171
     0
290
     0
174
     0
 93
        1
 44
0.0
173
     0
291
     1
 45
0.0
1001
ACAD
1000
AcDbSavedByObjectVersion
1070
     0
  0
VISUALSTYLE
  5
34
102
{ACAD_REACTORS
330
2A
102
}
330
2A
100
AcDbVisualStyle
  2
Conceptual
 70
     9
 71
     3
 72
     2
 73
     0
 90
        0
 40
-0.6
 41
-30.0
 62
     5
 63
     7
421
 16777215
 74
     2
 91
        2
 64
     7
 65
   257
 75
     1
175
     1
 42
40.0
 92
        8
 66
     7
 43
1.0
 76
     1
 77
     6
 78
     2
 67
     7
 79
     3
170
     0
171
     0
290
     0
174
     0
 93
        1
 44
0.0
173
     0
291
     0
 45
0.0
1001
ACAD
1000
AcDbSavedByObjectVersion
1070
     0
  0
VISUALSTYLE
  5
35
102
{ACAD_REACTORS
330
2A
102
}
330
2A
100
AcDbVisualStyle
  2
Dim
 70
    11
 71
     2
 72
     2
 73
     0
 90
        0
 40
-0.6
 41
-30.0
 62
     5
 63
     7
421
 16777215
 74
     1
 91
        4
 64
     7
 65
   257
 75
     1
175
     1
 42
1.0
 92
        8
 66
     7
 43
1.0
 76
     1
 77
     6
 78
     2
 67
     7
 79
     5
170
     0
171
     0
290
     0
174
     0
 93
        1
 44
-50.0
173
     0
291
     1
 45
0.0
1001
ACAD
1000
AcDbSavedByObjectVersion
1070
     0
  0
VISUALSTYLE
  5
39
102
{ACAD_REACTORS
330
2A
102
}
330
2A
100
AcDbVisualStyle
  2
Facepattern
 70
    15
 71
     2
 72
     2
 73
     0
 90
        0
 40
-0.6
 41
-30.0
 62
     5
 63
     7
421
 16777215
 74
     1
 91
        4
 64
     7
 65
   257
 75
     1
175
     1
 42
1.0
 92
        8
 66
     7
 43
1.0
 76
     1
 77
     6
 78
     2
 67
     7
 79
     5
170
     0
171
     0
290
     0
174
     0
 93
        1
 44
0.0
173
     0
291
     1
 45
0.0
1001
ACAD
1000
AcDbSavedByObjectVersion
1070
     0
  0
VISUALSTYLE
  5
2B
102
{ACAD_REACTORS
330
2A
102
}
330
2A
100
AcDbVisualStyle
  2
Flat
 70
     0
 71
     2
 72
     1
 73
     1
 90
        2
 40
-0.6
 41
30.0
 62
     5
 63
     7
421
 16777215
 74
     0
 91
        4
 64
     7
 65
   257
 75
     1
175
     1
 42
1.0
 92
        8
 66
     7
 43
1.0
 76
     1
 77
     6
 78
     2
 67
     7
 79
     5
170
     0
171
     0
290
     0
174
     0
 93
       13
 44
0.0
173
     0
291
     1
 45
0.0
1001
ACAD
1000
AcDbSavedByObjectVersion
1070
     0
  0
VISUALSTYLE
  5
2C
102
{ACAD_REACTORS
330
2A
102
}
330
2A
100
AcDbVisualStyle
  2
FlatWithEdges
 70
     1
 71
     2
 72
     1
 73
     1
 90
        2
 40
-0.6
 41
30.0
 62
     5
 63
     7
421
 16777215
 74
     1
 91
        4
 64
     7
 65
   257
 75
     1
175
     1
 42
1.0
 92
        0
 66
   257
 43
1.0
 76
     1
 77
     6
 78
     2
 67
     7
 79
     5
170
     0
171
     0
290
     0
174
     0
 93
       13
 44
0.0
173
     0
291
     1
 45
0.0
1001
ACAD
1000
AcDbSavedByObjectVersion
1070
     0
  0
VISUALSTYLE
  5
2D
102
{ACAD_REACTORS
330
2A
102
}
330
2A
100
AcDbVisualStyle
  2
Gouraud
 70
     2
 71
     2
 72
     2
 73
     1
 90
        2
 40
-0.6
 41
30.0
 62
     5
 63
     7
421
 16777215
 74
     0
 91
        4
 64
     7
 65
   257
 75
     1
175
     1
 42
1.0
 92
        0
 66
     7
 43
1.0
 76
     1
 77
     6
 78
     2
 67
     7
 79
     5
170
     0
171
     0
290
     0
174
     0
 93
       13
 44
0.0
173
     0
291
     1
 45
0.0
1001
ACAD
1000
AcDbSavedByObjectVersion
1070
     0
  0
VISUALSTYLE
  5
2E
102
{ACAD_REACTORS
330
2A
102
}
330
2A
100
AcDbVisualStyle
  2
GouraudWithEdges
 70
     3
 71
     2
 72
     2
 73
     1
 90
        2
 40
-0.6
 41
30.0
 62
     5
 63
     7
421
 16777215
 74
     1
 91
        4
 64
     7
 65
   257
 75
     1
175
     1
 42
1.0
 92
        0
 66
   257
 43
1.0
 76
     1
 77
     6
 78
     2
 67
     7
 79
     5
170
     0
171
     0
290
     0
174
     0
 93
       13
 44
0.0
173
     0
291
     1
 45
0.0
1001
ACAD
1000
AcDbSavedByObjectVersion
1070
     0
  0
VISUALSTYLE
  5
38
102
{ACAD_REACTORS
330
2A
102
}
330
2A
100
AcDbVisualStyle
  2
Linepattern
 70
    14
 71
     2
 72
     2
 73
     0
 90
        0
 40
-0.6
 41
-30.0
 62
     5
 63
     7
421
 16777215
 74
     1
 91
        4
 64
     7
 65
   257
 75
     7
175
     7
 42
1.0
 92
        8
 66
     7
 43
1.0
 76
     1
 77
     6
 78
     2
 67
     7
 79
     5
170
     0
171
     0
290
     0
174
     0
 93
        1
 44
0.0
173
     0
291
     1
 45
0.0
1001
ACAD
1000
AcDbSavedByObjectVersion
1070
     0
  0
VISUALSTYLE
  5
33
102
{ACAD_REACTORS
330
2A
102
}
330
2A
100
AcDbVisualStyle
  2
Realistic
 70
     8
 71
     2
 72
     2
 73
     0
 90
        0
 40
-0.6
 41
-30.0
 62
     5
 63
     7
421
 16777215
 74
     1
 91
        0
 64
     7
 65
   257
 75
     1
175
     1
 42
1.0
 92
        8
 66
     8
424
  7895160
 43
1.0
 76
     1
 77
     6
 78
     2
 67
     7
 79
     5
170
     0
171
     0
290
     0
174
     0
 93
       13
 44
0.0
173
     0
291
     0
 45
0.0
1001
ACAD
1000
AcDbSavedByObjectVersion
1070
     0
  0
VISUALSTYLE
  5
37
102
{ACAD_REACTORS
330
2A
102
}
330
2A
100
AcDbVisualStyle
  2
Thicken
 70
    13
 71
     2
 72
     2
 73
     0
 90
        0
 40
-0.6
 41
-30.0
 62
     5
 63
     7
421
 16777215
 74
     1
 91
        4
 64
     7
 65
   257
 75
     1
175
     1
 42
1.0
 92
       12
 66
     7
 43
1.0
 76
     1
 77
     6
 78
     2
 67
     7
 79
     5
170
     0
171
     0
290
     0
174
     0
 93
        1
 44
0.0
173
     0
291
     1
 45
0.0
1001
ACAD
1000
AcDbSavedByObjectVersion
1070
     0
  0
ENDSEC
  0
EOF
