  0
SECTION
  2
HEADER
  9
$ACADVER
  1
AC1009
  0
ENDSEC
  0
SECTION
  2
ENTITIES
  0
POLYLINE
  5
90
  8
Layer_1
  62
5
  66
1
  10
0
  20
0
  30
0
  0
VERTEX
  5
90
  8
Layer_1
  10
46.009865
  20
125.08189
  0
VERTEX
  5
91
  8
Layer_1
  10
44.288918
  20
125.08189
  0
VERTEX
  5
92
  8
Layer_1
  10
45.212013
  20
126.02794
  42
0.079558949
  0
VERTEX
  5
93
  8
Layer_1
  10
45.855812
  20
126.80675
  42
0.35589002
  0
VERTEX
  5
94
  8
Layer_1
  10
45.653664
  20
128.09483
  42
0.20120307
  0
VERTEX
  5
95
  8
Layer_1
  10
44.524757
  20
128.36266
  42
0.060133833
  0
VERTEX
  5
96
  8
Layer_1
  10
43.72007
  20
128.13658
  0
VERTEX
  5
97
  8
Layer_1
  10
43.72007
  20
127.63805
  0
VERTEX
  5
98
  8
Layer_1
  10
44.00425
  20
127.78136
  42
-0.14114832
  0
VERTEX
  5
99
  8
Layer_1
  10
44.915871
  20
127.95152
  42
-0.38982534
  0
VERTEX
  5
9a
  8
Layer_1
  10
45.495216
  20
127.30602
  42
-0.16454193
  0
VERTEX
  5
9b
  8
Layer_1
  10
45.179543
  20
126.6212
  42
-0.018985526
  0
VERTEX
  5
9c
  8
Layer_1
  10
43.6959
  20
125.08189
  0
VERTEX
  5
9d
  8
Layer_1
  10
43.6959
  20
124.6671
  0
VERTEX
  5
9e
  8
Layer_1
  10
46.009865
  20
124.6671
  0
VERTEX
  5
9f
  8
Layer_1
  10
46.009865
  20
125.08189
  0
SEQEND
  0
POLYLINE
  5
a1
  8
Layer_1
  62
5
  66
1
  10
0
  20
0
  30
0
  0
VERTEX
  5
a1
  8
Layer_1
  10
49.190529
  20
125.08189
  0
VERTEX
  5
a2
  8
Layer_1
  10
47.469337
  20
125.08189
  0
VERTEX
  5
a3
  8
Layer_1
  10
48.392433
  20
126.02794
  42
0.07970306
  0
VERTEX
  5
a4
  8
Layer_1
  10
49.036232
  20
126.80675
  42
0.35599189
  0
VERTEX
  5
a5
  8
Layer_1
  10
48.834084
  20
128.09483
  42
0.20120334
  0
VERTEX
  5
a6
  8
Layer_1
  10
47.705177
  20
128.36266
  42
0.060133725
  0
VERTEX
  5
a7
  8
Layer_1
  10
46.90049
  20
128.13658
  0
VERTEX
  5
a8
  8
Layer_1
  10
46.90049
  20
127.63805
  0
VERTEX
  5
a9
  8
Layer_1
  10
47.184669
  20
127.78136
  42
-0.14114829
  0
VERTEX
  5
aa
  8
Layer_1
  10
48.096291
  20
127.95152
  42
-0.38991356
  0
VERTEX
  5
ab
  8
Layer_1
  10
48.675636
  20
127.30602
  42
-0.16460738
  0
VERTEX
  5
ac
  8
Layer_1
  10
48.359962
  20
126.6212
  42
-0.018985273
  0
VERTEX
  5
ad
  8
Layer_1
  10
46.87632
  20
125.08189
  0
VERTEX
  5
ae
  8
Layer_1
  10
46.87632
  20
124.6671
  0
VERTEX
  5
af
  8
Layer_1
  10
49.190529
  20
124.6671
  0
VERTEX
  5
b0
  8
Layer_1
  10
49.190529
  20
125.08189
  0
SEQEND
  0
POLYLINE
  5
b2
  8
Layer_1
  62
5
  66
1
  10
0
  20
0
  30
0
  0
VERTEX
  5
b2
  8
Layer_1
  10
51.428322
  20
124.60338
  42
0.29290369
  0
VERTEX
  5
b3
  8
Layer_1
  10
52.357765
  20
125.3502
  42
0.18287387
  0
VERTEX
  5
b4
  8
Layer_1
  10
52.292091
  20
127.76524
  42
0.3870556
  0
VERTEX
  5
b5
  8
Layer_1
  10
50.860695
  20
128.30968
  42
0.24182893
  0
VERTEX
  5
b6
  8
Layer_1
  10
50.146584
  20
127.46812
  42
0.16770573
  0
VERTEX
  5
b7
  8
Layer_1
  10
50.267677
  20
125.2086
  42
0.32996582
  0
VERTEX
  5
b8
  8
Layer_1
  10
51.428322
  20
124.60338
  0
SEQEND
  0
POLYLINE
  5
ba
  8
Layer_1
  62
5
  70
1
  66
1
  10
0
  20
0
  30
0
  0
VERTEX
  5
ba
  8
Layer_1
  10
51.101173
  20
125.00987
  0
VERTEX
  5
bb
  8
Layer_1
  10
50.946144
  20
125.08018
  42
-0.16809614
  0
VERTEX
  5
bc
  8
Layer_1
  10
50.62339
  20
125.57237
  42
-0.12057583
  0
VERTEX
  5
bd
  8
Layer_1
  10
50.62339
  20
127.40172
  42
-0.18319724
  0
VERTEX
  5
be
  8
Layer_1
  10
50.946144
  20
127.89366
  42
-0.37184676
  0
VERTEX
  5
bf
  8
Layer_1
  10
51.746925
  20
127.77672
  42
-0.15287506
  0
VERTEX
  5
c0
  8
Layer_1
  10
52.034767
  20
126.83824
  42
-0.084802974
  0
VERTEX
  5
c1
  8
Layer_1
  10
51.93882
  20
125.57237
  42
-0.18372279
  0
VERTEX
  5
c2
  8
Layer_1
  10
51.615089
  20
125.08018
  42
-0.20610149
  0
SEQEND
  0
POLYLINE
  5
c4
  8
Layer_1
  62
5
  66
1
  10
0
  20
0
  30
0
  0
VERTEX
  5
c4
  8
Layer_1
  10
50.128223
  20
95.652473
  42
0.29276599
  0
VERTEX
  5
c5
  8
Layer_1
  10
51.056934
  20
96.3993
  42
0.183032
  0
VERTEX
  5
c6
  8
Layer_1
  10
50.991261
  20
98.814339
  42
0.3872665
  0
VERTEX
  5
c7
  8
Layer_1
  10
49.560352
  20
99.358772
  42
0.24179251
  0
VERTEX
  5
c8
  8
Layer_1
  10
48.845753
  20
98.51722
  42
0.16777726
  0
VERTEX
  5
c9
  8
Layer_1
  10
48.967091
  20
96.257698
  42
0.33002251
  0
VERTEX
  5
ca
  8
Layer_1
  10
50.128223
  20
95.652473
  0
SEQEND
  0
POLYLINE
  5
cc
  8
Layer_1
  62
5
  66
1
  10
0
  20
0
  30
0
  0
VERTEX
  5
cc
  8
Layer_1
  10
44.749073
  20
96.130989
  0
VERTEX
  5
cd
  8
Layer_1
  10
43.942921
  20
96.130989
  0
VERTEX
  5
ce
  8
Layer_1
  10
43.942921
  20
99.361458
  0
VERTEX
  5
cf
  8
Layer_1
  10
43.449757
  20
99.361458
  0
VERTEX
  5
d0
  8
Layer_1
  10
42.578663
  20
99.185677
  0
VERTEX
  5
d1
  8
Layer_1
  10
42.578663
  20
98.736458
  0
VERTEX
  5
d2
  8
Layer_1
  10
43.454639
  20
98.912239
  0
VERTEX
  5
d3
  8
Layer_1
  10
43.454639
  20
96.130989
  0
VERTEX
  5
d4
  8
Layer_1
  10
42.648975
  20
96.130989
  0
VERTEX
  5
d5
  8
Layer_1
  10
42.648975
  20
95.716194
  0
VERTEX
  5
d6
  8
Layer_1
  10
44.749073
  20
95.716194
  0
VERTEX
  5
d7
  8
Layer_1
  10
44.749073
  20
96.130989
  0
SEQEND
  0
POLYLINE
  5
d9
  8
Layer_1
  62
5
  66
1
  10
0
  20
0
  30
0
  0
VERTEX
  5
d9
  8
Layer_1
  10
47.589649
  20
96.575569
  0
VERTEX
  5
da
  8
Layer_1
  10
48.109913
  20
96.575569
  0
VERTEX
  5
db
  8
Layer_1
  10
48.109913
  20
96.985725
  0
VERTEX
  5
dc
  8
Layer_1
  10
47.589649
  20
96.985725
  0
VERTEX
  5
dd
  8
Layer_1
  10
47.589649
  20
99.361458
  0
VERTEX
  5
de
  8
Layer_1
  10
46.970264
  20
99.361458
  0
VERTEX
  5
df
  8
Layer_1
  10
45.453663
  20
97.051155
  0
VERTEX
  5
e0
  8
Layer_1
  10
45.453663
  20
96.575569
  0
VERTEX
  5
e1
  8
Layer_1
  10
47.099171
  20
96.575569
  0
VERTEX
  5
e2
  8
Layer_1
  10
47.099171
  20
95.716194
  0
VERTEX
  5
e3
  8
Layer_1
  10
47.589649
  20
95.716194
  0
VERTEX
  5
e4
  8
Layer_1
  10
47.589649
  20
96.575569
  0
SEQEND
  0
POLYLINE
  5
e6
  8
Layer_1
  62
5
  66
1
  10
0
  20
0
  30
0
  0
VERTEX
  5
e6
  8
Layer_1
  10
49.800831
  20
96.058968
  0
VERTEX
  5
e7
  8
Layer_1
  10
49.645802
  20
96.12928
  42
-0.16821302
  0
VERTEX
  5
e8
  8
Layer_1
  10
49.323048
  20
96.621468
  42
-0.12027236
  0
VERTEX
  5
e9
  8
Layer_1
  10
49.323048
  20
98.450813
  42
-0.18381019
  0
VERTEX
  5
ea
  8
Layer_1
  10
49.645802
  20
98.942757
  42
-0.37202486
  0
VERTEX
  5
eb
  8
Layer_1
  10
50.446339
  20
98.825813
  42
-0.15273571
  0
VERTEX
  5
ec
  8
Layer_1
  10
50.733936
  20
97.887337
  42
-0.084859178
  0
VERTEX
  5
ed
  8
Layer_1
  10
50.637989
  20
96.621468
  42
-0.18403353
  0
VERTEX
  5
ee
  8
Layer_1
  10
50.314503
  20
96.12928
  42
-0.20624072
  0
VERTEX
  5
ef
  8
Layer_1
  10
49.800831
  20
96.058968
  0
SEQEND
  0
POLYLINE
  5
f1
  8
Layer_1
  62
5
  70
1
  66
1
  10
0
  20
0
  30
0
  0
VERTEX
  5
f1
  8
Layer_1
  10
45.853809
  20
96.985725
  0
VERTEX
  5
f2
  8
Layer_1
  10
47.099171
  20
98.93177
  0
VERTEX
  5
f3
  8
Layer_1
  10
47.099171
  20
96.985725
  0
SEQEND
  0
POLYLINE
  5
f5
  8
Layer_1
  62
5
  66
1
  10
0
  20
0
  30
0
  0
VERTEX
  5
f5
  8
Layer_1
  10
51.456535
  20
61.814835
  42
0.39475347
  0
VERTEX
  5
f6
  8
Layer_1
  10
52.476555
  20
63.005508
  42
0.1677398
  0
VERTEX
  5
f7
  8
Layer_1
  10
51.801506
  20
65.165176
  42
0.38722372
  0
VERTEX
  5
f8
  8
Layer_1
  10
50.280022
  20
65.339737
  42
0.06872226
  0
VERTEX
  5
f9
  8
Layer_1
  10
50.155022
  20
65.237686
  0
VERTEX
  5
fa
  8
Layer_1
  10
48.194572
  20
65.737198
  0
VERTEX
  5
fb
  8
Layer_1
  10
48.092033
  20
65.334366
  0
VERTEX
  5
fc
  8
Layer_1
  10
49.788567
  20
64.902237
  0
VERTEX
  5
fd
  8
Layer_1
  10
47.78466
  20
62.079971
  0
VERTEX
  5
fe
  8
Layer_1
  10
48.283684
  20
61.952774
  0
VERTEX
  5
ff
  8
Layer_1
  10
49.798088
  20
64.087296
  0
VERTEX
  5
100
  8
Layer_1
  10
49.803947
  20
63.986954
  42
0.12525417
  0
VERTEX
  5
101
  8
Layer_1
  10
50.372063
  20
62.309219
  42
0.2954609
  0
VERTEX
  5
102
  8
Layer_1
  10
51.456535
  20
61.814835
  0
SEQEND
  0
POLYLINE
  5
104
  8
Layer_1
  62
5
  70
1
  66
1
  10
0
  20
0
  30
0
  0
VERTEX
  5
104
  8
Layer_1
  10
51.159904
  20
62.231339
  42
-0.16787693
  0
VERTEX
  5
105
  8
Layer_1
  10
50.725578
  20
62.628555
  42
-0.1205698
  0
VERTEX
  5
106
  8
Layer_1
  10
50.273918
  20
64.40126
  42
-0.18334613
  0
VERTEX
  5
107
  8
Layer_1
  10
50.465569
  20
64.957657
  42
-0.37195527
  0
VERTEX
  5
108
  8
Layer_1
  10
51.2705
  20
65.041885
  42
-0.15299244
  0
VERTEX
  5
109
  8
Layer_1
  10
51.780754
  20
64.203506
  42
-0.085049664
  0
VERTEX
  5
10a
  8
Layer_1
  10
52.000237
  20
62.953262
  42
-0.18372031
  0
VERTEX
  5
10b
  8
Layer_1
  10
51.808098
  20
62.396378
  42
-0.28193807
  0
SEQEND
  0
POLYLINE
  5
10d
  8
Layer_1
  62
5
  66
1
  10
0
  20
0
  30
0
  0
VERTEX
  5
10d
  8
Layer_1
  10
51.739624
  20
22.906982
  42
0.2929696
  0
VERTEX
  5
10e
  8
Layer_1
  10
52.669067
  20
23.653809
  42
0.18304278
  0
VERTEX
  5
10f
  8
Layer_1
  10
52.603394
  20
26.068848
  42
0.38716581
  0
VERTEX
  5
110
  8
Layer_1
  10
51.172241
  20
26.613281
  42
0.2416578
  0
VERTEX
  5
111
  8
Layer_1
  10
50.457886
  20
25.771729
  42
0.14902899
  0
VERTEX
  5
112
  8
Layer_1
  10
50.51355
  20
23.653809
  42
0.36349033
  0
VERTEX
  5
113
  8
Layer_1
  10
51.739624
  20
22.906982
  0
SEQEND
  0
POLYLINE
  5
115
  8
Layer_1
  62
5
  66
1
  10
0
  20
0
  30
0
  0
VERTEX
  5
115
  8
Layer_1
  10
48.481079
  20
22.919922
  42
0.21336768
  0
VERTEX
  5
116
  8
Layer_1
  10
49.359253
  20
23.405029
  42
0.281865
  0
VERTEX
  5
117
  8
Layer_1
  10
49.364868
  20
24.863525
  42
0.21305516
  0
VERTEX
  5
118
  8
Layer_1
  10
48.531616
  20
25.359131
  42
0.12717609
  0
VERTEX
  5
119
  8
Layer_1
  10
47.812866
  20
25.307373
  0
VERTEX
  5
11a
  8
Layer_1
  10
47.812866
  20
26.200195
  0
VERTEX
  5
11b
  8
Layer_1
  10
49.297241
  20
26.200195
  0
VERTEX
  5
11c
  8
Layer_1
  10
49.297241
  20
26.615967
  0
VERTEX
  5
11d
  8
Layer_1
  10
47.360474
  20
26.615967
  0
VERTEX
  5
11e
  8
Layer_1
  10
47.360474
  20
24.784668
  0
VERTEX
  5
11f
  8
Layer_1
  10
47.563599
  20
24.865234
  42
-0.2020836
  0
VERTEX
  5
120
  8
Layer_1
  10
48.691528
  20
24.840088
  42
-0.36814418
  0
VERTEX
  5
121
  8
Layer_1
  10
49.01062
  20
23.798828
  42
-0.31606081
  0
VERTEX
  5
122
  8
Layer_1
  10
48.156616
  20
23.315186
  42
-0.12848579
  0
VERTEX
  5
123
  8
Layer_1
  10
47.207397
  20
23.551758
  0
VERTEX
  5
124
  8
Layer_1
  10
47.207397
  20
23.055664
  42
0.10882369
  0
VERTEX
  5
125
  8
Layer_1
  10
48.481079
  20
22.919922
  0
SEQEND
  0
POLYLINE
  5
127
  8
Layer_1
  62
5
  70
1
  66
1
  10
0
  20
0
  30
0
  0
VERTEX
  5
127
  8
Layer_1
  10
51.412476
  20
23.313477
  42
-0.15220678
  0
VERTEX
  5
128
  8
Layer_1
  10
51.126343
  20
23.500977
  42
-0.1524262
  0
VERTEX
  5
129
  8
Layer_1
  10
50.838745
  20
24.438232
  42
-0.084643611
  0
VERTEX
  5
12a
  8
Layer_1
  10
50.934692
  20
25.705322
  42
-0.18349918
  0
VERTEX
  5
12b
  8
Layer_1
  10
51.25769
  20
26.197266
  42
-0.37191285
  0
VERTEX
  5
12c
  8
Layer_1
  10
52.058228
  20
26.080322
  42
-0.15261699
  0
VERTEX
  5
12d
  8
Layer_1
  10
52.345337
  20
25.141846
  42
-0.08463294
  0
VERTEX
  5
12e
  8
Layer_1
  10
52.249634
  20
23.875977
  42
-0.1842084
  0
VERTEX
  5
12f
  8
Layer_1
  10
51.926392
  20
23.383789
  42
-0.20610579
  0
SEQEND
  0
POLYLINE
  5
131
  8
Layer_0
  62
0
  66
1
  10
0
  20
0
  30
0
  0
VERTEX
  5
131
  8
Layer_0
  10
43.764114
  20
22.928001
  0
VERTEX
  5
132
  8
Layer_0
  10
43.750108
  20
22.565517
  0
VERTEX
  5
133
  8
Layer_0
  10
43.70854
  20
22.207791
  0
VERTEX
  5
134
  8
Layer_0
  10
43.640088
  20
21.855266
  0
VERTEX
  5
135
  8
Layer_0
  10
43.545426
  20
21.508385
  0
VERTEX
  5
136
  8
Layer_0
  10
43.425232
  20
21.167591
  0
VERTEX
  5
137
  8
Layer_0
  10
43.280181
  20
20.833325
  0
VERTEX
  5
138
  8
Layer_0
  10
43.110951
  20
20.506031
  0
VERTEX
  5
139
  8
Layer_0
  10
42.918217
  20
20.18615
  0
VERTEX
  5
13a
  8
Layer_0
  10
42.464944
  20
19.570403
  0
VERTEX
  5
13b
  8
Layer_0
  10
41.925773
  20
18.989622
  0
VERTEX
  5
13c
  8
Layer_0
  10
41.306114
  20
18.44735
  0
VERTEX
  5
13d
  8
Layer_0
  10
40.611378
  20
17.947126
  0
VERTEX
  5
13e
  8
Layer_0
  10
39.846976
  20
17.492492
  0
VERTEX
  5
13f
  8
Layer_0
  10
39.018318
  20
17.086988
  0
VERTEX
  5
140
  8
Layer_0
  10
38.130816
  20
16.734155
  0
VERTEX
  5
141
  8
Layer_0
  10
37.189879
  20
16.437534
  0
VERTEX
  5
142
  8
Layer_0
  10
36.200918
  20
16.200665
  0
VERTEX
  5
143
  8
Layer_0
  10
35.169344
  20
16.027089
  0
VERTEX
  5
144
  8
Layer_0
  10
34.100568
  20
15.920347
  0
VERTEX
  5
145
  8
Layer_0
  10
33
  20
15.88398
  0
VERTEX
  5
146
  8
Layer_0
  10
31.899432
  20
15.920347
  0
VERTEX
  5
147
  8
Layer_0
  10
30.830656
  20
16.027089
  0
VERTEX
  5
148
  8
Layer_0
  10
29.799082
  20
16.200665
  0
VERTEX
  5
149
  8
Layer_0
  10
28.810121
  20
16.437534
  0
VERTEX
  5
14a
  8
Layer_0
  10
27.869184
  20
16.734155
  0
VERTEX
  5
14b
  8
Layer_0
  10
26.981682
  20
17.086988
  0
VERTEX
  5
14c
  8
Layer_0
  10
26.153024
  20
17.492492
  0
VERTEX
  5
14d
  8
Layer_0
  10
25.388622
  20
17.947126
  0
VERTEX
  5
14e
  8
Layer_0
  10
24.693886
  20
18.44735
  0
VERTEX
  5
14f
  8
Layer_0
  10
24.074227
  20
18.989622
  0
VERTEX
  5
150
  8
Layer_0
  10
23.535056
  20
19.570403
  0
VERTEX
  5
151
  8
Layer_0
  10
23.081783
  20
20.18615
  0
VERTEX
  5
152
  8
Layer_0
  10
22.889049
  20
20.506031
  0
VERTEX
  5
153
  8
Layer_0
  10
22.719819
  20
20.833325
  0
VERTEX
  5
154
  8
Layer_0
  10
22.574768
  20
21.167591
  0
VERTEX
  5
155
  8
Layer_0
  10
22.454574
  20
21.508385
  0
VERTEX
  5
156
  8
Layer_0
  10
22.359912
  20
21.855266
  0
VERTEX
  5
157
  8
Layer_0
  10
22.29146
  20
22.207791
  0
VERTEX
  5
158
  8
Layer_0
  10
22.249892
  20
22.565517
  0
VERTEX
  5
159
  8
Layer_0
  10
22.235886
  20
22.928001
  0
VERTEX
  5
15a
  8
Layer_0
  10
22.249892
  20
23.290486
  0
VERTEX
  5
15b
  8
Layer_0
  10
22.29146
  20
23.648212
  0
VERTEX
  5
15c
  8
Layer_0
  10
22.359912
  20
24.000736
  0
VERTEX
  5
15d
  8
Layer_0
  10
22.454574
  20
24.347617
  0
VERTEX
  5
15e
  8
Layer_0
  10
22.574768
  20
24.688412
  0
VERTEX
  5
15f
  8
Layer_0
  10
22.719819
  20
25.022678
  0
VERTEX
  5
160
  8
Layer_0
  10
22.889049
  20
25.349972
  0
VERTEX
  5
161
  8
Layer_0
  10
23.081783
  20
25.669852
  0
VERTEX
  5
162
  8
Layer_0
  10
23.535056
  20
26.2856
  0
VERTEX
  5
163
  8
Layer_0
  10
24.074227
  20
26.866381
  0
VERTEX
  5
164
  8
Layer_0
  10
24.693886
  20
27.408653
  0
VERTEX
  5
165
  8
Layer_0
  10
25.388622
  20
27.908877
  0
VERTEX
  5
166
  8
Layer_0
  10
26.153024
  20
28.363511
  0
VERTEX
  5
167
  8
Layer_0
  10
26.981682
  20
28.769015
  0
VERTEX
  5
168
  8
Layer_0
  10
27.869184
  20
29.121848
  0
VERTEX
  5
169
  8
Layer_0
  10
28.810121
  20
29.418469
  0
VERTEX
  5
16a
  8
Layer_0
  10
29.799082
  20
29.655338
  0
VERTEX
  5
16b
  8
Layer_0
  10
30.830656
  20
29.828914
  0
VERTEX
  5
16c
  8
Layer_0
  10
31.899432
  20
29.935656
  0
VERTEX
  5
16d
  8
Layer_0
  10
33
  20
29.972023
  0
VERTEX
  5
16e
  8
Layer_0
  10
34.100568
  20
29.935656
  0
VERTEX
  5
16f
  8
Layer_0
  10
35.169344
  20
29.828914
  0
VERTEX
  5
170
  8
Layer_0
  10
36.200918
  20
29.655338
  0
VERTEX
  5
171
  8
Layer_0
  10
37.189879
  20
29.418469
  0
VERTEX
  5
172
  8
Layer_0
  10
38.130816
  20
29.121848
  0
VERTEX
  5
173
  8
Layer_0
  10
39.018318
  20
28.769015
  0
VERTEX
  5
174
  8
Layer_0
  10
39.846976
  20
28.363511
  0
VERTEX
  5
175
  8
Layer_0
  10
40.611378
  20
27.908877
  0
VERTEX
  5
176
  8
Layer_0
  10
41.306114
  20
27.408653
  0
VERTEX
  5
177
  8
Layer_0
  10
41.925773
  20
26.866381
  0
VERTEX
  5
178
  8
Layer_0
  10
42.464944
  20
26.2856
  0
VERTEX
  5
179
  8
Layer_0
  10
42.918217
  20
25.669852
  0
VERTEX
  5
17a
  8
Layer_0
  10
43.110951
  20
25.349972
  0
VERTEX
  5
17b
  8
Layer_0
  10
43.280181
  20
25.022678
  0
VERTEX
  5
17c
  8
Layer_0
  10
43.425232
  20
24.688412
  0
VERTEX
  5
17d
  8
Layer_0
  10
43.545426
  20
24.347617
  0
VERTEX
  5
17e
  8
Layer_0
  10
43.640088
  20
24.000736
  0
VERTEX
  5
17f
  8
Layer_0
  10
43.70854
  20
23.648212
  0
VERTEX
  5
180
  8
Layer_0
  10
43.750108
  20
23.290486
  0
VERTEX
  5
181
  8
Layer_0
  10
43.764114
  20
22.928001
  0
SEQEND
  0
POLYLINE
  5
183
  8
Layer_0
  62
0
  66
1
  10
0
  20
0
  30
0
  0
VERTEX
  5
183
  8
Layer_0
  10
17
  20
25.928001
  0
VERTEX
  5
184
  8
Layer_0
  10
17
  20
30.928001
  0
VERTEX
  5
185
  8
Layer_0
  10
9.5039997
  20
30.928001
  42
0.042005175
  0
VERTEX
  5
186
  8
Layer_0
  10
15.704
  20
20.512001
  42
0.060383401
  0
VERTEX
  5
187
  8
Layer_0
  10
20.903999
  20
14.992001
  42
0.1386503
  0
VERTEX
  5
188
  8
Layer_0
  10
32.256001
  20
10.232
  42
0.017973089
  0
VERTEX
  5
189
  8
Layer_0
  10
34.504002
  20
10
  0
VERTEX
  5
18a
  8
Layer_0
  10
34.504002
  20
12.824
  0
VERTEX
  5
18b
  8
Layer_0
  10
39.504002
  20
12.824
  0
VERTEX
  5
18c
  8
Layer_0
  10
39.504002
  20
10.032001
  42
0.17280437
  0
VERTEX
  5
18d
  8
Layer_0
  10
53.375999
  20
16.271999
  42
0.048038892
  0
VERTEX
  5
18e
  8
Layer_0
  10
58.912003
  20
22.656002
  42
0.016517927
  0
VERTEX
  5
18f
  8
Layer_0
  10
64.503998
  20
30.928001
  0
VERTEX
  5
190
  8
Layer_0
  10
57
  20
30.928001
  0
VERTEX
  5
191
  8
Layer_0
  10
57
  20
25.928001
  0
VERTEX
  5
192
  8
Layer_0
  10
54
  20
25.928001
  0
VERTEX
  5
193
  8
Layer_0
  10
54
  20
33.928001
  0
VERTEX
  5
194
  8
Layer_0
  10
20
  20
33.928001
  0
VERTEX
  5
195
  8
Layer_0
  10
20
  20
25.928001
  0
VERTEX
  5
196
  8
Layer_0
  10
17
  20
25.928001
  0
SEQEND
  0
POLYLINE
  5
198
  8
Layer_0
  62
0
  66
1
  10
0
  20
0
  30
0
  0
VERTEX
  5
198
  8
Layer_0
  10
19.992001
  20
59.035999
  0
VERTEX
  5
199
  8
Layer_0
  10
17
  20
59.035999
  0
VERTEX
  5
19a
  8
Layer_0
  10
17
  20
64.036003
  0
VERTEX
  5
19b
  8
Layer_0
  10
5.5039997
  20
64.036003
  42
0.07292217
  0
VERTEX
  5
19c
  8
Layer_0
  10
8.4880009
  20
56.619999
  42
0.13548373
  0
VERTEX
  5
19d
  8
Layer_0
  10
25.335999
  20
39.723999
  42
0.065211139
  0
VERTEX
  5
19e
  8
Layer_0
  10
32.608002
  20
36.899998
  42
0.025604972
  0
VERTEX
  5
19f
  8
Layer_0
  10
34.504002
  20
36.571999
  0
VERTEX
  5
1a0
  8
Layer_0
  10
34.504002
  20
39.332001
  0
VERTEX
  5
1a1
  8
Layer_0
  10
39.504002
  20
39.332001
  0
VERTEX
  5
1a2
  8
Layer_0
  10
39.504002
  20
36.5
  42
0.12995942
  0
VERTEX
  5
1a3
  8
Layer_0
  10
54.279999
  20
41.972
  42
0.20074591
  0
VERTEX
  5
1a4
  8
Layer_0
  10
68.503998
  20
64.036003
  0
VERTEX
  5
1a5
  8
Layer_0
  10
57
  20
64.036003
  0
VERTEX
  5
1a6
  8
Layer_0
  10
57
  20
59.035999
  0
VERTEX
  5
1a7
  8
Layer_0
  10
54
  20
59.035999
  0
VERTEX
  5
1a8
  8
Layer_0
  10
54
  20
67.036003
  0
VERTEX
  5
1a9
  8
Layer_0
  10
20
  20
67.036003
  42
0.0023897509
  0
VERTEX
  5
1aa
  8
Layer_0
  10
19.992001
  20
59.035999
  0
SEQEND
  0
POLYLINE
  5
1ac
  8
Layer_0
  62
0
  66
1
  10
0
  20
0
  30
0
  0
VERTEX
  5
1ac
  8
Layer_0
  10
44.764114
  20
54.035999
  0
VERTEX
  5
1ad
  8
Layer_0
  10
44.750108
  20
53.673515
  0
VERTEX
  5
1ae
  8
Layer_0
  10
44.70854
  20
53.315789
  0
VERTEX
  5
1af
  8
Layer_0
  10
44.640088
  20
52.963264
  0
VERTEX
  5
1b0
  8
Layer_0
  10
44.545426
  20
52.616383
  0
VERTEX
  5
1b1
  8
Layer_0
  10
44.425232
  20
52.275589
  0
VERTEX
  5
1b2
  8
Layer_0
  10
44.280181
  20
51.941323
  0
VERTEX
  5
1b3
  8
Layer_0
  10
44.110951
  20
51.614029
  0
VERTEX
  5
1b4
  8
Layer_0
  10
43.918217
  20
51.294148
  0
VERTEX
  5
1b5
  8
Layer_0
  10
43.464944
  20
50.678401
  0
VERTEX
  5
1b6
  8
Layer_0
  10
42.925773
  20
50.09762
  0
VERTEX
  5
1b7
  8
Layer_0
  10
42.306114
  20
49.555348
  0
VERTEX
  5
1b8
  8
Layer_0
  10
41.611378
  20
49.055124
  0
VERTEX
  5
1b9
  8
Layer_0
  10
40.846976
  20
48.60049
  0
VERTEX
  5
1ba
  8
Layer_0
  10
40.018318
  20
48.194986
  0
VERTEX
  5
1bb
  8
Layer_0
  10
39.130816
  20
47.842153
  0
VERTEX
  5
1bc
  8
Layer_0
  10
38.189879
  20
47.545532
  0
VERTEX
  5
1bd
  8
Layer_0
  10
37.200918
  20
47.308663
  0
VERTEX
  5
1be
  8
Layer_0
  10
36.169344
  20
47.135087
  0
VERTEX
  5
1bf
  8
Layer_0
  10
35.100568
  20
47.028345
  0
VERTEX
  5
1c0
  8
Layer_0
  10
34
  20
46.991978
  0
VERTEX
  5
1c1
  8
Layer_0
  10
32.899432
  20
47.028345
  0
VERTEX
  5
1c2
  8
Layer_0
  10
31.830656
  20
47.135087
  0
VERTEX
  5
1c3
  8
Layer_0
  10
30.799082
  20
47.308663
  0
VERTEX
  5
1c4
  8
Layer_0
  10
29.810121
  20
47.545532
  0
VERTEX
  5
1c5
  8
Layer_0
  10
28.869184
  20
47.842153
  0
VERTEX
  5
1c6
  8
Layer_0
  10
27.981682
  20
48.194986
  0
VERTEX
  5
1c7
  8
Layer_0
  10
27.153024
  20
48.60049
  0
VERTEX
  5
1c8
  8
Layer_0
  10
26.388622
  20
49.055124
  0
VERTEX
  5
1c9
  8
Layer_0
  10
25.693886
  20
49.555348
  0
VERTEX
  5
1ca
  8
Layer_0
  10
25.074227
  20
50.09762
  0
VERTEX
  5
1cb
  8
Layer_0
  10
24.535056
  20
50.678401
  0
VERTEX
  5
1cc
  8
Layer_0
  10
24.081783
  20
51.294148
  0
VERTEX
  5
1cd
  8
Layer_0
  10
23.889049
  20
51.614029
  0
VERTEX
  5
1ce
  8
Layer_0
  10
23.719819
  20
51.941323
  0
VERTEX
  5
1cf
  8
Layer_0
  10
23.574768
  20
52.275589
  0
VERTEX
  5
1d0
  8
Layer_0
  10
23.454574
  20
52.616383
  0
VERTEX
  5
1d1
  8
Layer_0
  10
23.359912
  20
52.963264
  0
VERTEX
  5
1d2
  8
Layer_0
  10
23.29146
  20
53.315789
  0
VERTEX
  5
1d3
  8
Layer_0
  10
23.249892
  20
53.673515
  0
VERTEX
  5
1d4
  8
Layer_0
  10
23.235886
  20
54.035999
  0
VERTEX
  5
1d5
  8
Layer_0
  10
23.249892
  20
54.398484
  0
VERTEX
  5
1d6
  8
Layer_0
  10
23.29146
  20
54.75621
  0
VERTEX
  5
1d7
  8
Layer_0
  10
23.359912
  20
55.108734
  0
VERTEX
  5
1d8
  8
Layer_0
  10
23.454574
  20
55.455615
  0
VERTEX
  5
1d9
  8
Layer_0
  10
23.574768
  20
55.79641
  0
VERTEX
  5
1da
  8
Layer_0
  10
23.719819
  20
56.130676
  0
VERTEX
  5
1db
  8
Layer_0
  10
23.889049
  20
56.45797
  0
VERTEX
  5
1dc
  8
Layer_0
  10
24.081783
  20
56.77785
  0
VERTEX
  5
1dd
  8
Layer_0
  10
24.535056
  20
57.393598
  0
VERTEX
  5
1de
  8
Layer_0
  10
25.074227
  20
57.974379
  0
VERTEX
  5
1df
  8
Layer_0
  10
25.693886
  20
58.516651
  0
VERTEX
  5
1e0
  8
Layer_0
  10
26.388622
  20
59.016875
  0
VERTEX
  5
1e1
  8
Layer_0
  10
27.153024
  20
59.471509
  0
VERTEX
  5
1e2
  8
Layer_0
  10
27.981682
  20
59.877013
  0
VERTEX
  5
1e3
  8
Layer_0
  10
28.869184
  20
60.229845
  0
VERTEX
  5
1e4
  8
Layer_0
  10
29.810121
  20
60.526467
  0
VERTEX
  5
1e5
  8
Layer_0
  10
30.799082
  20
60.763336
  0
VERTEX
  5
1e6
  8
Layer_0
  10
31.830656
  20
60.936911
  0
VERTEX
  5
1e7
  8
Layer_0
  10
32.899432
  20
61.043653
  0
VERTEX
  5
1e8
  8
Layer_0
  10
34
  20
61.080021
  0
VERTEX
  5
1e9
  8
Layer_0
  10
35.100568
  20
61.043653
  0
VERTEX
  5
1ea
  8
Layer_0
  10
36.169344
  20
60.936911
  0
VERTEX
  5
1eb
  8
Layer_0
  10
37.200918
  20
60.763336
  0
VERTEX
  5
1ec
  8
Layer_0
  10
38.189879
  20
60.526467
  0
VERTEX
  5
1ed
  8
Layer_0
  10
39.130816
  20
60.229845
  0
VERTEX
  5
1ee
  8
Layer_0
  10
40.018318
  20
59.877013
  0
VERTEX
  5
1ef
  8
Layer_0
  10
40.846976
  20
59.471509
  0
VERTEX
  5
1f0
  8
Layer_0
  10
41.611378
  20
59.016875
  0
VERTEX
  5
1f1
  8
Layer_0
  10
42.306114
  20
58.516651
  0
VERTEX
  5
1f2
  8
Layer_0
  10
42.925773
  20
57.974379
  0
VERTEX
  5
1f3
  8
Layer_0
  10
43.464944
  20
57.393598
  0
VERTEX
  5
1f4
  8
Layer_0
  10
43.918217
  20
56.77785
  0
VERTEX
  5
1f5
  8
Layer_0
  10
44.110951
  20
56.45797
  0
VERTEX
  5
1f6
  8
Layer_0
  10
44.280181
  20
56.130676
  0
VERTEX
  5
1f7
  8
Layer_0
  10
44.425232
  20
55.79641
  0
VERTEX
  5
1f8
  8
Layer_0
  10
44.545426
  20
55.455615
  0
VERTEX
  5
1f9
  8
Layer_0
  10
44.640088
  20
55.108734
  0
VERTEX
  5
1fa
  8
Layer_0
  10
44.70854
  20
54.75621
  0
VERTEX
  5
1fb
  8
Layer_0
  10
44.750108
  20
54.398484
  0
VERTEX
  5
1fc
  8
Layer_0
  10
44.764114
  20
54.035999
  0
SEQEND
  0
POLYLINE
  5
1fe
  8
Layer_0
  62
0
  66
1
  10
0
  20
0
  30
0
  0
VERTEX
  5
1fe
  8
Layer_0
  10
17
  20
94.188004
  0
VERTEX
  5
1ff
  8
Layer_0
  10
17
  20
99.188004
  0
VERTEX
  5
200
  8
Layer_0
  10
5
  20
99.188004
  42
0.12120579
  0
VERTEX
  5
201
  8
Layer_0
  10
14.728001
  20
80.444
  42
0.090525919
  0
VERTEX
  5
202
  8
Layer_0
  10
23.784
  20
73.451996
  42
0.097865595
  0
VERTEX
  5
203
  8
Layer_0
  10
34.504002
  20
70.5
  0
VERTEX
  5
204
  8
Layer_0
  10
34.504002
  20
73.388
  0
VERTEX
  5
205
  8
Layer_0
  10
39.504002
  20
73.388
  0
VERTEX
  5
206
  8
Layer_0
  10
39.504002
  20
70.524002
  42
0.088839098
  0
VERTEX
  5
207
  8
Layer_0
  10
50.080002
  20
73.059998
  42
0.13164002
  0
VERTEX
  5
208
  8
Layer_0
  10
60.487999
  20
81.707993
  42
0.037241524
  0
VERTEX
  5
209
  8
Layer_0
  10
63.232002
  20
86.076004
  42
0.024485935
  0
VERTEX
  5
20a
  8
Layer_0
  10
65.807999
  20
91.419998
  42
0.0034514173
  0
VERTEX
  5
20b
  8
Layer_0
  10
68.568001
  20
98.164001
  0
VERTEX
  5
20c
  8
Layer_0
  10
69
  20
99.188004
  0
VERTEX
  5
20d
  8
Layer_0
  10
57
  20
99.188004
  0
VERTEX
  5
20e
  8
Layer_0
  10
57
  20
94.188004
  0
VERTEX
  5
20f
  8
Layer_0
  10
54
  20
94.188004
  0
VERTEX
  5
210
  8
Layer_0
  10
54
  20
102.188
  0
VERTEX
  5
211
  8
Layer_0
  10
20
  20
102.188
  0
VERTEX
  5
212
  8
Layer_0
  10
20
  20
94.188004
  0
VERTEX
  5
213
  8
Layer_0
  10
17
  20
94.188004
  0
SEQEND
  0
POLYLINE
  5
215
  8
Layer_0
  62
0
  66
1
  10
0
  20
0
  30
0
  0
VERTEX
  5
215
  8
Layer_0
  10
44.764114
  20
85.188004
  0
VERTEX
  5
216
  8
Layer_0
  10
44.750108
  20
84.825519
  0
VERTEX
  5
217
  8
Layer_0
  10
44.70854
  20
84.467793
  0
VERTEX
  5
218
  8
Layer_0
  10
44.640088
  20
84.115269
  0
VERTEX
  5
219
  8
Layer_0
  10
44.545426
  20
83.768388
  0
VERTEX
  5
21a
  8
Layer_0
  10
44.425232
  20
83.427593
  0
VERTEX
  5
21b
  8
Layer_0
  10
44.280181
  20
83.093327
  0
VERTEX
  5
21c
  8
Layer_0
  10
44.110951
  20
82.766033
  0
VERTEX
  5
21d
  8
Layer_0
  10
43.918217
  20
82.446153
  0
VERTEX
  5
21e
  8
Layer_0
  10
43.464944
  20
81.830405
  0
VERTEX
  5
21f
  8
Layer_0
  10
42.925773
  20
81.249624
  0
VERTEX
  5
220
  8
Layer_0
  10
42.306114
  20
80.707352
  0
VERTEX
  5
221
  8
Layer_0
  10
41.611378
  20
80.207128
  0
VERTEX
  5
222
  8
Layer_0
  10
40.846976
  20
79.752494
  0
VERTEX
  5
223
  8
Layer_0
  10
40.018318
  20
79.34699
  0
VERTEX
  5
224
  8
Layer_0
  10
39.130816
  20
78.994157
  0
VERTEX
  5
225
  8
Layer_0
  10
38.189879
  20
78.697536
  0
VERTEX
  5
226
  8
Layer_0
  10
37.200918
  20
78.460667
  0
VERTEX
  5
227
  8
Layer_0
  10
36.169344
  20
78.287091
  0
VERTEX
  5
228
  8
Layer_0
  10
35.100568
  20
78.180349
  0
VERTEX
  5
229
  8
Layer_0
  10
34
  20
78.143982
  0
VERTEX
  5
22a
  8
Layer_0
  10
32.899432
  20
78.180349
  0
VERTEX
  5
22b
  8
Layer_0
  10
31.830656
  20
78.287091
  0
VERTEX
  5
22c
  8
Layer_0
  10
30.799082
  20
78.460667
  0
VERTEX
  5
22d
  8
Layer_0
  10
29.810121
  20
78.697536
  0
VERTEX
  5
22e
  8
Layer_0
  10
28.869184
  20
78.994157
  0
VERTEX
  5
22f
  8
Layer_0
  10
27.981682
  20
79.34699
  0
VERTEX
  5
230
  8
Layer_0
  10
27.153024
  20
79.752494
  0
VERTEX
  5
231
  8
Layer_0
  10
26.388622
  20
80.207128
  0
VERTEX
  5
232
  8
Layer_0
  10
25.693886
  20
80.707352
  0
VERTEX
  5
233
  8
Layer_0
  10
25.074227
  20
81.249624
  0
VERTEX
  5
234
  8
Layer_0
  10
24.535056
  20
81.830405
  0
VERTEX
  5
235
  8
Layer_0
  10
24.081783
  20
82.446153
  0
VERTEX
  5
236
  8
Layer_0
  10
23.889049
  20
82.766033
  0
VERTEX
  5
237
  8
Layer_0
  10
23.719819
  20
83.093327
  0
VERTEX
  5
238
  8
Layer_0
  10
23.574768
  20
83.427593
  0
VERTEX
  5
239
  8
Layer_0
  10
23.454574
  20
83.768388
  0
VERTEX
  5
23a
  8
Layer_0
  10
23.359912
  20
84.115269
  0
VERTEX
  5
23b
  8
Layer_0
  10
23.29146
  20
84.467793
  0
VERTEX
  5
23c
  8
Layer_0
  10
23.249892
  20
84.825519
  0
VERTEX
  5
23d
  8
Layer_0
  10
23.235886
  20
85.188004
  0
VERTEX
  5
23e
  8
Layer_0
  10
23.249892
  20
85.550488
  0
VERTEX
  5
23f
  8
Layer_0
  10
23.29146
  20
85.908214
  0
VERTEX
  5
240
  8
Layer_0
  10
23.359912
  20
86.260738
  0
VERTEX
  5
241
  8
Layer_0
  10
23.454574
  20
86.607619
  0
VERTEX
  5
242
  8
Layer_0
  10
23.574768
  20
86.948414
  0
VERTEX
  5
243
  8
Layer_0
  10
23.719819
  20
87.28268
  0
VERTEX
  5
244
  8
Layer_0
  10
23.889049
  20
87.609974
  0
VERTEX
  5
245
  8
Layer_0
  10
24.081783
  20
87.929854
  0
VERTEX
  5
246
  8
Layer_0
  10
24.535056
  20
88.545602
  0
VERTEX
  5
247
  8
Layer_0
  10
25.074227
  20
89.126383
  0
VERTEX
  5
248
  8
Layer_0
  10
25.693886
  20
89.668655
  0
VERTEX
  5
249
  8
Layer_0
  10
26.388622
  20
90.168879
  0
VERTEX
  5
24a
  8
Layer_0
  10
27.153024
  20
90.623513
  0
VERTEX
  5
24b
  8
Layer_0
  10
27.981682
  20
91.029017
  0
VERTEX
  5
24c
  8
Layer_0
  10
28.869184
  20
91.38185
  0
VERTEX
  5
24d
  8
Layer_0
  10
29.810121
  20
91.678471
  0
VERTEX
  5
24e
  8
Layer_0
  10
30.799082
  20
91.91534
  0
VERTEX
  5
24f
  8
Layer_0
  10
31.830656
  20
92.088916
  0
VERTEX
  5
250
  8
Layer_0
  10
32.899432
  20
92.195658
  0
VERTEX
  5
251
  8
Layer_0
  10
34
  20
92.232025
  0
VERTEX
  5
252
  8
Layer_0
  10
35.100568
  20
92.195658
  0
VERTEX
  5
253
  8
Layer_0
  10
36.169344
  20
92.088916
  0
VERTEX
  5
254
  8
Layer_0
  10
37.200918
  20
91.91534
  0
VERTEX
  5
255
  8
Layer_0
  10
38.189879
  20
91.678471
  0
VERTEX
  5
256
  8
Layer_0
  10
39.130816
  20
91.38185
  0
VERTEX
  5
257
  8
Layer_0
  10
40.018318
  20
91.029017
  0
VERTEX
  5
258
  8
Layer_0
  10
40.846976
  20
90.623513
  0
VERTEX
  5
259
  8
Layer_0
  10
41.611378
  20
90.168879
  0
VERTEX
  5
25a
  8
Layer_0
  10
42.306114
  20
89.668655
  0
VERTEX
  5
25b
  8
Layer_0
  10
42.925773
  20
89.126383
  0
VERTEX
  5
25c
  8
Layer_0
  10
43.464944
  20
88.545602
  0
VERTEX
  5
25d
  8
Layer_0
  10
43.918217
  20
87.929854
  0
VERTEX
  5
25e
  8
Layer_0
  10
44.110951
  20
87.609974
  0
VERTEX
  5
25f
  8
Layer_0
  10
44.280181
  20
87.28268
  0
VERTEX
  5
260
  8
Layer_0
  10
44.425232
  20
86.948414
  0
VERTEX
  5
261
  8
Layer_0
  10
44.545426
  20
86.607619
  0
VERTEX
  5
262
  8
Layer_0
  10
44.640088
  20
86.260738
  0
VERTEX
  5
263
  8
Layer_0
  10
44.70854
  20
85.908214
  0
VERTEX
  5
264
  8
Layer_0
  10
44.750108
  20
85.550488
  0
VERTEX
  5
265
  8
Layer_0
  10
44.764114
  20
85.188004
  0
SEQEND
  0
POLYLINE
  5
267
  8
Layer_0
  62
0
  66
1
  10
0
  20
0
  30
0
  0
VERTEX
  5
267
  8
Layer_0
  10
20
  20
130.78
  0
VERTEX
  5
268
  8
Layer_0
  10
20
  20
122.908
  0
VERTEX
  5
269
  8
Layer_0
  10
17
  20
122.908
  0
VERTEX
  5
26a
  8
Layer_0
  10
17
  20
127.87601
  0
VERTEX
  5
26b
  8
Layer_0
  10
6.2719994
  20
127.86
  42
0.082510612
  0
VERTEX
  5
26c
  8
Layer_0
  10
18.84
  20
112.668
  42
0.064551708
  0
VERTEX
  5
26d
  8
Layer_0
  10
26.807999
  20
107.51601
  42
0.081250577
  0
VERTEX
  5
26e
  8
Layer_0
  10
34.504002
  20
105.5
  0
VERTEX
  5
26f
  8
Layer_0
  10
34.504002
  20
108.404
  0
VERTEX
  5
270
  8
Layer_0
  10
39.504002
  20
108.404
  0
VERTEX
  5
271
  8
Layer_0
  10
39.504002
  20
105.708
  42
0.078036625
  0
VERTEX
  5
272
  8
Layer_0
  10
47.119999
  20
108.204
  42
0.066438969
  0
VERTEX
  5
273
  8
Layer_0
  10
55.879997
  20
114.196
  42
0.069445654
  0
VERTEX
  5
274
  8
Layer_0
  10
67.727997
  20
127.908
  0
VERTEX
  5
275
  8
Layer_0
  10
57
  20
127.892
  0
VERTEX
  5
276
  8
Layer_0
  10
57
  20
122.908
  0
VERTEX
  5
277
  8
Layer_0
  10
54
  20
122.908
  0
VERTEX
  5
278
  8
Layer_0
  10
54
  20
130.78
  0
VERTEX
  5
279
  8
Layer_0
  10
20
  20
130.78
  0
SEQEND
  0
POLYLINE
  5
27b
  8
Layer_0
  62
0
  66
1
  10
0
  20
0
  30
0
  0
VERTEX
  5
27b
  8
Layer_0
  10
44.000015
  20
118.92801
  0
VERTEX
  5
27c
  8
Layer_0
  10
43.986009
  20
118.56552
  0
VERTEX
  5
27d
  8
Layer_0
  10
43.944441
  20
118.2078
  0
VERTEX
  5
27e
  8
Layer_0
  10
43.875988
  20
117.85527
  0
VERTEX
  5
27f
  8
Layer_0
  10
43.781327
  20
117.50839
  0
VERTEX
  5
280
  8
Layer_0
  10
43.661132
  20
117.1676
  0
VERTEX
  5
281
  8
Layer_0
  10
43.516082
  20
116.83333
  0
VERTEX
  5
282
  8
Layer_0
  10
43.346852
  20
116.50604
  0
VERTEX
  5
283
  8
Layer_0
  10
43.154118
  20
116.18616
  0
VERTEX
  5
284
  8
Layer_0
  10
42.700845
  20
115.57041
  0
VERTEX
  5
285
  8
Layer_0
  10
42.161673
  20
114.98963
  0
VERTEX
  5
286
  8
Layer_0
  10
41.542015
  20
114.44736
  0
VERTEX
  5
287
  8
Layer_0
  10
40.847279
  20
113.94713
  0
VERTEX
  5
288
  8
Layer_0
  10
40.082877
  20
113.4925
  0
VERTEX
  5
289
  8
Layer_0
  10
39.254219
  20
113.087
  0
VERTEX
  5
28a
  8
Layer_0
  10
38.366717
  20
112.73416
  0
VERTEX
  5
28b
  8
Layer_0
  10
37.42578
  20
112.43754
  0
VERTEX
  5
28c
  8
Layer_0
  10
36.436819
  20
112.20067
  0
VERTEX
  5
28d
  8
Layer_0
  10
35.405245
  20
112.0271
  0
VERTEX
  5
28e
  8
Layer_0
  10
34.336469
  20
111.92035
  0
VERTEX
  5
28f
  8
Layer_0
  10
33.235901
  20
111.88399
  0
VERTEX
  5
290
  8
Layer_0
  10
32.135333
  20
111.92035
  0
VERTEX
  5
291
  8
Layer_0
  10
31.066557
  20
112.0271
  0
VERTEX
  5
292
  8
Layer_0
  10
30.034983
  20
112.20067
  0
VERTEX
  5
293
  8
Layer_0
  10
29.046022
  20
112.43754
  0
VERTEX
  5
294
  8
Layer_0
  10
28.105085
  20
112.73416
  0
VERTEX
  5
295
  8
Layer_0
  10
27.217582
  20
113.087
  0
VERTEX
  5
296
  8
Layer_0
  10
26.388925
  20
113.4925
  0
VERTEX
  5
297
  8
Layer_0
  10
25.624523
  20
113.94713
  0
VERTEX
  5
298
  8
Layer_0
  10
24.929787
  20
114.44736
  0
VERTEX
  5
299
  8
Layer_0
  10
24.310128
  20
114.98963
  0
VERTEX
  5
29a
  8
Layer_0
  10
23.770957
  20
115.57041
  0
VERTEX
  5
29b
  8
Layer_0
  10
23.317684
  20
116.18616
  0
VERTEX
  5
29c
  8
Layer_0
  10
23.12495
  20
116.50604
  0
VERTEX
  5
29d
  8
Layer_0
  10
22.95572
  20
116.83333
  0
VERTEX
  5
29e
  8
Layer_0
  10
22.810669
  20
117.1676
  0
VERTEX
  5
29f
  8
Layer_0
  10
22.690475
  20
117.50839
  0
VERTEX
  5
2a0
  8
Layer_0
  10
22.595813
  20
117.85527
  0
VERTEX
  5
2a1
  8
Layer_0
  10
22.52736
  20
118.2078
  0
VERTEX
  5
2a2
  8
Layer_0
  10
22.485793
  20
118.56552
  0
VERTEX
  5
2a3
  8
Layer_0
  10
22.471786
  20
118.92801
  0
VERTEX
  5
2a4
  8
Layer_0
  10
22.485793
  20
119.29049
  0
VERTEX
  5
2a5
  8
Layer_0
  10
22.52736
  20
119.64822
  0
VERTEX
  5
2a6
  8
Layer_0
  10
22.595813
  20
120.00074
  0
VERTEX
  5
2a7
  8
Layer_0
  10
22.690475
  20
120.34762
  0
VERTEX
  5
2a8
  8
Layer_0
  10
22.810669
  20
120.68842
  0
VERTEX
  5
2a9
  8
Layer_0
  10
22.95572
  20
121.02269
  0
VERTEX
  5
2aa
  8
Layer_0
  10
23.12495
  20
121.34998
  0
VERTEX
  5
2ab
  8
Layer_0
  10
23.317684
  20
121.66986
  0
VERTEX
  5
2ac
  8
Layer_0
  10
23.770957
  20
122.28561
  0
VERTEX
  5
2ad
  8
Layer_0
  10
24.310128
  20
122.86639
  0
VERTEX
  5
2ae
  8
Layer_0
  10
24.929787
  20
123.40866
  0
VERTEX
  5
2af
  8
Layer_0
  10
25.624523
  20
123.90888
  0
VERTEX
  5
2b0
  8
Layer_0
  10
26.388925
  20
124.36352
  0
VERTEX
  5
2b1
  8
Layer_0
  10
27.217582
  20
124.76902
  0
VERTEX
  5
2b2
  8
Layer_0
  10
28.105085
  20
125.12186
  0
VERTEX
  5
2b3
  8
Layer_0
  10
29.046022
  20
125.41848
  0
VERTEX
  5
2b4
  8
Layer_0
  10
30.034983
  20
125.65535
  0
VERTEX
  5
2b5
  8
Layer_0
  10
31.066557
  20
125.82892
  0
VERTEX
  5
2b6
  8
Layer_0
  10
32.135333
  20
125.93566
  0
VERTEX
  5
2b7
  8
Layer_0
  10
33.235901
  20
125.97203
  0
VERTEX
  5
2b8
  8
Layer_0
  10
34.336469
  20
125.93566
  0
VERTEX
  5
2b9
  8
Layer_0
  10
35.405245
  20
125.82892
  0
VERTEX
  5
2ba
  8
Layer_0
  10
36.436819
  20
125.65535
  0
VERTEX
  5
2bb
  8
Layer_0
  10
37.42578
  20
125.41848
  0
VERTEX
  5
2bc
  8
Layer_0
  10
38.366717
  20
125.12186
  0
VERTEX
  5
2bd
  8
Layer_0
  10
39.254219
  20
124.76902
  0
VERTEX
  5
2be
  8
Layer_0
  10
40.082877
  20
124.36352
  0
VERTEX
  5
2bf
  8
Layer_0
  10
40.847279
  20
123.90888
  0
VERTEX
  5
2c0
  8
Layer_0
  10
41.542015
  20
123.40866
  0
VERTEX
  5
2c1
  8
Layer_0
  10
42.161673
  20
122.86639
  0
VERTEX
  5
2c2
  8
Layer_0
  10
42.700845
  20
122.28561
  0
VERTEX
  5
2c3
  8
Layer_0
  10
43.154118
  20
121.66986
  0
VERTEX
  5
2c4
  8
Layer_0
  10
43.346852
  20
121.34998
  0
VERTEX
  5
2c5
  8
Layer_0
  10
43.516082
  20
121.02269
  0
VERTEX
  5
2c6
  8
Layer_0
  10
43.661132
  20
120.68842
  0
VERTEX
  5
2c7
  8
Layer_0
  10
43.781327
  20
120.34762
  0
VERTEX
  5
2c8
  8
Layer_0
  10
43.875988
  20
120.00074
  0
VERTEX
  5
2c9
  8
Layer_0
  10
43.944441
  20
119.64822
  0
VERTEX
  5
2ca
  8
Layer_0
  10
43.986009
  20
119.29049
  0
VERTEX
  5
2cb
  8
Layer_0
  10
44.000015
  20
118.92801
  0
SEQEND
  0
POLYLINE
  5
2cd
  8
Layer_1
  62
5
  66
1
  10
0
  20
0
  30
0
  0
VERTEX
  5
2cd
  8
Layer_1
  10
130.76172
  20
22.358643
  0
VERTEX
  5
2ce
  8
Layer_1
  10
132.40527
  20
22.358643
  0
VERTEX
  5
2cf
  8
Layer_1
  10
132.7373
  20
21.423584
  0
VERTEX
  5
2d0
  8
Layer_1
  10
133.25
  20
21.423584
  0
VERTEX
  5
2d1
  8
Layer_1
  10
131.86084
  20
25.068848
  0
VERTEX
  5
2d2
  8
Layer_1
  10
131.30151
  20
25.068848
  0
VERTEX
  5
2d3
  8
Layer_1
  10
129.91016
  20
21.423584
  0
VERTEX
  5
2d4
  8
Layer_1
  10
130.42969
  20
21.423584
  0
VERTEX
  5
2d5
  8
Layer_1
  10
130.76172
  20
22.358643
  0
SEQEND
  0
POLYLINE
  5
2d7
  8
Layer_1
  62
5
  66
1
  10
0
  20
0
  30
0
  0
VERTEX
  5
2d7
  8
Layer_1
  10
136.67017
  20
25.068848
  0
VERTEX
  5
2d8
  8
Layer_1
  10
136.15771
  20
25.068848
  0
VERTEX
  5
2d9
  8
Layer_1
  10
135
  20
22
  0
VERTEX
  5
2da
  8
Layer_1
  10
133.84521
  20
25.068848
  0
VERTEX
  5
2db
  8
Layer_1
  10
133.33032
  20
25.068848
  0
VERTEX
  5
2dc
  8
Layer_1
  10
134.72168
  20
21.423584
  0
VERTEX
  5
2dd
  8
Layer_1
  10
135.28125
  20
21.423584
  0
VERTEX
  5
2de
  8
Layer_1
  10
136.67017
  20
25.068848
  0
SEQEND
  0
POLYLINE
  5
2e0
  8
Layer_1
  62
5
  70
1
  66
1
  10
0
  20
0
  30
0
  0
VERTEX
  5
2e0
  8
Layer_1
  10
130.91089
  20
22.768799
  0
VERTEX
  5
2e1
  8
Layer_1
  10
131.57959
  20
24.582764
  0
VERTEX
  5
2e2
  8
Layer_1
  10
132.25146
  20
22.768799
  0
SEQEND
  0
POLYLINE
  5
2e4
  8
Layer_0
  62
0
  66
1
  10
0
  20
0
  30
0
  0
VERTEX
  5
2e4
  8
Layer_0
  10
116.00407
  20
148
  0
VERTEX
  5
2e5
  8
Layer_0
  10
116.00407
  20
151
  0
VERTEX
  5
2e6
  8
Layer_0
  10
150.00407
  20
151
  0
VERTEX
  5
2e7
  8
Layer_0
  10
150.00407
  20
148
  0
VERTEX
  5
2e8
  8
Layer_0
  10
116.00407
  20
148
  0
SEQEND
  0
POLYLINE
  5
2ea
  8
Layer_0
  62
0
  66
1
  10
0
  20
0
  30
0
  0
VERTEX
  5
2ea
  8
Layer_0
  10
118.98399
  20
90.367996
  0
VERTEX
  5
2eb
  8
Layer_0
  10
118.808
  20
90.384003
  42
-0.17310616
  0
VERTEX
  5
2ec
  8
Layer_0
  10
117.808
  20
91.047997
  42
-0.093308481
  0
VERTEX
  5
2ed
  8
Layer_0
  10
116.62399
  20
93.503998
  42
-0.060605185
  0
VERTEX
  5
2ee
  8
Layer_0
  10
115.688
  20
98.648003
  42
-0.019753279
  0
VERTEX
  5
2ef
  8
Layer_0
  10
115.56799
  20
101.528
  0
VERTEX
  5
2f0
  8
Layer_0
  10
115.56799
  20
124.67999
  42
-0.056286698
  0
VERTEX
  5
2f1
  8
Layer_0
  10
116.424
  20
131.256
  42
-0.053562195
  0
VERTEX
  5
2f2
  8
Layer_0
  10
117.416
  20
133.784
  42
-0.12047162
  0
VERTEX
  5
2f3
  8
Layer_0
  10
118.45599
  20
134.87199
  42
-0.11093566
  0
VERTEX
  5
2f4
  8
Layer_0
  10
118.98399
  20
135
  0
VERTEX
  5
2f5
  8
Layer_0
  10
142.92
  20
135
  42
-0.20803477
  0
VERTEX
  5
2f6
  8
Layer_0
  10
143.936
  20
134.496
  42
-0.10257377
  0
VERTEX
  5
2f7
  8
Layer_0
  10
145.024
  20
132.616
  42
-0.060736808
  0
VERTEX
  5
2f8
  8
Layer_0
  10
146.024
  20
128.496
  42
-0.030491118
  0
VERTEX
  5
2f9
  8
Layer_0
  10
146.336
  20
124.504
  0
VERTEX
  5
2fa
  8
Layer_0
  10
146.336
  20
100.744
  42
-0.057702733
  0
VERTEX
  5
2fb
  8
Layer_0
  10
145.45599
  20
94.015999
  42
-0.051027965
  0
VERTEX
  5
2fc
  8
Layer_0
  10
144.504
  20
91.639999
  42
-0.10303469
  0
VERTEX
  5
2fd
  8
Layer_0
  10
143.592
  20
90.575996
  42
-0.12608566
  0
VERTEX
  5
2fe
  8
Layer_0
  10
142.92
  20
90.367996
  0
VERTEX
  5
2ff
  8
Layer_0
  10
118.98399
  20
90.367996
  0
SEQEND
  0
POLYLINE
  5
301
  8
Layer_0
  62
0
  66
1
  10
0
  20
0
  30
0
  0
VERTEX
  5
301
  8
Layer_0
  10
114.31609
  20
78
  0
VERTEX
  5
302
  8
Layer_0
  10
114.31609
  20
81
  0
VERTEX
  5
303
  8
Layer_0
  10
148.3161
  20
81
  0
VERTEX
  5
304
  8
Layer_0
  10
148.3161
  20
78
  0
VERTEX
  5
305
  8
Layer_0
  10
114.31609
  20
78
  0
SEQEND
  0
POLYLINE
  5
307
  8
Layer_0
  62
0
  66
1
  10
0
  20
0
  30
0
  0
VERTEX
  5
307
  8
Layer_0
  10
121.008
  20
34
  0
VERTEX
  5
308
  8
Layer_0
  10
120.84
  20
34.007999
  42
-0.19190243
  0
VERTEX
  5
309
  8
Layer_0
  10
119.576
  20
34.872002
  42
-0.08630008
  0
VERTEX
  5
30a
  8
Layer_0
  10
118.464
  20
37.216
  42
-0.057529426
  0
VERTEX
  5
30b
  8
Layer_0
  10
117.776
  20
41.048
  42
-0.018403694
  0
VERTEX
  5
30c
  8
Layer_0
  10
117.71201
  20
42.832001
  0
VERTEX
  5
30d
  8
Layer_0
  10
117.71201
  20
60.496002
  42
-0.062532141
  0
VERTEX
  5
30e
  8
Layer_0
  10
118.272
  20
65.431999
  42
-0.072865994
  0
VERTEX
  5
30f
  8
Layer_0
  10
119.29601
  20
68.047997
  42
-0.13435161
  0
VERTEX
  5
310
  8
Layer_0
  10
120.34399
  20
69.143997
  42
-0.12634069
  0
VERTEX
  5
311
  8
Layer_0
  10
121.008
  20
69.328003
  0
VERTEX
  5
312
  8
Layer_0
  10
144.088
  20
69.328003
  42
-0.21460474
  0
VERTEX
  5
313
  8
Layer_0
  10
145.368
  20
68.632004
  42
-0.090498081
  0
VERTEX
  5
314
  8
Layer_0
  10
146.416
  20
66.736
  42
-0.069409764
  0
VERTEX
  5
315
  8
Layer_0
  10
147.32001
  20
62.272003
  42
-0.018634934
  0
VERTEX
  5
316
  8
Layer_0
  10
147.384
  20
60.496002
  0
VERTEX
  5
317
  8
Layer_0
  10
147.384
  20
42.832001
  42
-0.068190654
  0
VERTEX
  5
318
  8
Layer_0
  10
146.728
  20
37.543999
  42
-0.092049474
  0
VERTEX
  5
319
  8
Layer_0
  10
145.52
  20
34.872002
  42
-0.16340046
  0
VERTEX
  5
31a
  8
Layer_0
  10
144.424
  20
34.048
  42
-0.092016985
  0
VERTEX
  5
31b
  8
Layer_0
  10
144.088
  20
34
  0
VERTEX
  5
31c
  8
Layer_0
  10
121.008
  20
34
  0
SEQEND
  0
POLYLINE
  5
31e
  8
Layer_0
  62
0
  66
1
  10
0
  20
0
  30
0
  0
VERTEX
  5
31e
  8
Layer_0
  10
115
  20
16
  0
VERTEX
  5
31f
  8
Layer_0
  10
149
  20
16
  0
VERTEX
  5
320
  8
Layer_0
  10
149
  20
13
  0
VERTEX
  5
321
  8
Layer_0
  10
159.504
  20
13
  0
VERTEX
  5
322
  8
Layer_0
  10
163.504
  20
83
  0
VERTEX
  5
323
  8
Layer_0
  10
164
  20
153
  0
VERTEX
  5
324
  8
Layer_0
  10
162.728
  20
233
  0
VERTEX
  5
325
  8
Layer_0
  10
150
  20
233
  0
VERTEX
  5
326
  8
Layer_0
  10
150
  20
230
  0
VERTEX
  5
327
  8
Layer_0
  10
116
  20
230
  0
VERTEX
  5
328
  8
Layer_0
  10
116
  20
233
  0
VERTEX
  5
329
  8
Layer_0
  10
109.496
  20
233
  0
VERTEX
  5
32a
  8
Layer_0
  10
109.496
  20
232.968
  0
VERTEX
  5
32b
  8
Layer_0
  10
101.272
  20
232.96001
  0
VERTEX
  5
32c
  8
Layer_0
  10
100
  20
153
  0
VERTEX
  5
32d
  8
Layer_0
  10
100.504
  20
83
  0
VERTEX
  5
32e
  8
Layer_0
  10
104.504
  20
13
  0
VERTEX
  5
32f
  8
Layer_0
  10
115
  20
13
  0
VERTEX
  5
330
  8
Layer_0
  10
115
  20
16
  0
SEQEND
  0
POLYLINE
  5
332
  8
Layer_0
  62
0
  66
1
  10
0
  20
0
  30
0
  0
VERTEX
  5
332
  8
Layer_0
  10
154.5
  20
224
  0
VERTEX
  5
333
  8
Layer_0
  10
109.5
  20
224
  0
VERTEX
  5
334
  8
Layer_0
  10
109.5
  20
227
  0
VERTEX
  5
335
  8
Layer_0
  10
154.5
  20
227
  0
VERTEX
  5
336
  8
Layer_0
  10
154.5
  20
224
  0
SEQEND
  0
POLYLINE
  5
338
  8
Layer_0
  62
0
  66
1
  10
0
  20
0
  30
0
  0
VERTEX
  5
338
  8
Layer_0
  10
150.752
  20
159.752
  0
VERTEX
  5
339
  8
Layer_0
  10
156
  20
159.752
  0
VERTEX
  5
33a
  8
Layer_0
  10
156
  20
188.248
  0
VERTEX
  5
33b
  8
Layer_0
  10
150.752
  20
188.248
  0
VERTEX
  5
33c
  8
Layer_0
  10
150.752
  20
190.688
  0
VERTEX
  5
33d
  8
Layer_0
  10
147.752
  20
190.688
  0
VERTEX
  5
33e
  8
Layer_0
  10
147.752
  20
188.248
  0
VERTEX
  5
33f
  8
Layer_0
  10
142.504
  20
188.248
  0
VERTEX
  5
340
  8
Layer_0
  10
142.504
  20
159.752
  0
VERTEX
  5
341
  8
Layer_0
  10
147.752
  20
159.752
  0
VERTEX
  5
342
  8
Layer_0
  10
147.752
  20
157.312
  0
VERTEX
  5
343
  8
Layer_0
  10
150.752
  20
157.312
  0
VERTEX
  5
344
  8
Layer_0
  10
150.752
  20
159.752
  0
SEQEND
  0
POLYLINE
  5
346
  8
Layer_0
  62
0
  66
1
  10
0
  20
0
  30
0
  0
VERTEX
  5
346
  8
Layer_0
  10
115.872
  20
159.34399
  0
VERTEX
  5
347
  8
Layer_0
  10
121.12
  20
159.34399
  0
VERTEX
  5
348
  8
Layer_0
  10
121.12
  20
187.84
  0
VERTEX
  5
349
  8
Layer_0
  10
115.872
  20
187.84
  0
VERTEX
  5
34a
  8
Layer_0
  10
115.872
  20
190.424
  0
VERTEX
  5
34b
  8
Layer_0
  10
112.872
  20
190.424
  0
VERTEX
  5
34c
  8
Layer_0
  10
112.872
  20
187.84
  0
VERTEX
  5
34d
  8
Layer_0
  10
107.624
  20
187.84
  0
VERTEX
  5
34e
  8
Layer_0
  10
107.624
  20
159.34399
  0
VERTEX
  5
34f
  8
Layer_0
  10
112.872
  20
159.34399
  0
VERTEX
  5
350
  8
Layer_0
  10
112.872
  20
157.03999
  0
VERTEX
  5
351
  8
Layer_0
  10
115.872
  20
157.03999
  0
VERTEX
  5
352
  8
Layer_0
  10
115.872
  20
159.34399
  0
SEQEND
  0
POLYLINE
  5
354
  8
Layer_0
  62
0
  66
1
  10
0
  20
0
  30
0
  0
VERTEX
  5
354
  8
Layer_0
  10
109
  20
110
  0
VERTEX
  5
355
  8
Layer_0
  10
106
  20
110
  0
VERTEX
  5
356
  8
Layer_0
  10
106
  20
140
  0
VERTEX
  5
357
  8
Layer_0
  10
109
  20
140
  0
VERTEX
  5
358
  8
Layer_0
  10
109
  20
110
  0
SEQEND
  0
POLYLINE
  5
35a
  8
Layer_0
  62
0
  66
1
  10
0
  20
0
  30
0
  0
VERTEX
  5
35a
  8
Layer_0
  10
109.5
  20
60
  0
VERTEX
  5
35b
  8
Layer_0
  10
106.5
  20
60
  0
VERTEX
  5
35c
  8
Layer_0
  10
106.5
  20
90
  0
VERTEX
  5
35d
  8
Layer_0
  10
109.5
  20
90
  0
VERTEX
  5
35e
  8
Layer_0
  10
109.5
  20
60
  0
SEQEND
  0
POLYLINE
  5
360
  8
Layer_0
  62
0
  66
1
  10
0
  20
0
  30
0
  0
VERTEX
  5
360
  8
Layer_0
  10
158
  20
110
  0
VERTEX
  5
361
  8
Layer_0
  10
155
  20
110
  0
VERTEX
  5
362
  8
Layer_0
  10
155
  20
140
  0
VERTEX
  5
363
  8
Layer_0
  10
158
  20
140
  0
VERTEX
  5
364
  8
Layer_0
  10
158
  20
110
  0
SEQEND
  0
POLYLINE
  5
366
  8
Layer_0
  62
0
  66
1
  10
0
  20
0
  30
0
  0
VERTEX
  5
366
  8
Layer_0
  10
158
  20
60
  0
VERTEX
  5
367
  8
Layer_0
  10
155
  20
60
  0
VERTEX
  5
368
  8
Layer_0
  10
155
  20
90
  0
VERTEX
  5
369
  8
Layer_0
  10
158
  20
90
  0
VERTEX
  5
36a
  8
Layer_0
  10
158
  20
60
  0
SEQEND
  0
POLYLINE
  5
36c
  8
Layer_0
  62
0
  66
1
  10
0
  20
0
  30
0
  0
VERTEX
  5
36c
  8
Layer_0
  10
27
  20
262
  0
VERTEX
  5
36d
  8
Layer_0
  10
12
  20
262
  0
VERTEX
  5
36e
  8
Layer_0
  10
12
  20
253
  0
VERTEX
  5
36f
  8
Layer_0
  10
9
  20
253
  0
VERTEX
  5
370
  8
Layer_0
  10
9
  20
223
  0
VERTEX
  5
371
  8
Layer_0
  10
12
  20
223
  0
VERTEX
  5
372
  8
Layer_0
  10
12
  20
203
  0
VERTEX
  5
373
  8
Layer_0
  10
9
  20
203
  0
VERTEX
  5
374
  8
Layer_0
  10
9
  20
173
  0
VERTEX
  5
375
  8
Layer_0
  10
12
  20
173
  0
VERTEX
  5
376
  8
Layer_0
  10
12
  20
166
  0
VERTEX
  5
377
  8
Layer_0
  10
27
  20
166
  0
VERTEX
  5
378
  8
Layer_0
  10
27
  20
262
  0
SEQEND
  0
CIRCLE
  5
37a
  8
Layer_0
  62
0
  10
228.0002
  20
25.5
  30
0
  40
5
  0
CIRCLE
  5
37a
  8
Layer_0
  62
0
  10
228
  20
25.5
  30
0
  40
20.5
  0
CIRCLE
  5
37a
  8
Layer_0
  62
0
  10
228
  20
38
  30
0
  40
1
  0
CIRCLE
  5
37a
  8
Layer_0
  62
0
  10
237.5
  20
25.5
  30
0
  40
1
  0
CIRCLE
  5
37a
  8
Layer_0
  62
0
  10
228
  20
13
  30
0
  40
1
  0
CIRCLE
  5
37a
  8
Layer_0
  62
0
  10
218.5
  20
25.5
  30
0
  40
1
  0
CIRCLE
  5
37a
  8
Layer_0
  62
0
  10
237
  20
34.5
  30
0
  40
4
  0
CIRCLE
  5
37a
  8
Layer_0
  62
0
  10
237
  20
16.5
  30
0
  40
4
  0
CIRCLE
  5
37a
  8
Layer_0
  62
0
  10
219
  20
16.5
  30
0
  40
4
  0
CIRCLE
  5
37a
  8
Layer_0
  62
0
  10
219
  20
34.5
  30
0
  40
4
  0
CIRCLE
  5
37a
  8
Layer_0
  62
0
  10
228
  20
69.5
  30
0
  40
5
  0
CIRCLE
  5
37a
  8
Layer_0
  62
0
  10
228
  20
69.5
  30
0
  40
21
  0
CIRCLE
  5
37a
  8
Layer_0
  62
0
  10
218.78
  20
78.720001
  30
0
  40
4.0975609
  0
CIRCLE
  5
37a
  8
Layer_0
  62
0
  10
237.22
  20
78.720001
  30
0
  40
4.0975609
  0
CIRCLE
  5
37a
  8
Layer_0
  62
0
  10
218.78
  20
60.279999
  30
0
  40
4.0975609
  0
CIRCLE
  5
37a
  8
Layer_0
  62
0
  10
237.22
  20
60.279999
  30
0
  40
4.0975609
  0
CIRCLE
  5
37a
  8
Layer_0
  62
0
  10
228
  20
82
  30
0
  40
1.0243902
  0
CIRCLE
  5
37a
  8
Layer_0
  62
0
  10
218.26801
  20
69.5
  30
0
  40
1.0243902
  0
CIRCLE
  5
37a
  8
Layer_0
  62
0
  10
237.73199
  20
69.5
  30
0
  40
1.0243902
  0
CIRCLE
  5
37a
  8
Layer_0
  62
0
  10
228
  20
57
  30
0
  40
1.0243902
  0
POLYLINE
  5
37a
  8
Layer_1
  62
5
  66
1
  10
0
  20
0
  30
0
  0
VERTEX
  5
37a
  8
Layer_1
  10
242.30615
  20
22.536469
  0
VERTEX
  5
37b
  8
Layer_1
  10
242.82642
  20
22.536469
  0
VERTEX
  5
37c
  8
Layer_1
  10
242.82642
  20
22.946625
  0
VERTEX
  5
37d
  8
Layer_1
  10
242.30615
  20
22.946625
  0
VERTEX
  5
37e
  8
Layer_1
  10
242.30615
  20
25.322357
  0
VERTEX
  5
37f
  8
Layer_1
  10
241.68579
  20
25.322357
  0
VERTEX
  5
380
  8
Layer_1
  10
240.17017
  20
23.012054
  0
VERTEX
  5
381
  8
Layer_1
  10
240.17017
  20
22.536469
  0
VERTEX
  5
382
  8
Layer_1
  10
241.81567
  20
22.536469
  0
VERTEX
  5
383
  8
Layer_1
  10
241.81567
  20
21.677094
  0
VERTEX
  5
384
  8
Layer_1
  10
242.30615
  20
21.677094
  0
VERTEX
  5
385
  8
Layer_1
  10
242.30615
  20
22.536469
  0
SEQEND
  0
POLYLINE
  5
387
  8
Layer_1
  62
5
  66
1
  10
0
  20
0
  30
0
  0
VERTEX
  5
387
  8
Layer_1
  10
245.82568
  20
22.091888
  0
VERTEX
  5
388
  8
Layer_1
  10
245.02026
  20
22.091888
  0
VERTEX
  5
389
  8
Layer_1
  10
245.02026
  20
25.322357
  0
VERTEX
  5
38a
  8
Layer_1
  10
244.52734
  20
25.322357
  0
VERTEX
  5
38b
  8
Layer_1
  10
243.65552
  20
25.146576
  0
VERTEX
  5
38c
  8
Layer_1
  10
243.65552
  20
24.697357
  0
VERTEX
  5
38d
  8
Layer_1
  10
244.53198
  20
24.873138
  0
VERTEX
  5
38e
  8
Layer_1
  10
244.53198
  20
22.091888
  0
VERTEX
  5
38f
  8
Layer_1
  10
243.72656
  20
22.091888
  0
VERTEX
  5
390
  8
Layer_1
  10
243.72656
  20
21.677094
  0
VERTEX
  5
391
  8
Layer_1
  10
245.82568
  20
21.677094
  0
VERTEX
  5
392
  8
Layer_1
  10
245.82568
  20
22.091888
  0
SEQEND
  0
POLYLINE
  5
394
  8
Layer_1
  62
5
  70
1
  66
1
  10
0
  20
0
  30
0
  0
VERTEX
  5
394
  8
Layer_1
  10
240.57031
  20
22.946625
  0
VERTEX
  5
395
  8
Layer_1
  10
241.81567
  20
24.89267
  0
VERTEX
  5
396
  8
Layer_1
  10
241.81567
  20
22.946625
  0
SEQEND
  0
POLYLINE
  5
398
  8
Layer_1
  62
5
  66
1
  10
0
  20
0
  30
0
  0
VERTEX
  5
398
  8
Layer_1
  10
245.80823
  20
66.056885
  0
VERTEX
  5
399
  8
Layer_1
  10
244.08728
  20
66.056885
  0
VERTEX
  5
39a
  8
Layer_1
  10
245.01013
  20
67.00293
  42
0.079693036
  0
VERTEX
  5
39b
  8
Layer_1
  10
245.65417
  20
67.781738
  42
0.35583004
  0
VERTEX
  5
39c
  8
Layer_1
  10
245.45203
  20
69.069824
  42
0.20120328
  0
VERTEX
  5
39d
  8
Layer_1
  10
244.32312
  20
69.337646
  42
0.060134031
  0
VERTEX
  5
39e
  8
Layer_1
  10
243.51843
  20
69.111572
  0
VERTEX
  5
39f
  8
Layer_1
  10
243.51843
  20
68.613037
  0
VERTEX
  5
3a0
  8
Layer_1
  10
243.80261
  20
68.756348
  42
-0.14117115
  0
VERTEX
  5
3a1
  8
Layer_1
  10
244.71423
  20
68.926514
  42
-0.39018206
  0
VERTEX
  5
3a2
  8
Layer_1
  10
245.29333
  20
68.281006
  42
-0.16483328
  0
VERTEX
  5
3a3
  8
Layer_1
  10
244.97791
  20
67.596191
  42
-0.018960945
  0
VERTEX
  5
3a4
  8
Layer_1
  10
243.49426
  20
66.056885
  0
VERTEX
  5
3a5
  8
Layer_1
  10
243.49426
  20
65.64209
  0
VERTEX
  5
3a6
  8
Layer_1
  10
245.80823
  20
65.64209
  0
VERTEX
  5
3a7
  8
Layer_1
  10
245.80823
  20
66.056885
  0
SEQEND
  0
POLYLINE
  5
3a9
  8
Layer_1
  62
5
  66
1
  10
0
  20
0
  30
0
  0
VERTEX
  5
3a9
  8
Layer_1
  10
242.32776
  20
66.501465
  0
VERTEX
  5
3aa
  8
Layer_1
  10
242.84802
  20
66.501465
  0
VERTEX
  5
3ab
  8
Layer_1
  10
242.84802
  20
66.911621
  0
VERTEX
  5
3ac
  8
Layer_1
  10
242.32776
  20
66.911621
  0
VERTEX
  5
3ad
  8
Layer_1
  10
242.32776
  20
69.287354
  0
VERTEX
  5
3ae
  8
Layer_1
  10
241.7074
  20
69.287354
  0
VERTEX
  5
3af
  8
Layer_1
  10
240.19177
  20
66.977051
  0
VERTEX
  5
3b0
  8
Layer_1
  10
240.19177
  20
66.501465
  0
VERTEX
  5
3b1
  8
Layer_1
  10
241.83728
  20
66.501465
  0
VERTEX
  5
3b2
  8
Layer_1
  10
241.83728
  20
65.64209
  0
VERTEX
  5
3b3
  8
Layer_1
  10
242.32776
  20
65.64209
  0
VERTEX
  5
3b4
  8
Layer_1
  10
242.32776
  20
66.501465
  0
SEQEND
  0
POLYLINE
  5
3b6
  8
Layer_1
  62
5
  70
1
  66
1
  10
0
  20
0
  30
0
  0
VERTEX
  5
3b6
  8
Layer_1
  10
240.59192
  20
66.911621
  0
VERTEX
  5
3b7
  8
Layer_1
  10
241.83728
  20
68.857666
  0
VERTEX
  5
3b8
  8
Layer_1
  10
241.83728
  20
66.911621
  0
SEQEND
  0
CIRCLE
  5
3ba
  8
Layer_0
  62
0
  10
276.5
  20
25.5
  30
0
  40
20.5
  0
CIRCLE
  5
3ba
  8
Layer_0
  62
0
  10
276.5
  20
25.5
  30
0
  40
17.749996
  0
CIRCLE
  5
3ba
  8
Layer_0
  62
0
  10
276.5
  20
70.5
  30
0
  40
21.500002
  0
CIRCLE
  5
3ba
  8
Layer_0
  62
0
  10
276.5
  20
70.5
  30
0
  40
17.749996
  0
POLYLINE
  5
3ba
  8
Layer_0
  62
0
  66
1
  10
0
  20
0
  30
0
  0
VERTEX
  5
3ba
  8
Layer_0
  10
52
  20
262
  0
VERTEX
  5
3bb
  8
Layer_0
  10
37
  20
262
  0
VERTEX
  5
3bc
  8
Layer_0
  10
37
  20
253
  0
VERTEX
  5
3bd
  8
Layer_0
  10
34
  20
253
  0
VERTEX
  5
3be
  8
Layer_0
  10
34
  20
223
  0
VERTEX
  5
3bf
  8
Layer_0
  10
37
  20
223
  0
VERTEX
  5
3c0
  8
Layer_0
  10
37
  20
203
  0
VERTEX
  5
3c1
  8
Layer_0
  10
34
  20
203
  0
VERTEX
  5
3c2
  8
Layer_0
  10
34
  20
173
  0
VERTEX
  5
3c3
  8
Layer_0
  10
37
  20
173
  0
VERTEX
  5
3c4
  8
Layer_0
  10
37
  20
166
  0
VERTEX
  5
3c5
  8
Layer_0
  10
52
  20
166
  0
VERTEX
  5
3c6
  8
Layer_0
  10
52
  20
262
  0
SEQEND
  0
POLYLINE
  5
3c8
  8
Layer_2
  62
1
  66
1
  10
0
  20
0
  30
0
  0
VERTEX
  5
3c8
  8
Layer_2
  10
205.79968
  20
111.20007
  0
VERTEX
  5
3c9
  8
Layer_2
  10
206.13171
  20
111.22791
  42
0.14438132
  0
VERTEX
  5
3ca
  8
Layer_2
  10
207.62976
  20
111.78015
  42
0.20774397
  0
VERTEX
  5
3cb
  8
Layer_2
  10
208.33411
  20
113.28235
  42
0.16647551
  0
VERTEX
  5
3cc
  8
Layer_2
  10
208.05676
  20
114.71497
  42
0.16695238
  0
VERTEX
  5
3cd
  8
Layer_2
  10
206.91614
  20
115.51379
  42
0.041136936
  0
VERTEX
  5
3ce
  8
Layer_2
  10
205.3031
  20
115.89417
  0
VERTEX
  5
3cf
  8
Layer_2
  10
205.03943
  20
115.95569
  42
-0.1501343
  0
VERTEX
  5
3d0
  8
Layer_2
  10
204.41907
  20
116.26428
  42
-0.36259888
  0
VERTEX
  5
3d1
  8
Layer_2
  10
204.47839
  20
117.10193
  42
-0.17015245
  0
VERTEX
  5
3d2
  8
Layer_2
  10
205.3009
  20
117.38098
  42
-0.1233073
  0
VERTEX
  5
3d3
  8
Layer_2
  10
207.8656
  20
116.85046
  0
VERTEX
  5
3d4
  8
Layer_2
  10
207.8656
  20
118.39417
  42
0.078331902
  0
VERTEX
  5
3d5
  8
Layer_2
  10
204.99719
  20
118.74597
  42
0.13118289
  0
VERTEX
  5
3d6
  8
Layer_2
  10
203.48083
  20
118.30652
  42
0.24037946
  0
VERTEX
  5
3d7
  8
Layer_2
  10
202.60315
  20
116.75842
  42
0.19420081
  0
VERTEX
  5
3d8
  8
Layer_2
  10
202.97937
  20
115.24646
  42
0.14611189
  0
VERTEX
  5
3d9
  8
Layer_2
  10
204.18689
  20
114.50061
  42
0.015215617
  0
VERTEX
  5
3da
  8
Layer_2
  10
205.72937
  20
114.12927
  0
VERTEX
  5
3db
  8
Layer_2
  10
205.97864
  20
114.04846
  42
-0.20361336
  0
VERTEX
  5
3dc
  8
Layer_2
  10
206.43468
  20
113.72172
  42
-0.20359552
  0
VERTEX
  5
3dd
  8
Layer_2
  10
206.51257
  20
113.16614
  42
-0.25563728
  0
VERTEX
  5
3de
  8
Layer_2
  10
206.02502
  20
112.66907
  42
-0.13317398
  0
VERTEX
  5
3df
  8
Layer_2
  10
204.32922
  20
112.6593
  42
-0.066421728
  0
VERTEX
  5
3e0
  8
Layer_2
  10
202.65637
  20
113.30042
  0
VERTEX
  5
3e1
  8
Layer_2
  10
202.65637
  20
111.71448
  42
0.10266231
  0
VERTEX
  5
3e2
  8
Layer_2
  10
205.79968
  20
111.20007
  0
SEQEND
  0
POLYLINE
  5
3e4
  8
Layer_2
  62
1
  66
1
  10
0
  20
0
  30
0
  0
VERTEX
  5
3e4
  8
Layer_2
  10
246.71106
  20
112.58313
  42
-0.020701572
  0
VERTEX
  5
3e5
  8
Layer_2
  10
245.60632
  20
112.59167
  42
-0.25407109
  0
VERTEX
  5
3e6
  8
Layer_2
  10
245.14465
  20
112.80017
  42
-0.11965766
  0
VERTEX
  5
3e7
  8
Layer_2
  10
245.05945
  20
113.23328
  0
VERTEX
  5
3e8
  8
Layer_2
  10
245.05945
  20
115.55188
  0
VERTEX
  5
3e9
  8
Layer_2
  10
246.86267
  20
115.55188
  0
VERTEX
  5
3ea
  8
Layer_2
  10
246.86267
  20
116.80188
  0
VERTEX
  5
3eb
  8
Layer_2
  10
245.05945
  20
116.80188
  0
VERTEX
  5
3ec
  8
Layer_2
  10
245.05945
  20
118.3551
  0
VERTEX
  5
3ed
  8
Layer_2
  10
243.31262
  20
118.3551
  0
VERTEX
  5
3ee
  8
Layer_2
  10
243.31262
  20
116.80188
  0
VERTEX
  5
3ef
  8
Layer_2
  10
242.44226
  20
116.80188
  0
VERTEX
  5
3f0
  8
Layer_2
  10
242.44226
  20
115.55188
  0
VERTEX
  5
3f1
  8
Layer_2
  10
243.31262
  20
115.55188
  0
VERTEX
  5
3f2
  8
Layer_2
  10
243.31262
  20
113.23328
  42
0.12443624
  0
VERTEX
  5
3f3
  8
Layer_2
  10
243.55554
  20
112.01892
  42
0.22936331
  0
VERTEX
  5
3f4
  8
Layer_2
  10
244.5199
  20
111.39392
  42
0.047660776
  0
VERTEX
  5
3f5
  8
Layer_2
  10
245.21106
  20
111.33313
  0
VERTEX
  5
3f6
  8
Layer_2
  10
246.71106
  20
111.33313
  0
VERTEX
  5
3f7
  8
Layer_2
  10
246.71106
  20
112.58313
  0
SEQEND
  0
POLYLINE
  5
3f9
  8
Layer_2
  62
1
  66
1
  10
0
  20
0
  30
0
  0
VERTEX
  5
3f9
  8
Layer_2
  10
272.2594
  20
112.58313
  42
-0.020701354
  0
VERTEX
  5
3fa
  8
Layer_2
  10
271.15466
  20
112.59167
  42
-0.25446353
  0
VERTEX
  5
3fb
  8
Layer_2
  10
270.69324
  20
112.80017
  42
-0.11998217
  0
VERTEX
  5
3fc
  8
Layer_2
  10
270.60779
  20
113.23328
  0
VERTEX
  5
3fd
  8
Layer_2
  10
270.60779
  20
115.55188
  0
VERTEX
  5
3fe
  8
Layer_2
  10
272.41101
  20
115.55188
  0
VERTEX
  5
3ff
  8
Layer_2
  10
272.41101
  20
116.80188
  0
VERTEX
  5
400
  8
Layer_2
  10
270.60779
  20
116.80188
  0
VERTEX
  5
401
  8
Layer_2
  10
270.60779
  20
118.3551
  0
VERTEX
  5
402
  8
Layer_2
  10
268.86096
  20
118.3551
  0
VERTEX
  5
403
  8
Layer_2
  10
268.86096
  20
116.80188
  0
VERTEX
  5
404
  8
Layer_2
  10
267.9906
  20
116.80188
  0
VERTEX
  5
405
  8
Layer_2
  10
267.9906
  20
115.55188
  0
VERTEX
  5
406
  8
Layer_2
  10
268.86096
  20
115.55188
  0
VERTEX
  5
407
  8
Layer_2
  10
268.86096
  20
113.23328
  42
0.12454366
  0
VERTEX
  5
408
  8
Layer_2
  10
269.10413
  20
112.01892
  42
0.22941979
  0
VERTEX
  5
409
  8
Layer_2
  10
270.06848
  20
111.39392
  42
0.047660873
  0
VERTEX
  5
40a
  8
Layer_2
  10
270.7594
  20
111.33313
  0
VERTEX
  5
40b
  8
Layer_2
  10
272.2594
  20
111.33313
  0
VERTEX
  5
40c
  8
Layer_2
  10
272.2594
  20
112.58313
  0
SEQEND
  0
POLYLINE
  5
40e
  8
Layer_2
  62
1
  66
1
  10
0
  20
0
  30
0
  0
VERTEX
  5
40e
  8
Layer_2
  10
289.12659
  20
113.85339
  0
VERTEX
  5
40f
  8
Layer_2
  10
289.13245
  20
114.04895
  42
-0.19390231
  0
VERTEX
  5
410
  8
Layer_2
  10
289.58655
  20
115.19153
  42
-0.22388062
  0
VERTEX
  5
411
  8
Layer_2
  10
290.7572
  20
115.50964
  42
-0.08297771
  0
VERTEX
  5
412
  8
Layer_2
  10
291.44226
  20
115.31287
  0
VERTEX
  5
413
  8
Layer_2
  10
291.43591
  20
116.89417
  42
0.1588796
  0
VERTEX
  5
414
  8
Layer_2
  10
289.90076
  20
116.68713
  42
0.12516422
  0
VERTEX
  5
415
  8
Layer_2
  10
289.12659
  20
115.90344
  0
VERTEX
  5
416
  8
Layer_2
  10
289.12659
  20
116.80188
  0
VERTEX
  5
417
  8
Layer_2
  10
287.37976
  20
116.80188
  0
VERTEX
  5
418
  8
Layer_2
  10
287.37976
  20
111.33313
  0
VERTEX
  5
419
  8
Layer_2
  10
289.12659
  20
111.33313
  0
VERTEX
  5
41a
  8
Layer_2
  10
289.12659
  20
113.85339
  0
SEQEND
  0
POLYLINE
  5
41c
  8
Layer_2
  62
1
  66
1
  10
0
  20
0
  30
0
  0
VERTEX
  5
41c
  8
Layer_2
  10
218.78284
  20
112.1239
  42
0.28095193
  0
VERTEX
  5
41d
  8
Layer_2
  10
220.84241
  20
111.20349
  42
0.23289943
  0
VERTEX
  5
41e
  8
Layer_2
  10
222.40759
  20
112.203
  42
0.1640318
  0
VERTEX
  5
41f
  8
Layer_2
  10
222.89465
  20
114.3717
  42
0.21077756
  0
VERTEX
  5
420
  8
Layer_2
  10
221.90833
  20
116.48132
  42
0.39231609
  0
VERTEX
  5
421
  8
Layer_2
  10
218.96887
  20
116.22522
  0
VERTEX
  5
422
  8
Layer_2
  10
218.78284
  20
116.00183
  0
VERTEX
  5
423
  8
Layer_2
  10
218.78284
  20
116.80188
  0
VERTEX
  5
424
  8
Layer_2
  10
217.03601
  20
116.80188
  0
VERTEX
  5
425
  8
Layer_2
  10
217.03601
  20
109.25354
  0
VERTEX
  5
426
  8
Layer_2
  10
218.78284
  20
109.25354
  0
VERTEX
  5
427
  8
Layer_2
  10
218.78284
  20
112.1239
  0
SEQEND
  0
POLYLINE
  5
429
  8
Layer_2
  62
1
  66
1
  10
0
  20
0
  30
0
  0
VERTEX
  5
429
  8
Layer_2
  10
276.50867
  20
111.19861
  42
0.078147946
  0
VERTEX
  5
42a
  8
Layer_2
  10
278.67981
  20
111.66589
  0
VERTEX
  5
42b
  8
Layer_2
  10
278.67981
  20
113.01282
  42
-0.12557663
  0
VERTEX
  5
42c
  8
Layer_2
  10
276.3595
  20
112.35339
  42
-0.17202366
  0
VERTEX
  5
42d
  8
Layer_2
  10
275.29529
  20
112.66125
  42
-0.20576166
  0
VERTEX
  5
42e
  8
Layer_2
  10
274.85168
  20
113.58484
  0
VERTEX
  5
42f
  8
Layer_2
  10
278.93762
  20
113.58484
  42
0.073504989
  0
VERTEX
  5
430
  8
Layer_2
  10
278.82874
  20
114.98279
  42
0.33196212
  0
VERTEX
  5
431
  8
Layer_2
  10
276.41589
  20
116.92102
  42
0.15373026
  0
VERTEX
  5
432
  8
Layer_2
  10
274.31873
  20
116.50208
  42
0.25108669
  0
VERTEX
  5
433
  8
Layer_2
  10
273.08142
  20
114.38831
  42
0.13938822
  0
VERTEX
  5
434
  8
Layer_2
  10
273.39026
  20
112.59705
  42
0.22425756
  0
VERTEX
  5
435
  8
Layer_2
  10
275.17834
  20
111.297
  42
0.067971091
  0
VERTEX
  5
436
  8
Layer_2
  10
276.50867
  20
111.19861
  0
SEQEND
  0
POLYLINE
  5
438
  8
Layer_2
  62
1
  66
1
  10
0
  20
0
  30
0
  0
VERTEX
  5
438
  8
Layer_2
  10
225.9408
  20
112.1239
  42
0.30832934
  0
VERTEX
  5
439
  8
Layer_2
  10
228.23596
  20
111.24133
  42
0.22369916
  0
VERTEX
  5
43a
  8
Layer_2
  10
229.69739
  20
112.42566
  42
0.24988272
  0
VERTEX
  5
43b
  8
Layer_2
  10
229.56555
  20
115.922
  42
0.32775855
  0
VERTEX
  5
43c
  8
Layer_2
  10
227.21448
  20
116.87659
  42
0.18409031
  0
VERTEX
  5
43d
  8
Layer_2
  10
225.9408
  20
116.00183
  0
VERTEX
  5
43e
  8
Layer_2
  10
225.9408
  20
116.80188
  0
VERTEX
  5
43f
  8
Layer_2
  10
224.19373
  20
116.80188
  0
VERTEX
  5
440
  8
Layer_2
  10
224.19373
  20
109.25354
  0
VERTEX
  5
441
  8
Layer_2
  10
225.9408
  20
109.25354
  0
VERTEX
  5
442
  8
Layer_2
  10
225.9408
  20
112.1239
  0
SEQEND
  0
POLYLINE
  5
444
  8
Layer_2
  62
1
  66
1
  10
0
  20
0
  30
0
  0
VERTEX
  5
444
  8
Layer_2
  10
264.776
  20
111.203
  42
0.18027812
  0
VERTEX
  5
445
  8
Layer_2
  10
266.63757
  20
111.95276
  42
0.18777697
  0
VERTEX
  5
446
  8
Layer_2
  10
267.41882
  20
113.73499
  42
0.13560805
  0
VERTEX
  5
447
  8
Layer_2
  10
267.12122
  20
115.51794
  42
0.22453002
  0
VERTEX
  5
448
  8
Layer_2
  10
265.40417
  20
116.82605
  42
0.15685498
  0
VERTEX
  5
449
  8
Layer_2
  10
262.90442
  20
116.63562
  42
0.25651129
  0
VERTEX
  5
44a
  8
Layer_2
  10
261.47034
  20
114.69983
  42
0.1551426
  0
VERTEX
  5
44b
  8
Layer_2
  10
261.7323
  20
112.60657
  42
0.22398425
  0
VERTEX
  5
44c
  8
Layer_2
  10
263.45789
  20
111.29822
  42
0.075130197
  0
VERTEX
  5
44d
  8
Layer_2
  10
264.776
  20
111.203
  0
SEQEND
  0
POLYLINE
  5
44f
  8
Layer_2
  62
1
  66
1
  10
0
  20
0
  30
0
  0
VERTEX
  5
44f
  8
Layer_2
  10
253.15955
  20
114.0238
  0
VERTEX
  5
450
  8
Layer_2
  10
253.17664
  20
114.38513
  42
-0.17984087
  0
VERTEX
  5
451
  8
Layer_2
  10
253.58386
  20
115.38391
  42
-0.348506
  0
VERTEX
  5
452
  8
Layer_2
  10
254.67224
  20
115.46887
  42
-0.17964045
  0
VERTEX
  5
453
  8
Layer_2
  10
254.90002
  20
114.77478
  42
-0.020857269
  0
VERTEX
  5
454
  8
Layer_2
  10
254.922
  20
114.18469
  0
VERTEX
  5
455
  8
Layer_2
  10
254.922
  20
111.33313
  0
VERTEX
  5
456
  8
Layer_2
  10
256.67981
  20
111.33313
  0
VERTEX
  5
457
  8
Layer_2
  10
256.67981
  20
114.01917
  42
-0.14021942
  0
VERTEX
  5
458
  8
Layer_2
  10
256.96179
  20
115.20593
  42
-0.36302867
  0
VERTEX
  5
459
  8
Layer_2
  10
258.05847
  20
115.55066
  42
-0.24913308
  0
VERTEX
  5
45a
  8
Layer_2
  10
258.41052
  20
115.01257
  42
-0.058345727
  0
VERTEX
  5
45b
  8
Layer_2
  10
258.44373
  20
114.18469
  0
VERTEX
  5
45c
  8
Layer_2
  10
258.44373
  20
111.33313
  0
VERTEX
  5
45d
  8
Layer_2
  10
260.20154
  20
111.33313
  0
VERTEX
  5
45e
  8
Layer_2
  10
260.20154
  20
114.66296
  42
0.14992213
  0
VERTEX
  5
45f
  8
Layer_2
  10
259.82361
  20
116.19934
  42
0.23899824
  0
VERTEX
  5
460
  8
Layer_2
  10
258.50061
  20
116.92419
  42
0.29209797
  0
VERTEX
  5
461
  8
Layer_2
  10
256.47986
  20
115.89417
  0
VERTEX
  5
462
  8
Layer_2
  10
256.35486
  20
116.12659
  42
0.29475636
  0
VERTEX
  5
463
  8
Layer_2
  10
254.5741
  20
116.91858
  42
0.2185529
  0
VERTEX
  5
464
  8
Layer_2
  10
253.15955
  20
116.00183
  0
VERTEX
  5
465
  8
Layer_2
  10
253.15955
  20
116.80188
  0
VERTEX
  5
466
  8
Layer_2
  10
251.40173
  20
116.80188
  0
VERTEX
  5
467
  8
Layer_2
  10
251.40173
  20
111.33313
  0
VERTEX
  5
468
  8
Layer_2
  10
253.15955
  20
111.33313
  0
VERTEX
  5
469
  8
Layer_2
  10
253.15955
  20
114.0238
  0
SEQEND
  0
POLYLINE
  5
46b
  8
Layer_2
  62
1
  66
1
  10
0
  20
0
  30
0
  0
VERTEX
  5
46b
  8
Layer_2
  10
234.29626
  20
111.203
  42
0.091406598
  0
VERTEX
  5
46c
  8
Layer_2
  10
235.47571
  20
111.48865
  42
0.25639029
  0
VERTEX
  5
46d
  8
Layer_2
  10
236.90198
  20
113.42542
  42
0.15445489
  0
VERTEX
  5
46e
  8
Layer_2
  10
236.64148
  20
115.51794
  42
0.2245041
  0
VERTEX
  5
46f
  8
Layer_2
  10
234.92468
  20
116.82605
  42
0.15684192
  0
VERTEX
  5
470
  8
Layer_2
  10
232.42468
  20
116.63562
  42
0.25651186
  0
VERTEX
  5
471
  8
Layer_2
  10
230.9906
  20
114.69983
  42
0.15512104
  0
VERTEX
  5
472
  8
Layer_2
  10
231.25256
  20
112.60657
  42
0.22398516
  0
VERTEX
  5
473
  8
Layer_2
  10
232.97815
  20
111.29822
  42
0.075121424
  0
VERTEX
  5
474
  8
Layer_2
  10
234.29626
  20
111.203
  0
SEQEND
  0
POLYLINE
  5
476
  8
Layer_2
  62
1
  66
1
  10
0
  20
0
  30
0
  0
VERTEX
  5
476
  8
Layer_2
  10
239.96716
  20
113.85339
  42
-0.1774299
  0
VERTEX
  5
477
  8
Layer_2
  10
240.33142
  20
115.09021
  42
-0.22983861
  0
VERTEX
  5
478
  8
Layer_2
  10
241.36877
  20
115.52234
  42
-0.1120815
  0
VERTEX
  5
479
  8
Layer_2
  10
242.28284
  20
115.31287
  0
VERTEX
  5
47a
  8
Layer_2
  10
242.27673
  20
116.89417
  42
0.15888877
  0
VERTEX
  5
47b
  8
Layer_2
  10
240.74158
  20
116.68713
  42
0.12527658
  0
VERTEX
  5
47c
  8
Layer_2
  10
239.96716
  20
115.90344
  0
VERTEX
  5
47d
  8
Layer_2
  10
239.96716
  20
116.80188
  0
VERTEX
  5
47e
  8
Layer_2
  10
238.22034
  20
116.80188
  0
VERTEX
  5
47f
  8
Layer_2
  10
238.22034
  20
111.33313
  0
VERTEX
  5
480
  8
Layer_2
  10
239.96716
  20
111.33313
  0
VERTEX
  5
481
  8
Layer_2
  10
239.96716
  20
113.85339
  0
SEQEND
  0
POLYLINE
  5
483
  8
Layer_2
  62
1
  66
1
  10
0
  20
0
  30
0
  0
VERTEX
  5
483
  8
Layer_2
  10
212.05701
  20
111.2052
  0
VERTEX
  5
484
  8
Layer_2
  10
212.30603
  20
111.24792
  42
0.16882532
  0
VERTEX
  5
485
  8
Layer_2
  10
213.60779
  20
112.1239
  0
VERTEX
  5
486
  8
Layer_2
  10
213.60779
  20
111.33313
  0
VERTEX
  5
487
  8
Layer_2
  10
215.35632
  20
111.33313
  0
VERTEX
  5
488
  8
Layer_2
  10
215.35632
  20
116.80188
  0
VERTEX
  5
489
  8
Layer_2
  10
213.60779
  20
116.80188
  0
VERTEX
  5
48a
  8
Layer_2
  10
213.60779
  20
114.10193
  42
-0.16101646
  0
VERTEX
  5
48b
  8
Layer_2
  10
213.29529
  20
112.93469
  42
-0.35769071
  0
VERTEX
  5
48c
  8
Layer_2
  10
212.03748
  20
112.6073
  42
-0.27503863
  0
VERTEX
  5
48d
  8
Layer_2
  10
211.64075
  20
113.29407
  42
-0.027674513
  0
VERTEX
  5
48e
  8
Layer_2
  10
211.60657
  20
114.38391
  0
VERTEX
  5
48f
  8
Layer_2
  10
211.6156
  20
116.255
  0
VERTEX
  5
490
  8
Layer_2
  10
211.6156
  20
116.80188
  0
VERTEX
  5
491
  8
Layer_2
  10
209.85779
  20
116.80188
  0
VERTEX
  5
492
  8
Layer_2
  10
209.85779
  20
113.46277
  42
0.15007072
  0
VERTEX
  5
493
  8
Layer_2
  10
210.23718
  20
111.9259
  42
0.23905733
  0
VERTEX
  5
494
  8
Layer_2
  10
211.56702
  20
111.20007
  42
0.046867649
  0
VERTEX
  5
495
  8
Layer_2
  10
212.05701
  20
111.2052
  0
SEQEND
  0
POLYLINE
  5
497
  8
Layer_2
  62
1
  66
1
  10
0
  20
0
  30
0
  0
VERTEX
  5
497
  8
Layer_2
  10
282.40076
  20
111.2052
  42
0.2016668
  0
VERTEX
  5
498
  8
Layer_2
  10
283.95154
  20
112.1239
  0
VERTEX
  5
499
  8
Layer_2
  10
283.95154
  20
111.33313
  0
VERTEX
  5
49a
  8
Layer_2
  10
285.70007
  20
111.33313
  0
VERTEX
  5
49b
  8
Layer_2
  10
285.70007
  20
116.80188
  0
VERTEX
  5
49c
  8
Layer_2
  10
283.95154
  20
116.80188
  0
VERTEX
  5
49d
  8
Layer_2
  10
283.95154
  20
114.10193
  42
-0.16101646
  0
VERTEX
  5
49e
  8
Layer_2
  10
283.63904
  20
112.93469
  42
-0.35769023
  0
VERTEX
  5
49f
  8
Layer_2
  10
282.38123
  20
112.6073
  42
-0.27503346
  0
VERTEX
  5
4a0
  8
Layer_2
  10
281.9845
  20
113.29407
  42
-0.027677873
  0
VERTEX
  5
4a1
  8
Layer_2
  10
281.95032
  20
114.38391
  0
VERTEX
  5
4a2
  8
Layer_2
  10
281.95935
  20
116.255
  0
VERTEX
  5
4a3
  8
Layer_2
  10
281.95935
  20
116.80188
  0
VERTEX
  5
4a4
  8
Layer_2
  10
280.20154
  20
116.80188
  0
VERTEX
  5
4a5
  8
Layer_2
  10
280.20154
  20
113.46277
  42
0.15006736
  0
VERTEX
  5
4a6
  8
Layer_2
  10
280.58093
  20
111.9259
  42
0.23905966
  0
VERTEX
  5
4a7
  8
Layer_2
  10
281.91077
  20
111.20007
  42
0.046872617
  0
VERTEX
  5
4a8
  8
Layer_2
  10
282.40076
  20
111.2052
  0
SEQEND
  0
POLYLINE
  5
4aa
  8
Layer_2
  62
1
  66
1
  10
0
  20
0
  30
0
  0
VERTEX
  5
4aa
  8
Layer_2
  10
274.87048
  20
114.66296
  0
VERTEX
  5
4ab
  8
Layer_2
  10
274.92444
  20
114.91589
  42
-0.36062987
  0
VERTEX
  5
4ac
  8
Layer_2
  10
276.0907
  20
115.77234
  42
-0.38716263
  0
VERTEX
  5
4ad
  8
Layer_2
  10
277.12244
  20
114.90002
  0
VERTEX
  5
4ae
  8
Layer_2
  10
277.14075
  20
114.66296
  0
VERTEX
  5
4af
  8
Layer_2
  10
274.87048
  20
114.66296
  0
SEQEND
  0
POLYLINE
  5
4b1
  8
Layer_2
  62
1
  66
1
  10
0
  20
0
  30
0
  0
VERTEX
  5
4b1
  8
Layer_2
  10
233.81213
  20
112.44763
  42
-0.28845657
  0
VERTEX
  5
4b2
  8
Layer_2
  10
232.93396
  20
113.09094
  42
-0.17961818
  0
VERTEX
  5
4b3
  8
Layer_2
  10
232.93396
  20
115.0343
  42
-0.31891235
  0
VERTEX
  5
4b4
  8
Layer_2
  10
233.95325
  20
115.68323
  42
-0.32031751
  0
VERTEX
  5
4b5
  8
Layer_2
  10
234.95959
  20
115.0343
  42
-0.1783574
  0
VERTEX
  5
4b6
  8
Layer_2
  10
234.95959
  20
113.09094
  42
-0.3202864
  0
VERTEX
  5
4b7
  8
Layer_2
  10
233.95325
  20
112.44104
  0
VERTEX
  5
4b8
  8
Layer_2
  10
233.81213
  20
112.44763
  0
SEQEND
  0
POLYLINE
  5
4ba
  8
Layer_2
  62
1
  66
1
  10
0
  20
0
  30
0
  0
VERTEX
  5
4ba
  8
Layer_2
  10
264.29187
  20
112.44763
  0
VERTEX
  5
4bb
  8
Layer_2
  10
264.15955
  20
112.46716
  42
-0.25417644
  0
VERTEX
  5
4bc
  8
Layer_2
  10
263.4137
  20
113.09094
  42
-0.17961736
  0
VERTEX
  5
4bd
  8
Layer_2
  10
263.4137
  20
115.0343
  42
-0.31891238
  0
VERTEX
  5
4be
  8
Layer_2
  10
264.43298
  20
115.68323
  42
-0.3202757
  0
VERTEX
  5
4bf
  8
Layer_2
  10
265.43933
  20
115.0343
  42
-0.17830499
  0
VERTEX
  5
4c0
  8
Layer_2
  10
265.43933
  20
113.09094
  42
-0.3202451
  0
VERTEX
  5
4c1
  8
Layer_2
  10
264.43298
  20
112.44104
  0
VERTEX
  5
4c2
  8
Layer_2
  10
264.29187
  20
112.44763
  0
SEQEND
  0
POLYLINE
  5
4c4
  8
Layer_2
  62
1
  66
1
  10
0
  20
0
  30
0
  0
VERTEX
  5
4c4
  8
Layer_2
  10
226.83899
  20
112.48718
  42
-0.25223394
  0
VERTEX
  5
4c5
  8
Layer_2
  10
226.10999
  20
113.10291
  42
-0.17948619
  0
VERTEX
  5
4c6
  8
Layer_2
  10
226.10999
  20
115.02283
  42
-0.31891432
  0
VERTEX
  5
4c7
  8
Layer_2
  10
227.10315
  20
115.66443
  42
-0.32109426
  0
VERTEX
  5
4c8
  8
Layer_2
  10
228.08972
  20
115.026
  42
-0.17617694
  0
VERTEX
  5
4c9
  8
Layer_2
  10
228.08972
  20
113.09973
  42
-0.32108241
  0
VERTEX
  5
4ca
  8
Layer_2
  10
227.10315
  20
112.4613
  0
VERTEX
  5
4cb
  8
Layer_2
  10
226.83899
  20
112.48718
  0
SEQEND
  0
POLYLINE
  5
4cd
  8
Layer_2
  62
1
  70
1
  66
1
  10
0
  20
0
  30
0
  0
VERTEX
  5
4cd
  8
Layer_2
  10
219.68127
  20
112.48718
  42
-0.25206855
  0
VERTEX
  5
4ce
  8
Layer_2
  10
218.95203
  20
113.10291
  42
-0.17948612
  0
VERTEX
  5
4cf
  8
Layer_2
  10
218.95203
  20
115.02283
  42
-0.31878989
  0
VERTEX
  5
4d0
  8
Layer_2
  10
219.94543
  20
115.66443
  42
-0.3210301
  0
VERTEX
  5
4d1
  8
Layer_2
  10
220.93201
  20
115.026
  42
-0.17612392
  0
VERTEX
  5
4d2
  8
Layer_2
  10
220.93201
  20
113.09973
  42
-0.32090262
  0
VERTEX
  5
4d3
  8
Layer_2
  10
219.94543
  20
112.4613
  0
SEQEND
  0
POLYLINE
  5
4d5
  8
Layer_2
  62
1
  66
1
  10
0
  20
0
  30
0
  0
VERTEX
  5
4d5
  8
Layer_2
  10
13.996826
  20
281.9375
  0
VERTEX
  5
4d6
  8
Layer_2
  10
12.25
  20
281.9375
  0
VERTEX
  5
4d7
  8
Layer_2
  10
12.25
  20
274.33911
  0
VERTEX
  5
4d8
  8
Layer_2
  10
13.996826
  20
274.33911
  0
VERTEX
  5
4d9
  8
Layer_2
  10
13.996826
  20
281.9375
  0
SEQEND
  0
POLYLINE
  5
4db
  8
Layer_2
  62
1
  66
1
  10
0
  20
0
  30
0
  0
VERTEX
  5
4db
  8
Layer_2
  10
133.51733
  20
281.9375
  0
VERTEX
  5
4dc
  8
Layer_2
  10
131.77026
  20
281.9375
  0
VERTEX
  5
4dd
  8
Layer_2
  10
131.77026
  20
274.33911
  0
VERTEX
  5
4de
  8
Layer_2
  10
133.51733
  20
274.33911
  0
VERTEX
  5
4df
  8
Layer_2
  10
133.51733
  20
281.9375
  0
SEQEND
  0
POLYLINE
  5
4e1
  8
Layer_2
  62
1
  66
1
  10
0
  20
0
  30
0
  0
VERTEX
  5
4e1
  8
Layer_2
  10
109.53589
  20
278.55786
  0
VERTEX
  5
4e2
  8
Layer_2
  10
111.02979
  20
278.55786
  0
VERTEX
  5
4e3
  8
Layer_2
  10
111.02979
  20
279.80786
  0
VERTEX
  5
4e4
  8
Layer_2
  10
109.53589
  20
279.80786
  42
-0.030228047
  0
VERTEX
  5
4e5
  8
Layer_2
  10
109.54517
  20
280.34253
  42
-0.19759894
  0
VERTEX
  5
4e6
  8
Layer_2
  10
109.69532
  20
280.66245
  42
-0.19759429
  0
VERTEX
  5
4e7
  8
Layer_2
  10
110.02832
  20
280.78076
  42
-0.024168475
  0
VERTEX
  5
4e8
  8
Layer_2
  10
111.16724
  20
280.78906
  0
VERTEX
  5
4e9
  8
Layer_2
  10
111.16724
  20
281.9375
  42
0.013052052
  0
VERTEX
  5
4ea
  8
Layer_2
  10
109.57568
  20
281.93091
  42
0.16665518
  0
VERTEX
  5
4eb
  8
Layer_2
  10
108.28589
  20
281.51025
  42
0.20218154
  0
VERTEX
  5
4ec
  8
Layer_2
  10
107.79541
  20
280.40527
  42
0.018078338
  0
VERTEX
  5
4ed
  8
Layer_2
  10
107.7876
  20
279.80786
  0
VERTEX
  5
4ee
  8
Layer_2
  10
106.9187
  20
279.80786
  0
VERTEX
  5
4ef
  8
Layer_2
  10
106.9187
  20
278.55786
  0
VERTEX
  5
4f0
  8
Layer_2
  10
107.7876
  20
278.55786
  0
VERTEX
  5
4f1
  8
Layer_2
  10
107.7876
  20
274.33911
  0
VERTEX
  5
4f2
  8
Layer_2
  10
109.53589
  20
274.33911
  0
VERTEX
  5
4f3
  8
Layer_2
  10
109.53589
  20
278.55786
  0
SEQEND
  0
POLYLINE
  5
4f5
  8
Layer_2
  62
1
  66
1
  10
0
  20
0
  30
0
  0
VERTEX
  5
4f5
  8
Layer_2
  10
76.79541
  20
281.9375
  0
VERTEX
  5
4f6
  8
Layer_2
  10
75.048584
  20
281.9375
  0
VERTEX
  5
4f7
  8
Layer_2
  10
75.048584
  20
280.51099
  0
VERTEX
  5
4f8
  8
Layer_2
  10
76.79541
  20
280.51099
  0
VERTEX
  5
4f9
  8
Layer_2
  10
76.79541
  20
281.9375
  0
SEQEND
  0
POLYLINE
  5
4fb
  8
Layer_2
  62
1
  66
1
  10
0
  20
0
  30
0
  0
VERTEX
  5
4fb
  8
Layer_2
  10
28.949951
  20
281.9375
  0
VERTEX
  5
4fc
  8
Layer_2
  10
27.203125
  20
281.9375
  0
VERTEX
  5
4fd
  8
Layer_2
  10
27.203125
  20
280.51099
  0
VERTEX
  5
4fe
  8
Layer_2
  10
28.949951
  20
280.51099
  0
VERTEX
  5
4ff
  8
Layer_2
  10
28.949951
  20
281.9375
  0
SEQEND
  0
POLYLINE
  5
501
  8
Layer_2
  62
1
  66
1
  10
0
  20
0
  30
0
  0
VERTEX
  5
501
  8
Layer_2
  10
49.757813
  20
281.9375
  0
VERTEX
  5
502
  8
Layer_2
  10
48.010986
  20
281.9375
  0
VERTEX
  5
503
  8
Layer_2
  10
48.010986
  20
280.51099
  0
VERTEX
  5
504
  8
Layer_2
  10
49.757813
  20
280.51099
  0
VERTEX
  5
505
  8
Layer_2
  10
49.757813
  20
281.9375
  0
SEQEND
  0
POLYLINE
  5
507
  8
Layer_2
  62
1
  66
1
  10
0
  20
0
  30
0
  0
VERTEX
  5
507
  8
Layer_2
  10
6.8796387
  20
276.8689
  42
0.014087089
  0
VERTEX
  5
508
  8
Layer_2
  10
8.4567871
  20
276.87842
  42
0.13066003
  0
VERTEX
  5
509
  8
Layer_2
  10
10.059326
  20
277.34131
  42
0.24089181
  0
VERTEX
  5
50a
  8
Layer_2
  10
10.988525
  20
278.9729
  42
0.18586718
  0
VERTEX
  5
50b
  8
Layer_2
  10
10.581299
  20
280.67017
  42
0.18583538
  0
VERTEX
  5
50c
  8
Layer_2
  10
9.0717773
  20
281.54297
  42
0.048416414
  0
VERTEX
  5
50d
  8
Layer_2
  10
8.1188965
  20
281.62988
  0
VERTEX
  5
50e
  8
Layer_2
  10
5
  20
281.62988
  0
VERTEX
  5
50f
  8
Layer_2
  10
5
  20
274.33911
  0
VERTEX
  5
510
  8
Layer_2
  10
6.8796387
  20
274.33911
  0
VERTEX
  5
511
  8
Layer_2
  10
6.8796387
  20
276.8689
  0
SEQEND
  0
POLYLINE
  5
513
  8
Layer_2
  62
1
  66
1
  10
0
  20
0
  30
0
  0
VERTEX
  5
513
  8
Layer_2
  10
25.98291
  20
275.58911
  42
-0.020701354
  0
VERTEX
  5
514
  8
Layer_2
  10
24.878174
  20
275.59766
  42
-0.2540679
  0
VERTEX
  5
515
  8
Layer_2
  10
24.416504
  20
275.80615
  42
-0.11965777
  0
VERTEX
  5
516
  8
Layer_2
  10
24.331299
  20
276.23926
  0
VERTEX
  5
517
  8
Layer_2
  10
24.331299
  20
278.55786
  0
VERTEX
  5
518
  8
Layer_2
  10
26.134521
  20
278.55786
  0
VERTEX
  5
519
  8
Layer_2
  10
26.134521
  20
279.80786
  0
VERTEX
  5
51a
  8
Layer_2
  10
24.331299
  20
279.80786
  0
VERTEX
  5
51b
  8
Layer_2
  10
24.331299
  20
281.36108
  0
VERTEX
  5
51c
  8
Layer_2
  10
22.584473
  20
281.36108
  0
VERTEX
  5
51d
  8
Layer_2
  10
22.584473
  20
279.80786
  0
VERTEX
  5
51e
  8
Layer_2
  10
21.714111
  20
279.80786
  0
VERTEX
  5
51f
  8
Layer_2
  10
21.714111
  20
278.55786
  0
VERTEX
  5
520
  8
Layer_2
  10
22.584473
  20
278.55786
  0
VERTEX
  5
521
  8
Layer_2
  10
22.584473
  20
276.23926
  42
0.12443642
  0
VERTEX
  5
522
  8
Layer_2
  10
22.827393
  20
275.0249
  42
0.22936506
  0
VERTEX
  5
523
  8
Layer_2
  10
23.791748
  20
274.3999
  42
0.047663098
  0
VERTEX
  5
524
  8
Layer_2
  10
24.48291
  20
274.33911
  0
VERTEX
  5
525
  8
Layer_2
  10
25.98291
  20
274.33911
  0
VERTEX
  5
526
  8
Layer_2
  10
25.98291
  20
275.58911
  0
SEQEND
  0
POLYLINE
  5
528
  8
Layer_2
  62
1
  66
1
  10
0
  20
0
  30
0
  0
VERTEX
  5
528
  8
Layer_2
  10
62.115723
  20
275.58911
  42
-0.02069806
  0
VERTEX
  5
529
  8
Layer_2
  10
61.010986
  20
275.59766
  42
-0.25405978
  0
VERTEX
  5
52a
  8
Layer_2
  10
60.549316
  20
275.80615
  42
-0.11964776
  0
VERTEX
  5
52b
  8
Layer_2
  10
60.464111
  20
276.23926
  0
VERTEX
  5
52c
  8
Layer_2
  10
60.464111
  20
278.55786
  0
VERTEX
  5
52d
  8
Layer_2
  10
62.267334
  20
278.55786
  0
VERTEX
  5
52e
  8
Layer_2
  10
62.267334
  20
279.80786
  0
VERTEX
  5
52f
  8
Layer_2
  10
60.464111
  20
279.80786
  0
VERTEX
  5
530
  8
Layer_2
  10
60.464111
  20
281.36108
  0
VERTEX
  5
531
  8
Layer_2
  10
58.717285
  20
281.36108
  0
VERTEX
  5
532
  8
Layer_2
  10
58.717285
  20
279.80786
  0
VERTEX
  5
533
  8
Layer_2
  10
57.846924
  20
279.80786
  0
VERTEX
  5
534
  8
Layer_2
  10
57.846924
  20
278.55786
  0
VERTEX
  5
535
  8
Layer_2
  10
58.717285
  20
278.55786
  0
VERTEX
  5
536
  8
Layer_2
  10
58.717285
  20
276.23926
  42
0.12443515
  0
VERTEX
  5
537
  8
Layer_2
  10
58.960205
  20
275.0249
  42
0.22936318
  0
VERTEX
  5
538
  8
Layer_2
  10
59.924561
  20
274.3999
  42
0.047659768
  0
VERTEX
  5
539
  8
Layer_2
  10
60.615723
  20
274.33911
  0
VERTEX
  5
53a
  8
Layer_2
  10
62.115723
  20
274.33911
  0
VERTEX
  5
53b
  8
Layer_2
  10
62.115723
  20
275.58911
  0
SEQEND
  0
POLYLINE
  5
53d
  8
Layer_2
  62
1
  66
1
  10
0
  20
0
  30
0
  0
VERTEX
  5
53d
  8
Layer_2
  10
6.8796387
  20
278.23145
  0
VERTEX
  5
53e
  8
Layer_2
  10
6.8796387
  20
280.26733
  0
VERTEX
  5
53f
  8
Layer_2
  10
7.9187012
  20
280.26733
  42
-0.18490979
  0
VERTEX
  5
540
  8
Layer_2
  10
8.7641602
  20
280.00317
  42
-0.25421843
  0
VERTEX
  5
541
  8
Layer_2
  10
9.0439453
  20
279.021
  42
-0.35138766
  0
VERTEX
  5
542
  8
Layer_2
  10
8.1767578
  20
278.24805
  0
VERTEX
  5
543
  8
Layer_2
  10
7.9187012
  20
278.23145
  0
VERTEX
  5
544
  8
Layer_2
  10
6.8796387
  20
278.23145
  0
SEQEND
  0
POLYLINE
  5
546
  8
Layer_2
  62
1
  66
1
  10
0
  20
0
  30
0
  0
VERTEX
  5
546
  8
Layer_2
  10
81.503906
  20
274.20459
  42
0.078156659
  0
VERTEX
  5
547
  8
Layer_2
  10
83.675049
  20
274.67188
  0
VERTEX
  5
548
  8
Layer_2
  10
83.675049
  20
276.0188
  42
-0.12557754
  0
VERTEX
  5
549
  8
Layer_2
  10
81.354736
  20
275.35938
  42
-0.17211665
  0
VERTEX
  5
54a
  8
Layer_2
  10
80.290771
  20
275.66724
  42
-0.20591142
  0
VERTEX
  5
54b
  8
Layer_2
  10
79.846924
  20
276.59082
  0
VERTEX
  5
54c
  8
Layer_2
  10
83.932861
  20
276.59082
  42
0.073561174
  0
VERTEX
  5
54d
  8
Layer_2
  10
83.824219
  20
277.98877
  42
0.33189307
  0
VERTEX
  5
54e
  8
Layer_2
  10
81.411133
  20
279.927
  42
0.15372684
  0
VERTEX
  5
54f
  8
Layer_2
  10
79.313965
  20
279.50806
  42
0.25107712
  0
VERTEX
  5
550
  8
Layer_2
  10
78.07666
  20
277.39429
  42
0.13935861
  0
VERTEX
  5
551
  8
Layer_2
  10
78.385498
  20
275.60303
  42
0.22425028
  0
VERTEX
  5
552
  8
Layer_2
  10
80.173584
  20
274.30298
  42
0.067970624
  0
VERTEX
  5
553
  8
Layer_2
  10
81.503906
  20
274.20459
  0
SEQEND
  0
POLYLINE
  5
555
  8
Layer_2
  62
1
  66
1
  10
0
  20
0
  30
0
  0
VERTEX
  5
555
  8
Layer_2
  10
128.01807
  20
274.20459
  42
0.078114018
  0
VERTEX
  5
556
  8
Layer_2
  10
130.18921
  20
274.67188
  0
VERTEX
  5
557
  8
Layer_2
  10
130.18921
  20
276.0188
  42
-0.1255727
  0
VERTEX
  5
558
  8
Layer_2
  10
127.8689
  20
275.35938
  42
-0.17203456
  0
VERTEX
  5
559
  8
Layer_2
  10
126.80469
  20
275.66724
  42
-0.20576485
  0
VERTEX
  5
55a
  8
Layer_2
  10
126.36108
  20
276.59082
  0
VERTEX
  5
55b
  8
Layer_2
  10
130.44702
  20
276.59082
  42
0.073503215
  0
VERTEX
  5
55c
  8
Layer_2
  10
130.33813
  20
277.98877
  42
0.33196226
  0
VERTEX
  5
55d
  8
Layer_2
  10
127.92529
  20
279.927
  42
0.15367588
  0
VERTEX
  5
55e
  8
Layer_2
  10
125.82788
  20
279.50806
  42
0.25103338
  0
VERTEX
  5
55f
  8
Layer_2
  10
124.59082
  20
277.39429
  42
0.13923648
  0
VERTEX
  5
560
  8
Layer_2
  10
124.89941
  20
275.60303
  42
0.2241536
  0
VERTEX
  5
561
  8
Layer_2
  10
126.68774
  20
274.30298
  42
0.067970796
  0
VERTEX
  5
562
  8
Layer_2
  10
128.01807
  20
274.20459
  0
SEQEND
  0
POLYLINE
  5
564
  8
Layer_2
  62
1
  66
1
  10
0
  20
0
  30
0
  0
VERTEX
  5
564
  8
Layer_2
  10
121.41748
  20
274.20386
  42
0.10932157
  0
VERTEX
  5
565
  8
Layer_2
  10
122.85938
  20
274.53369
  42
0.29718844
  0
VERTEX
  5
566
  8
Layer_2
  10
123.67505
  20
275.9502
  42
0.1912532
  0
VERTEX
  5
567
  8
Layer_2
  10
123.32031
  20
277.07202
  42
0.14670579
  0
VERTEX
  5
568
  8
Layer_2
  10
122.28882
  20
277.57886
  42
0.020686739
  0
VERTEX
  5
569
  8
Layer_2
  10
120.69604
  20
277.85034
  0
VERTEX
  5
56a
  8
Layer_2
  10
120.55029
  20
277.89551
  42
-0.20336251
  0
VERTEX
  5
56b
  8
Layer_2
  10
120.30562
  20
278.08398
  42
-0.20332124
  0
VERTEX
  5
56c
  8
Layer_2
  10
120.27295
  20
278.39111
  42
-0.27061426
  0
VERTEX
  5
56d
  8
Layer_2
  10
120.63599
  20
278.70801
  42
-0.12457156
  0
VERTEX
  5
56e
  8
Layer_2
  10
122.4895
  20
278.59521
  42
-0.031442354
  0
VERTEX
  5
56f
  8
Layer_2
  10
123.30933
  20
278.30957
  0
VERTEX
  5
570
  8
Layer_2
  10
123.30933
  20
279.6377
  42
0.098595736
  0
VERTEX
  5
571
  8
Layer_2
  10
120.30273
  20
279.88013
  42
0.14569442
  0
VERTEX
  5
572
  8
Layer_2
  10
119.17041
  20
279.40771
  42
0.21570632
  0
VERTEX
  5
573
  8
Layer_2
  10
118.71411
  20
278.23145
  42
0.22762395
  0
VERTEX
  5
574
  8
Layer_2
  10
119.18286
  20
277.02979
  42
0.12524583
  0
VERTEX
  5
575
  8
Layer_2
  10
120.53784
  20
276.52808
  42
0.0085127589
  0
VERTEX
  5
576
  8
Layer_2
  10
121.12671
  20
276.44849
  0
VERTEX
  5
577
  8
Layer_2
  10
121.37085
  20
276.41333
  42
-0.15697838
  0
VERTEX
  5
578
  8
Layer_2
  10
121.91553
  20
276.20581
  42
-0.31181175
  0
VERTEX
  5
579
  8
Layer_2
  10
121.95093
  20
275.67676
  42
-0.21165363
  0
VERTEX
  5
57a
  8
Layer_2
  10
121.43457
  20
275.39478
  42
-0.14395546
  0
VERTEX
  5
57b
  8
Layer_2
  10
118.79688
  20
275.86719
  0
VERTEX
  5
57c
  8
Layer_2
  10
118.79688
  20
274.53906
  42
0.080958273
  0
VERTEX
  5
57d
  8
Layer_2
  10
121.41748
  20
274.20386
  0
SEQEND
  0
POLYLINE
  5
57f
  8
Layer_2
  62
1
  66
1
  10
0
  20
0
  30
0
  0
VERTEX
  5
57f
  8
Layer_2
  10
17.478027
  20
274.21118
  0
VERTEX
  5
580
  8
Layer_2
  10
17.757324
  20
274.25391
  42
0.19956932
  0
VERTEX
  5
581
  8
Layer_2
  10
19.035889
  20
275.15015
  0
VERTEX
  5
582
  8
Layer_2
  10
19.035889
  20
274.33911
  0
VERTEX
  5
583
  8
Layer_2
  10
20.798584
  20
274.33911
  0
VERTEX
  5
584
  8
Layer_2
  10
20.798584
  20
277.45947
  42
0.14267643
  0
VERTEX
  5
585
  8
Layer_2
  10
20.428955
  20
279.01929
  42
0.19246766
  0
VERTEX
  5
586
  8
Layer_2
  10
19.278809
  20
279.79346
  42
0.079455676
  0
VERTEX
  5
587
  8
Layer_2
  10
17.438965
  20
279.92163
  42
0.044062047
  0
VERTEX
  5
588
  8
Layer_2
  10
15.743896
  20
279.66113
  0
VERTEX
  5
589
  8
Layer_2
  10
15.743896
  20
278.32813
  42
-0.17939003
  0
VERTEX
  5
58a
  8
Layer_2
  10
18.521973
  20
278.66968
  42
-0.35686208
  0
VERTEX
  5
58b
  8
Layer_2
  10
19.035889
  20
277.97656
  0
VERTEX
  5
58c
  8
Layer_2
  10
19.035889
  20
277.84082
  0
VERTEX
  5
58d
  8
Layer_2
  10
18.004639
  20
277.84082
  42
0.091813426
  0
VERTEX
  5
58e
  8
Layer_2
  10
16.30542
  20
277.58813
  42
0.30698165
  0
VERTEX
  5
58f
  8
Layer_2
  10
15.276123
  20
276.2124
  42
0.2004438
  0
VERTEX
  5
590
  8
Layer_2
  10
15.607117
  20
274.90707
  42
0.20044047
  0
VERTEX
  5
591
  8
Layer_2
  10
16.77002
  20
274.22803
  42
0.062098898
  0
VERTEX
  5
592
  8
Layer_2
  10
17.478027
  20
274.21118
  0
SEQEND
  0
POLYLINE
  5
594
  8
Layer_2
  62
1
  66
1
  10
0
  20
0
  30
0
  0
VERTEX
  5
594
  8
Layer_2
  10
136.99829
  20
274.21118
  42
0.2352678
  0
VERTEX
  5
595
  8
Layer_2
  10
138.5564
  20
275.15015
  0
VERTEX
  5
596
  8
Layer_2
  10
138.5564
  20
274.33911
  0
VERTEX
  5
597
  8
Layer_2
  10
140.31885
  20
274.33911
  0
VERTEX
  5
598
  8
Layer_2
  10
140.31885
  20
277.45947
  42
0.14274151
  0
VERTEX
  5
599
  8
Layer_2
  10
139.94922
  20
279.01929
  42
0.19249257
  0
VERTEX
  5
59a
  8
Layer_2
  10
138.79907
  20
279.79346
  42
0.079455672
  0
VERTEX
  5
59b
  8
Layer_2
  10
136.95923
  20
279.92163
  42
0.044062155
  0
VERTEX
  5
59c
  8
Layer_2
  10
135.26416
  20
279.66113
  0
VERTEX
  5
59d
  8
Layer_2
  10
135.26416
  20
278.32813
  42
-0.17938162
  0
VERTEX
  5
59e
  8
Layer_2
  10
138.04248
  20
278.66968
  42
-0.35632708
  0
VERTEX
  5
59f
  8
Layer_2
  10
138.5564
  20
277.97656
  0
VERTEX
  5
5a0
  8
Layer_2
  10
138.5564
  20
277.84082
  0
VERTEX
  5
5a1
  8
Layer_2
  10
137.52515
  20
277.84082
  42
0.091821637
  0
VERTEX
  5
5a2
  8
Layer_2
  10
135.82568
  20
277.58813
  42
0.30693492
  0
VERTEX
  5
5a3
  8
Layer_2
  10
134.79639
  20
276.2124
  42
0.20041793
  0
VERTEX
  5
5a4
  8
Layer_2
  10
135.12747
  20
274.90714
  42
0.20042271
  0
VERTEX
  5
5a5
  8
Layer_2
  10
136.29028
  20
274.22803
  42
0.062101808
  0
VERTEX
  5
5a6
  8
Layer_2
  10
136.99829
  20
274.21118
  0
SEQEND
  0
POLYLINE
  5
5a8
  8
Layer_2
  62
1
  66
1
  10
0
  20
0
  30
0
  0
VERTEX
  5
5a8
  8
Layer_2
  10
100.33521
  20
274.20459
  42
0.078148109
  0
VERTEX
  5
5a9
  8
Layer_2
  10
102.50635
  20
274.67188
  0
VERTEX
  5
5aa
  8
Layer_2
  10
102.50635
  20
276.0188
  42
-0.12557663
  0
VERTEX
  5
5ab
  8
Layer_2
  10
100.18604
  20
275.35938
  42
-0.17202392
  0
VERTEX
  5
5ac
  8
Layer_2
  10
99.121826
  20
275.66724
  42
-0.20576167
  0
VERTEX
  5
5ad
  8
Layer_2
  10
98.678223
  20
276.59082
  0
VERTEX
  5
5ae
  8
Layer_2
  10
102.76416
  20
276.59082
  42
0.073503994
  0
VERTEX
  5
5af
  8
Layer_2
  10
102.65527
  20
277.98877
  42
0.33196242
  0
VERTEX
  5
5b0
  8
Layer_2
  10
100.24243
  20
279.927
  42
0.15373083
  0
VERTEX
  5
5b1
  8
Layer_2
  10
98.145264
  20
279.50806
  42
0.25108683
  0
VERTEX
  5
5b2
  8
Layer_2
  10
96.907959
  20
277.39429
  42
0.13938751
  0
VERTEX
  5
5b3
  8
Layer_2
  10
97.216797
  20
275.60303
  42
0.2242576
  0
VERTEX
  5
5b4
  8
Layer_2
  10
99.004883
  20
274.30298
  42
0.067969507
  0
VERTEX
  5
5b5
  8
Layer_2
  10
100.33521
  20
274.20459
  0
SEQEND
  0
POLYLINE
  5
5b7
  8
Layer_2
  62
1
  66
1
  10
0
  20
0
  30
0
  0
VERTEX
  5
5b7
  8
Layer_2
  10
94.121826
  20
276.85938
  0
VERTEX
  5
5b8
  8
Layer_2
  10
94.127686
  20
277.05493
  42
-0.19384345
  0
VERTEX
  5
5b9
  8
Layer_2
  10
94.581787
  20
278.19751
  42
-0.22379444
  0
VERTEX
  5
5ba
  8
Layer_2
  10
95.752686
  20
278.51563
  42
-0.08291529
  0
VERTEX
  5
5bb
  8
Layer_2
  10
96.4375
  20
278.31885
  0
VERTEX
  5
5bc
  8
Layer_2
  10
96.431396
  20
279.90015
  42
0.15888869
  0
VERTEX
  5
5bd
  8
Layer_2
  10
94.89624
  20
279.69312
  42
0.12527692
  0
VERTEX
  5
5be
  8
Layer_2
  10
94.121826
  20
278.90942
  0
VERTEX
  5
5bf
  8
Layer_2
  10
94.121826
  20
279.80786
  0
VERTEX
  5
5c0
  8
Layer_2
  10
92.375
  20
279.80786
  0
VERTEX
  5
5c1
  8
Layer_2
  10
92.375
  20
274.33911
  0
VERTEX
  5
5c2
  8
Layer_2
  10
94.121826
  20
274.33911
  0
VERTEX
  5
5c3
  8
Layer_2
  10
94.121826
  20
276.85938
  0
SEQEND
  0
POLYLINE
  5
5c5
  8
Layer_2
  62
1
  66
1
  10
0
  20
0
  30
0
  0
VERTEX
  5
5c5
  8
Layer_2
  10
71.864014
  20
276.85938
  42
-0.17742938
  0
VERTEX
  5
5c6
  8
Layer_2
  10
72.228271
  20
278.09619
  42
-0.22983841
  0
VERTEX
  5
5c7
  8
Layer_2
  10
73.265625
  20
278.52832
  42
-0.11208095
  0
VERTEX
  5
5c8
  8
Layer_2
  10
74.179688
  20
278.31885
  0
VERTEX
  5
5c9
  8
Layer_2
  10
74.173584
  20
279.90015
  42
0.15888856
  0
VERTEX
  5
5ca
  8
Layer_2
  10
72.638428
  20
279.69312
  42
0.12527658
  0
VERTEX
  5
5cb
  8
Layer_2
  10
71.864014
  20
278.90942
  0
VERTEX
  5
5cc
  8
Layer_2
  10
71.864014
  20
279.80786
  0
VERTEX
  5
5cd
  8
Layer_2
  10
70.117188
  20
279.80786
  0
VERTEX
  5
5ce
  8
Layer_2
  10
70.117188
  20
274.33911
  0
VERTEX
  5
5cf
  8
Layer_2
  10
71.864014
  20
274.33911
  0
VERTEX
  5
5d0
  8
Layer_2
  10
71.864014
  20
276.85938
  0
SEQEND
  0
POLYLINE
  5
5d2
  8
Layer_2
  62
1
  66
1
  10
0
  20
0
  30
0
  0
VERTEX
  5
5d2
  8
Layer_2
  10
152.13062
  20
274.20459
  42
0.078152068
  0
VERTEX
  5
5d3
  8
Layer_2
  10
154.30151
  20
274.67188
  0
VERTEX
  5
5d4
  8
Layer_2
  10
154.30151
  20
276.0188
  42
-0.12562755
  0
VERTEX
  5
5d5
  8
Layer_2
  10
151.9812
  20
275.35938
  42
-0.1721092
  0
VERTEX
  5
5d6
  8
Layer_2
  10
150.91724
  20
275.66724
  42
-0.20552556
  0
VERTEX
  5
5d7
  8
Layer_2
  10
150.47339
  20
276.59082
  0
VERTEX
  5
5d8
  8
Layer_2
  10
154.55933
  20
276.59082
  42
0.073558458
  0
VERTEX
  5
5d9
  8
Layer_2
  10
154.45068
  20
277.98877
  42
0.33189362
  0
VERTEX
  5
5da
  8
Layer_2
  10
152.0376
  20
279.927
  42
0.15368004
  0
VERTEX
  5
5db
  8
Layer_2
  10
149.94043
  20
279.50806
  42
0.25105936
  0
VERTEX
  5
5dc
  8
Layer_2
  10
148.70337
  20
277.39429
  42
0.1392651
  0
VERTEX
  5
5dd
  8
Layer_2
  10
149.01196
  20
275.60303
  42
0.22420606
  0
VERTEX
  5
5de
  8
Layer_2
  10
150.80005
  20
274.30298
  42
0.067940191
  0
VERTEX
  5
5df
  8
Layer_2
  10
152.13062
  20
274.20459
  0
SEQEND
  0
POLYLINE
  5
5e1
  8
Layer_2
  62
1
  66
1
  10
0
  20
0
  30
0
  0
VERTEX
  5
5e1
  8
Layer_2
  10
66.36499
  20
274.20459
  42
0.078151064
  0
VERTEX
  5
5e2
  8
Layer_2
  10
68.535889
  20
274.67188
  0
VERTEX
  5
5e3
  8
Layer_2
  10
68.535889
  20
276.0188
  42
-0.12562559
  0
VERTEX
  5
5e4
  8
Layer_2
  10
66.215576
  20
275.35938
  42
-0.17211679
  0
VERTEX
  5
5e5
  8
Layer_2
  10
65.151611
  20
275.66724
  42
-0.20552549
  0
VERTEX
  5
5e6
  8
Layer_2
  10
64.707764
  20
276.59082
  0
VERTEX
  5
5e7
  8
Layer_2
  10
68.793701
  20
276.59082
  42
0.073561291
  0
VERTEX
  5
5e8
  8
Layer_2
  10
68.685059
  20
277.98877
  42
0.33189292
  0
VERTEX
  5
5e9
  8
Layer_2
  10
66.271973
  20
279.927
  42
0.15367877
  0
VERTEX
  5
5ea
  8
Layer_2
  10
64.174805
  20
279.50806
  42
0.25116938
  0
VERTEX
  5
5eb
  8
Layer_2
  10
62.937744
  20
277.39429
  42
0.13926351
  0
VERTEX
  5
5ec
  8
Layer_2
  10
63.246338
  20
275.60303
  42
0.22420766
  0
VERTEX
  5
5ed
  8
Layer_2
  10
65.034424
  20
274.30298
  42
0.067941709
  0
VERTEX
  5
5ee
  8
Layer_2
  10
66.36499
  20
274.20459
  0
SEQEND
  0
POLYLINE
  5
5f0
  8
Layer_2
  62
1
  66
1
  10
0
  20
0
  30
0
  0
VERTEX
  5
5f0
  8
Layer_2
  10
40.777344
  20
274.20459
  42
0.024211799
  0
VERTEX
  5
5f1
  8
Layer_2
  10
41.397705
  20
274.26465
  42
0.053745459
  0
VERTEX
  5
5f2
  8
Layer_2
  10
42.948486
  20
274.67188
  0
VERTEX
  5
5f3
  8
Layer_2
  10
42.948486
  20
276.0188
  42
-0.12557778
  0
VERTEX
  5
5f4
  8
Layer_2
  10
40.628174
  20
275.35938
  42
-0.17211248
  0
VERTEX
  5
5f5
  8
Layer_2
  10
39.564209
  20
275.66724
  42
-0.20591046
  0
VERTEX
  5
5f6
  8
Layer_2
  10
39.120361
  20
276.59082
  0
VERTEX
  5
5f7
  8
Layer_2
  10
43.206299
  20
276.59082
  42
0.073504938
  0
VERTEX
  5
5f8
  8
Layer_2
  10
43.097412
  20
277.98877
  42
0.33196222
  0
VERTEX
  5
5f9
  8
Layer_2
  10
40.68457
  20
279.927
  42
0.15372706
  0
VERTEX
  5
5fa
  8
Layer_2
  10
38.587402
  20
279.50806
  42
0.25107731
  0
VERTEX
  5
5fb
  8
Layer_2
  10
37.350098
  20
277.39429
  42
0.13935822
  0
VERTEX
  5
5fc
  8
Layer_2
  10
37.658936
  20
275.60303
  42
0.2242507
  0
VERTEX
  5
5fd
  8
Layer_2
  10
39.447021
  20
274.30298
  42
0.067969742
  0
VERTEX
  5
5fe
  8
Layer_2
  10
40.777344
  20
274.20459
  0
SEQEND
  0
POLYLINE
  5
600
  8
Layer_2
  62
1
  66
1
  10
0
  20
0
  30
0
  0
VERTEX
  5
600
  8
Layer_2
  10
53.184326
  20
277.02979
  42
-0.16043182
  0
VERTEX
  5
601
  8
Layer_2
  10
53.496826
  20
278.19922
  42
-0.36167612
  0
VERTEX
  5
602
  8
Layer_2
  10
54.75708
  20
278.52661
  42
-0.27170642
  0
VERTEX
  5
603
  8
Layer_2
  10
55.145264
  20
277.86426
  42
-0.024311264
  0
VERTEX
  5
604
  8
Layer_2
  10
55.176514
  20
276.8877
  0
VERTEX
  5
605
  8
Layer_2
  10
55.176514
  20
274.33911
  0
VERTEX
  5
606
  8
Layer_2
  10
56.934326
  20
274.33911
  0
VERTEX
  5
607
  8
Layer_2
  10
56.934326
  20
277.66895
  42
0.149029
  0
VERTEX
  5
608
  8
Layer_2
  10
56.558838
  20
279.20532
  42
0.24023639
  0
VERTEX
  5
609
  8
Layer_2
  10
55.23584
  20
279.93018
  42
0.23794809
  0
VERTEX
  5
60a
  8
Layer_2
  10
53.385254
  20
279.2312
  0
VERTEX
  5
60b
  8
Layer_2
  10
53.184326
  20
279.00781
  0
VERTEX
  5
60c
  8
Layer_2
  10
53.184326
  20
279.80786
  0
VERTEX
  5
60d
  8
Layer_2
  10
51.4375
  20
279.80786
  0
VERTEX
  5
60e
  8
Layer_2
  10
51.4375
  20
274.33911
  0
VERTEX
  5
60f
  8
Layer_2
  10
53.184326
  20
274.33911
  0
VERTEX
  5
610
  8
Layer_2
  10
53.184326
  20
277.02979
  0
SEQEND
  0
POLYLINE
  5
612
  8
Layer_2
  62
1
  66
1
  10
0
  20
0
  30
0
  0
VERTEX
  5
612
  8
Layer_2
  10
32.376709
  20
277.02979
  42
-0.16043212
  0
VERTEX
  5
613
  8
Layer_2
  10
32.689209
  20
278.19922
  42
-0.36174242
  0
VERTEX
  5
614
  8
Layer_2
  10
33.949219
  20
278.52661
  42
-0.27189024
  0
VERTEX
  5
615
  8
Layer_2
  10
34.337646
  20
277.86426
  42
-0.024311264
  0
VERTEX
  5
616
  8
Layer_2
  10
34.368896
  20
276.8877
  0
VERTEX
  5
617
  8
Layer_2
  10
34.368896
  20
274.33911
  0
VERTEX
  5
618
  8
Layer_2
  10
36.126709
  20
274.33911
  0
VERTEX
  5
619
  8
Layer_2
  10
36.126709
  20
277.66895
  42
0.14890239
  0
VERTEX
  5
61a
  8
Layer_2
  10
35.750977
  20
279.20532
  42
0.2402354
  0
VERTEX
  5
61b
  8
Layer_2
  10
34.427979
  20
279.93018
  42
0.23793375
  0
VERTEX
  5
61c
  8
Layer_2
  10
32.577393
  20
279.2312
  0
VERTEX
  5
61d
  8
Layer_2
  10
32.376709
  20
279.00781
  0
VERTEX
  5
61e
  8
Layer_2
  10
32.376709
  20
279.80786
  0
VERTEX
  5
61f
  8
Layer_2
  10
30.629639
  20
279.80786
  0
VERTEX
  5
620
  8
Layer_2
  10
30.629639
  20
274.33911
  0
VERTEX
  5
621
  8
Layer_2
  10
32.376709
  20
274.33911
  0
VERTEX
  5
622
  8
Layer_2
  10
32.376709
  20
277.02979
  0
SEQEND
  0
POLYLINE
  5
624
  8
Layer_2
  62
1
  66
1
  10
0
  20
0
  30
0
  0
VERTEX
  5
624
  8
Layer_2
  10
144.55859
  20
272.19214
  42
0.13113261
  0
VERTEX
  5
625
  8
Layer_2
  10
146.36914
  20
272.71362
  42
0.24114752
  0
VERTEX
  5
626
  8
Layer_2
  10
147.40894
  20
274.5708
  0
VERTEX
  5
627
  8
Layer_2
  10
147.42188
  20
274.89063
  0
VERTEX
  5
628
  8
Layer_2
  10
147.42188
  20
279.80786
  0
VERTEX
  5
629
  8
Layer_2
  10
145.66406
  20
279.80786
  0
VERTEX
  5
62a
  8
Layer_2
  10
145.66406
  20
278.99707
  0
VERTEX
  5
62b
  8
Layer_2
  10
145.479
  20
279.2229
  42
0.38952849
  0
VERTEX
  5
62c
  8
Layer_2
  10
142.55566
  20
279.48901
  42
0.21219257
  0
VERTEX
  5
62d
  8
Layer_2
  10
141.56348
  20
277.43701
  42
0.16892821
  0
VERTEX
  5
62e
  8
Layer_2
  10
142.05371
  20
275.3313
  42
0.38402374
  0
VERTEX
  5
62f
  8
Layer_2
  10
144.86792
  20
274.56421
  42
0.11280926
  0
VERTEX
  5
630
  8
Layer_2
  10
145.66406
  20
275.26733
  42
-0.095012365
  0
VERTEX
  5
631
  8
Layer_2
  10
145.56396
  20
274.19653
  42
-0.2865082
  0
VERTEX
  5
632
  8
Layer_2
  10
144.58325
  20
273.39063
  42
-0.18521346
  0
VERTEX
  5
633
  8
Layer_2
  10
142.22192
  20
273.86108
  0
VERTEX
  5
634
  8
Layer_2
  10
142.22192
  20
272.49854
  42
0.096665013
  0
VERTEX
  5
635
  8
Layer_2
  10
144.55859
  20
272.19214
  0
SEQEND
  0
POLYLINE
  5
637
  8
Layer_2
  62
1
  66
1
  10
0
  20
0
  30
0
  0
VERTEX
  5
637
  8
Layer_2
  10
28.949951
  20
279.80786
  0
VERTEX
  5
638
  8
Layer_2
  10
27.203125
  20
279.80786
  0
VERTEX
  5
639
  8
Layer_2
  10
27.203125
  20
274.33911
  0
VERTEX
  5
63a
  8
Layer_2
  10
28.949951
  20
274.33911
  0
VERTEX
  5
63b
  8
Layer_2
  10
28.949951
  20
279.80786
  0
SEQEND
  0
POLYLINE
  5
63d
  8
Layer_2
  62
1
  66
1
  10
0
  20
0
  30
0
  0
VERTEX
  5
63d
  8
Layer_2
  10
114.05859
  20
274.21118
  42
0.20155368
  0
VERTEX
  5
63e
  8
Layer_2
  10
115.60938
  20
275.12988
  0
VERTEX
  5
63f
  8
Layer_2
  10
115.60938
  20
274.33911
  0
VERTEX
  5
640
  8
Layer_2
  10
117.35791
  20
274.33911
  0
VERTEX
  5
641
  8
Layer_2
  10
117.35791
  20
279.80786
  0
VERTEX
  5
642
  8
Layer_2
  10
115.60938
  20
279.80786
  0
VERTEX
  5
643
  8
Layer_2
  10
115.60938
  20
277.10791
  42
-0.1610186
  0
VERTEX
  5
644
  8
Layer_2
  10
115.29688
  20
275.94067
  42
-0.35769634
  0
VERTEX
  5
645
  8
Layer_2
  10
114.03906
  20
275.61328
  42
-0.27516545
  0
VERTEX
  5
646
  8
Layer_2
  10
113.64233
  20
276.30005
  42
-0.027675246
  0
VERTEX
  5
647
  8
Layer_2
  10
113.60815
  20
277.38989
  0
VERTEX
  5
648
  8
Layer_2
  10
113.61719
  20
279.26099
  0
VERTEX
  5
649
  8
Layer_2
  10
113.61719
  20
279.80786
  0
VERTEX
  5
64a
  8
Layer_2
  10
111.85938
  20
279.80786
  0
VERTEX
  5
64b
  8
Layer_2
  10
111.85938
  20
276.46875
  42
0.15029745
  0
VERTEX
  5
64c
  8
Layer_2
  10
112.23877
  20
274.93188
  42
0.23902997
  0
VERTEX
  5
64d
  8
Layer_2
  10
113.56836
  20
274.20605
  42
0.046859977
  0
VERTEX
  5
64e
  8
Layer_2
  10
114.05859
  20
274.21118
  0
SEQEND
  0
POLYLINE
  5
650
  8
Layer_2
  62
1
  66
1
  10
0
  20
0
  30
0
  0
VERTEX
  5
650
  8
Layer_2
  10
49.757813
  20
279.80786
  0
VERTEX
  5
651
  8
Layer_2
  10
48.010986
  20
279.80786
  0
VERTEX
  5
652
  8
Layer_2
  10
48.010986
  20
274.33911
  0
VERTEX
  5
653
  8
Layer_2
  10
49.757813
  20
274.33911
  0
VERTEX
  5
654
  8
Layer_2
  10
49.757813
  20
279.80786
  0
SEQEND
  0
POLYLINE
  5
656
  8
Layer_2
  62
1
  66
1
  10
0
  20
0
  30
0
  0
VERTEX
  5
656
  8
Layer_2
  10
87.395996
  20
274.21118
  42
0.20155539
  0
VERTEX
  5
657
  8
Layer_2
  10
88.947021
  20
275.12988
  0
VERTEX
  5
658
  8
Layer_2
  10
88.947021
  20
274.33911
  0
VERTEX
  5
659
  8
Layer_2
  10
90.695313
  20
274.33911
  0
VERTEX
  5
65a
  8
Layer_2
  10
90.695313
  20
279.80786
  0
VERTEX
  5
65b
  8
Layer_2
  10
88.947021
  20
279.80786
  0
VERTEX
  5
65c
  8
Layer_2
  10
88.947021
  20
277.10791
  42
-0.16101826
  0
VERTEX
  5
65d
  8
Layer_2
  10
88.634521
  20
275.94067
  42
-0.35772196
  0
VERTEX
  5
65e
  8
Layer_2
  10
87.376709
  20
275.61328
  42
-0.2752631
  0
VERTEX
  5
65f
  8
Layer_2
  10
86.979736
  20
276.30005
  42
-0.027672079
  0
VERTEX
  5
660
  8
Layer_2
  10
86.945557
  20
277.38989
  0
VERTEX
  5
661
  8
Layer_2
  10
86.954834
  20
279.26099
  0
VERTEX
  5
662
  8
Layer_2
  10
86.954834
  20
279.80786
  0
VERTEX
  5
663
  8
Layer_2
  10
85.197021
  20
279.80786
  0
VERTEX
  5
664
  8
Layer_2
  10
85.197021
  20
276.46875
  42
0.15021989
  0
VERTEX
  5
665
  8
Layer_2
  10
85.576172
  20
274.93188
  42
0.23903391
  0
VERTEX
  5
666
  8
Layer_2
  10
86.906006
  20
274.20605
  42
0.046867921
  0
VERTEX
  5
667
  8
Layer_2
  10
87.395996
  20
274.21118
  0
SEQEND
  0
POLYLINE
  5
669
  8
Layer_2
  62
1
  66
1
  10
0
  20
0
  30
0
  0
VERTEX
  5
669
  8
Layer_2
  10
76.79541
  20
279.80786
  0
VERTEX
  5
66a
  8
Layer_2
  10
75.048584
  20
279.80786
  0
VERTEX
  5
66b
  8
Layer_2
  10
75.048584
  20
274.33911
  0
VERTEX
  5
66c
  8
Layer_2
  10
76.79541
  20
274.33911
  0
VERTEX
  5
66d
  8
Layer_2
  10
76.79541
  20
279.80786
  0
SEQEND
  0
POLYLINE
  5
66f
  8
Layer_2
  62
1
  66
1
  10
0
  20
0
  30
0
  0
VERTEX
  5
66f
  8
Layer_2
  10
79.865723
  20
277.66895
  0
VERTEX
  5
670
  8
Layer_2
  10
79.919678
  20
277.92188
  42
-0.36057555
  0
VERTEX
  5
671
  8
Layer_2
  10
81.085938
  20
278.77832
  42
-0.38713066
  0
VERTEX
  5
672
  8
Layer_2
  10
82.11792
  20
277.90601
  0
VERTEX
  5
673
  8
Layer_2
  10
82.135986
  20
277.66895
  0
VERTEX
  5
674
  8
Layer_2
  10
79.865723
  20
277.66895
  0
SEQEND
  0
POLYLINE
  5
676
  8
Layer_2
  62
1
  66
1
  10
0
  20
0
  30
0
  0
VERTEX
  5
676
  8
Layer_2
  10
39.13916
  20
277.66895
  42
-0.23820259
  0
VERTEX
  5
677
  8
Layer_2
  10
39.704834
  20
278.61743
  42
-0.26786951
  0
VERTEX
  5
678
  8
Layer_2
  10
40.962402
  20
278.60645
  42
-0.25334283
  0
VERTEX
  5
679
  8
Layer_2
  10
41.409424
  20
277.66895
  0
VERTEX
  5
67a
  8
Layer_2
  10
39.13916
  20
277.66895
  0
SEQEND
  0
POLYLINE
  5
67c
  8
Layer_2
  62
1
  66
1
  10
0
  20
0
  30
0
  0
VERTEX
  5
67c
  8
Layer_2
  10
98.697021
  20
277.66895
  0
VERTEX
  5
67d
  8
Layer_2
  10
98.750977
  20
277.92188
  42
-0.36062855
  0
VERTEX
  5
67e
  8
Layer_2
  10
99.917236
  20
278.77832
  42
-0.38716108
  0
VERTEX
  5
67f
  8
Layer_2
  10
100.94897
  20
277.90601
  0
VERTEX
  5
680
  8
Layer_2
  10
100.96729
  20
277.66895
  0
VERTEX
  5
681
  8
Layer_2
  10
98.697021
  20
277.66895
  0
SEQEND
  0
POLYLINE
  5
683
  8
Layer_2
  62
1
  66
1
  10
0
  20
0
  30
0
  0
VERTEX
  5
683
  8
Layer_2
  10
150.49219
  20
277.66895
  0
VERTEX
  5
684
  8
Layer_2
  10
150.54614
  20
277.92188
  42
-0.36049548
  0
VERTEX
  5
685
  8
Layer_2
  10
151.71265
  20
278.77832
  42
-0.38712875
  0
VERTEX
  5
686
  8
Layer_2
  10
152.74438
  20
277.90601
  0
VERTEX
  5
687
  8
Layer_2
  10
152.76245
  20
277.66895
  0
VERTEX
  5
688
  8
Layer_2
  10
150.49219
  20
277.66895
  0
SEQEND
  0
POLYLINE
  5
68a
  8
Layer_2
  62
1
  66
1
  10
0
  20
0
  30
0
  0
VERTEX
  5
68a
  8
Layer_2
  10
64.726563
  20
277.66895
  42
-0.23840589
  0
VERTEX
  5
68b
  8
Layer_2
  10
65.29248
  20
278.61743
  42
-0.26792231
  0
VERTEX
  5
68c
  8
Layer_2
  10
66.549805
  20
278.60645
  42
-0.25371368
  0
VERTEX
  5
68d
  8
Layer_2
  10
66.996826
  20
277.66895
  0
VERTEX
  5
68e
  8
Layer_2
  10
64.726563
  20
277.66895
  0
SEQEND
  0
POLYLINE
  5
690
  8
Layer_2
  62
1
  66
1
  10
0
  20
0
  30
0
  0
VERTEX
  5
690
  8
Layer_2
  10
126.37964
  20
277.66895
  0
VERTEX
  5
691
  8
Layer_2
  10
126.43384
  20
277.92188
  42
-0.36062635
  0
VERTEX
  5
692
  8
Layer_2
  10
127.6001
  20
278.77832
  42
-0.38712788
  0
VERTEX
  5
693
  8
Layer_2
  10
128.63184
  20
277.90601
  0
VERTEX
  5
694
  8
Layer_2
  10
128.65015
  20
277.66895
  0
VERTEX
  5
695
  8
Layer_2
  10
126.37964
  20
277.66895
  0
SEQEND
  0
POLYLINE
  5
697
  8
Layer_2
  62
1
  66
1
  10
0
  20
0
  30
0
  0
VERTEX
  5
697
  8
Layer_2
  10
144.24731
  20
275.63379
  0
VERTEX
  5
698
  8
Layer_2
  10
144.01709
  20
275.7063
  42
-0.23421961
  0
VERTEX
  5
699
  8
Layer_2
  10
143.43726
  20
276.47583
  42
-0.1577561
  0
VERTEX
  5
69a
  8
Layer_2
  10
143.53418
  20
278.04858
  42
-0.31173713
  0
VERTEX
  5
69b
  8
Layer_2
  10
144.51099
  20
278.67041
  42
-0.31096206
  0
VERTEX
  5
69c
  8
Layer_2
  10
145.49365
  20
278.04858
  42
-0.19064544
  0
VERTEX
  5
69d
  8
Layer_2
  10
145.49365
  20
276.22998
  42
-0.31087877
  0
VERTEX
  5
69e
  8
Layer_2
  10
144.51099
  20
275.60938
  0
VERTEX
  5
69f
  8
Layer_2
  10
144.24731
  20
275.63379
  0
SEQEND
  0
POLYLINE
  5
6a1
  8
Layer_2
  62
1
  66
1
  10
0
  20
0
  30
0
  0
VERTEX
  5
6a1
  8
Layer_2
  10
137.20215
  20
275.37134
  0
VERTEX
  5
6a2
  8
Layer_2
  10
137.03687
  20
275.40649
  42
-0.19748074
  0
VERTEX
  5
6a3
  8
Layer_2
  10
136.62985
  20
275.72482
  42
-0.19752538
  0
VERTEX
  5
6a4
  8
Layer_2
  10
136.56567
  20
276.23755
  42
-0.3040888
  0
VERTEX
  5
6a5
  8
Layer_2
  10
137.16772
  20
276.75391
  42
-0.054935727
  0
VERTEX
  5
6a6
  8
Layer_2
  10
137.64697
  20
276.80005
  0
VERTEX
  5
6a7
  8
Layer_2
  10
138.5564
  20
276.80005
  42
-0.15863948
  0
VERTEX
  5
6a8
  8
Layer_2
  10
138.36646
  20
275.90161
  42
-0.30464373
  0
VERTEX
  5
6a9
  8
Layer_2
  10
137.20215
  20
275.37134
  0
SEQEND
  0
POLYLINE
  5
6ab
  8
Layer_2
  62
1
  70
1
  66
1
  10
0
  20
0
  30
0
  0
VERTEX
  5
6ab
  8
Layer_2
  10
17.681885
  20
275.37134
  42
-0.35509229
  0
VERTEX
  5
6ac
  8
Layer_2
  10
17.033543
  20
275.94327
  42
-0.35507802
  0
VERTEX
  5
6ad
  8
Layer_2
  10
17.45874
  20
276.69604
  42
-0.090452585
  0
VERTEX
  5
6ae
  8
Layer_2
  10
18.126709
  20
276.80005
  0
VERTEX
  5
6af
  8
Layer_2
  10
19.035889
  20
276.80005
  42
-0.15885383
  0
VERTEX
  5
6b0
  8
Layer_2
  10
18.846191
  20
275.90161
  42
-0.30464751
  0
SEQEND
  0
POLYLINE
  5
6b2
  8
Layer_2
  62
1
  66
1
  10
0
  20
0
  30
0
  0
VERTEX
  5
6b2
  8
Layer_2
  10
163
  20
268.18115
  0
VERTEX
  5
6b3
  8
Layer_2
  10
1
  20
268.18115
  0
VERTEX
  5
6b4
  8
Layer_2
  10
1
  20
288.27551
  0
VERTEX
  5
6b5
  8
Layer_2
  10
163
  20
288.27551
  0
VERTEX
  5
6b6
  8
Layer_2
  10
163
  20
268.18115
  0
SEQEND
  0
POLYLINE
  5
6b8
  8
Layer_2
  62
1
  66
1
  10
0
  20
0
  30
0
  0
VERTEX
  5
6b8
  8
Layer_2
  10
296
  20
105
  0
VERTEX
  5
6b9
  8
Layer_2
  10
199.63776
  20
105
  0
VERTEX
  5
6ba
  8
Layer_2
  10
199.63776
  20
124
  0
VERTEX
  5
6bb
  8
Layer_2
  10
296
  20
124
  0
VERTEX
  5
6bc
  8
Layer_2
  10
296
  20
105
  0
SEQEND
  0
POLYLINE
  5
6be
  8
Layer_1
  62
5
  66
1
  10
0
  20
0
  30
0
  0
VERTEX
  5
6be
  8
Layer_1
  10
40.462639
  20
146.07138
  42
0.25514626
  0
VERTEX
  5
6bf
  8
Layer_1
  10
41.193108
  20
146.54526
  0
VERTEX
  5
6c0
  8
Layer_1
  10
41.193108
  20
146.1351
  0
VERTEX
  5
6c1
  8
Layer_1
  10
41.642326
  20
146.1351
  0
VERTEX
  5
6c2
  8
Layer_1
  10
41.642326
  20
149.93417
  0
VERTEX
  5
6c3
  8
Layer_1
  10
41.193108
  20
149.93417
  0
VERTEX
  5
6c4
  8
Layer_1
  10
41.193108
  20
148.45444
  0
VERTEX
  5
6c5
  8
Layer_1
  10
41.117668
  20
148.56845
  42
0.29869372
  0
VERTEX
  5
6c6
  8
Layer_1
  10
40.080559
  20
148.91025
  42
0.27011878
  0
VERTEX
  5
6c7
  8
Layer_1
  10
39.27636
  20
148.08212
  42
0.17958971
  0
VERTEX
  5
6c8
  8
Layer_1
  10
39.373772
  20
146.67294
  42
0.33400075
  0
VERTEX
  5
6c9
  8
Layer_1
  10
40.462639
  20
146.07138
  0
SEQEND
  0
POLYLINE
  5
6cb
  8
Layer_1
  62
5
  66
1
  10
0
  20
0
  30
0
  0
VERTEX
  5
6cb
  8
Layer_1
  10
30.803215
  20
147.87558
  0
VERTEX
  5
6cc
  8
Layer_1
  10
32.248528
  20
147.87558
  0
VERTEX
  5
6cd
  8
Layer_1
  10
32.248528
  20
148.29037
  0
VERTEX
  5
6ce
  8
Layer_1
  10
30.803215
  20
148.29037
  0
VERTEX
  5
6cf
  8
Layer_1
  10
30.803215
  20
149.36459
  0
VERTEX
  5
6d0
  8
Layer_1
  10
32.404778
  20
149.36459
  0
VERTEX
  5
6d1
  8
Layer_1
  10
32.404778
  20
149.78036
  0
VERTEX
  5
6d2
  8
Layer_1
  10
30.310295
  20
149.78036
  0
VERTEX
  5
6d3
  8
Layer_1
  10
30.310295
  20
146.1351
  0
VERTEX
  5
6d4
  8
Layer_1
  10
30.803215
  20
146.1351
  0
VERTEX
  5
6d5
  8
Layer_1
  10
30.803215
  20
147.87558
  0
SEQEND
  0
POLYLINE
  5
6d7
  8
Layer_1
  62
5
  66
1
  10
0
  20
0
  30
0
  0
VERTEX
  5
6d7
  8
Layer_1
  10
34.503166
  20
146.08774
  42
0.23273825
  0
VERTEX
  5
6d8
  8
Layer_1
  10
35.293205
  20
146.65561
  42
0.22605546
  0
VERTEX
  5
6d9
  8
Layer_1
  10
35.293205
  20
148.34531
  42
0.28624969
  0
VERTEX
  5
6da
  8
Layer_1
  10
34.226067
  20
148.93491
  42
0.35175093
  0
VERTEX
  5
6db
  8
Layer_1
  10
33.05468
  20
148.10019
  42
0.18868358
  0
VERTEX
  5
6dc
  8
Layer_1
  10
33.158684
  20
146.65561
  42
0.28766052
  0
VERTEX
  5
6dd
  8
Layer_1
  10
34.226067
  20
146.06381
  0
VERTEX
  5
6de
  8
Layer_1
  10
34.503166
  20
146.08774
  0
SEQEND
  0
POLYLINE
  5
6e0
  8
Layer_1
  62
5
  66
1
  10
0
  20
0
  30
0
  0
VERTEX
  5
6e0
  8
Layer_1
  10
36.65966
  20
147.68027
  0
VERTEX
  5
6e1
  8
Layer_1
  10
36.6726
  20
147.87021
  42
-0.40466791
  0
VERTEX
  5
6e2
  8
Layer_1
  10
37.44384
  20
148.54428
  42
-0.38296235
  0
VERTEX
  5
6e3
  8
Layer_1
  10
38.011467
  20
148.1102
  42
-0.064329299
  0
VERTEX
  5
6e4
  8
Layer_1
  10
38.049309
  20
147.77084
  0
VERTEX
  5
6e5
  8
Layer_1
  10
38.049309
  20
146.1351
  0
VERTEX
  5
6e6
  8
Layer_1
  10
38.498528
  20
146.1351
  0
VERTEX
  5
6e7
  8
Layer_1
  10
38.498528
  20
147.78574
  42
0.17437588
  0
VERTEX
  5
6e8
  8
Layer_1
  10
38.256828
  20
148.64365
  42
0.36538305
  0
VERTEX
  5
6e9
  8
Layer_1
  10
36.934074
  20
148.74448
  42
0.08598845
  0
VERTEX
  5
6ea
  8
Layer_1
  10
36.65966
  20
148.44443
  0
VERTEX
  5
6eb
  8
Layer_1
  10
36.65966
  20
148.86948
  0
VERTEX
  5
6ec
  8
Layer_1
  10
36.208
  20
148.86948
  0
VERTEX
  5
6ed
  8
Layer_1
  10
36.208
  20
146.1351
  0
VERTEX
  5
6ee
  8
Layer_1
  10
36.65966
  20
146.1351
  0
VERTEX
  5
6ef
  8
Layer_1
  10
36.65966
  20
147.68027
  0
SEQEND
  0
POLYLINE
  5
6f1
  8
Layer_1
  62
5
  66
1
  10
0
  20
0
  30
0
  0
VERTEX
  5
6f1
  8
Layer_1
  10
40.258049
  20
146.4581
  0
VERTEX
  5
6f2
  8
Layer_1
  10
40.108635
  20
146.51108
  42
-0.24773275
  0
VERTEX
  5
6f3
  8
Layer_1
  10
39.675529
  20
147.26547
  42
-0.18455467
  0
VERTEX
  5
6f4
  8
Layer_1
  10
39.866692
  20
148.27719
  42
-0.3665174
  0
VERTEX
  5
6f5
  8
Layer_1
  10
40.74511
  20
148.48862
  42
-0.24787788
  0
VERTEX
  5
6f6
  8
Layer_1
  10
41.180412
  20
147.73422
  42
-0.1851505
  0
VERTEX
  5
6f7
  8
Layer_1
  10
40.988029
  20
146.7225
  42
-0.30605059
  0
VERTEX
  5
6f8
  8
Layer_1
  10
40.258049
  20
146.4581
  0
SEQEND
  0
POLYLINE
  5
6fa
  8
Layer_1
  62
5
  70
1
  66
1
  10
0
  20
0
  30
0
  0
VERTEX
  5
6fa
  8
Layer_1
  10
34.053947
  20
146.46274
  42
-0.28384146
  0
VERTEX
  5
6fb
  8
Layer_1
  10
33.497063
  20
147.06137
  42
-0.20818013
  0
VERTEX
  5
6fc
  8
Layer_1
  10
33.654778
  20
148.27255
  42
-0.36061727
  0
VERTEX
  5
6fd
  8
Layer_1
  10
34.547844
  20
148.48349
  42
-0.24694064
  0
VERTEX
  5
6fe
  8
Layer_1
  10
34.991692
  20
147.73032
  42
-0.18925182
  0
VERTEX
  5
6ff
  8
Layer_1
  10
34.795158
  20
146.72836
  42
-0.30310264
  0
SEQEND
  0
POLYLINE
  5
701
  8
Layer_0
  62
0
  66
1
  10
0
  20
0
  30
0
  0
VERTEX
  5
701
  8
Layer_0
  10
59.096001
  20
138.448
  0
VERTEX
  5
702
  8
Layer_0
  10
67
  20
138.448
  0
VERTEX
  5
703
  8
Layer_0
  10
67
  20
146.15199
  0
VERTEX
  5
704
  8
Layer_0
  10
63
  20
146.15199
  0
VERTEX
  5
705
  8
Layer_0
  10
63
  20
152.752
  0
VERTEX
  5
706
  8
Layer_0
  10
67
  20
152.752
  0
VERTEX
  5
707
  8
Layer_0
  10
67
  20
160.448
  0
VERTEX
  5
708
  8
Layer_0
  10
5
  20
160.448
  0
VERTEX
  5
709
  8
Layer_0
  10
5
  20
152.752
  0
VERTEX
  5
70a
  8
Layer_0
  10
9
  20
152.752
  0
VERTEX
  5
70b
  8
Layer_0
  10
9
  20
146.15199
  0
VERTEX
  5
70c
  8
Layer_0
  10
5
  20
146.15199
  0
VERTEX
  5
70d
  8
Layer_0
  10
5
  20
138.448
  0
VERTEX
  5
70e
  8
Layer_0
  10
12.816
  20
138.448
  0
VERTEX
  5
70f
  8
Layer_0
  10
12.816
  20
138.472
  0
VERTEX
  5
710
  8
Layer_0
  10
14.104
  20
138.472
  0
VERTEX
  5
711
  8
Layer_0
  10
14.104
  20
135.552
  0
VERTEX
  5
712
  8
Layer_0
  10
59.096001
  20
135.552
  0
VERTEX
  5
713
  8
Layer_0
  10
59.096001
  20
138.448
  0
SEQEND
  0
CIRCLE
  5
715
  8
Layer_0
  62
0
  10
14
  20
155.472
  30
0
  40
2
  0
CIRCLE
  5
715
  8
Layer_0
  62
0
  10
59
  20
155.472
  30
0
  40
2
  0
CIRCLE
  5
715
  8
Layer_0
  62
0
  10
29
  20
155.472
  30
0
  40
2
  0
CIRCLE
  5
715
  8
Layer_0
  62
0
  10
44
  20
155.472
  30
0
  40
2
  0
POLYLINE
  5
715
  8
Layer_0
  62
0
  66
1
  10
0
  20
0
  30
0
  0
VERTEX
  5
715
  8
Layer_0
  10
80
  20
5
  0
VERTEX
  5
716
  8
Layer_0
  10
75
  20
5
  0
VERTEX
  5
717
  8
Layer_0
  10
75
  20
230
  0
VERTEX
  5
718
  8
Layer_0
  10
80
  20
230
  0
VERTEX
  5
719
  8
Layer_0
  10
80
  20
5
  0
SEQEND
  0
POLYLINE
  5
71b
  8
Layer_0
  62
0
  66
1
  10
0
  20
0
  30
0
  0
VERTEX
  5
71b
  8
Layer_0
  10
86
  20
5
  0
VERTEX
  5
71c
  8
Layer_0
  10
81
  20
5
  0
VERTEX
  5
71d
  8
Layer_0
  10
81
  20
230
  0
VERTEX
  5
71e
  8
Layer_0
  10
86
  20
230
  0
VERTEX
  5
71f
  8
Layer_0
  10
86
  20
5
  0
SEQEND
  0
POLYLINE
  5
721
  8
Layer_0
  62
0
  66
1
  10
0
  20
0
  30
0
  0
VERTEX
  5
721
  8
Layer_0
  10
92
  20
5
  0
VERTEX
  5
722
  8
Layer_0
  10
87
  20
5
  0
VERTEX
  5
723
  8
Layer_0
  10
87
  20
230
  0
VERTEX
  5
724
  8
Layer_0
  10
92
  20
230
  0
VERTEX
  5
725
  8
Layer_0
  10
92
  20
5
  0
SEQEND
  0
POLYLINE
  5
727
  8
Layer_1
  62
5
  66
1
  10
0
  20
0
  30
0
  0
VERTEX
  5
727
  8
Layer_1
  10
134.69678
  20
10.528755
  42
0.2927731
  0
VERTEX
  5
728
  8
Layer_1
  10
135.62549
  20
11.275581
  42
0.18304278
  0
VERTEX
  5
729
  8
Layer_1
  10
135.55981
  20
13.69062
  42
0.38728294
  0
VERTEX
  5
72a
  8
Layer_1
  10
134.12939
  20
14.235054
  42
0.24164045
  0
VERTEX
  5
72b
  8
Layer_1
  10
133.41455
  20
13.393501
  42
0.16799732
  0
VERTEX
  5
72c
  8
Layer_1
  10
133.53589
  20
11.13398
  42
0.32980284
  0
VERTEX
  5
72d
  8
Layer_1
  10
134.69678
  20
10.528755
  0
SEQEND
  0
POLYLINE
  5
72f
  8
Layer_1
  62
5
  66
1
  10
0
  20
0
  30
0
  0
VERTEX
  5
72f
  8
Layer_1
  10
131.43799
  20
10.541695
  42
0.21344028
  0
VERTEX
  5
730
  8
Layer_1
  10
132.31641
  20
11.026802
  42
0.28210053
  0
VERTEX
  5
731
  8
Layer_1
  10
132.32202
  20
12.485298
  42
0.21311377
  0
VERTEX
  5
732
  8
Layer_1
  10
131.48853
  20
12.980904
  42
0.1268224
  0
VERTEX
  5
733
  8
Layer_1
  10
130.76929
  20
12.929146
  0
VERTEX
  5
734
  8
Layer_1
  10
130.76929
  20
13.821968
  0
VERTEX
  5
735
  8
Layer_1
  10
132.25366
  20
13.821968
  0
VERTEX
  5
736
  8
Layer_1
  10
132.25366
  20
14.23774
  0
VERTEX
  5
737
  8
Layer_1
  10
130.31763
  20
14.23774
  0
VERTEX
  5
738
  8
Layer_1
  10
130.31763
  20
12.406441
  0
VERTEX
  5
739
  8
Layer_1
  10
130.521
  20
12.487007
  42
-0.20211382
  0
VERTEX
  5
73a
  8
Layer_1
  10
131.64868
  20
12.461861
  42
-0.36814402
  0
VERTEX
  5
73b
  8
Layer_1
  10
131.96777
  20
11.420601
  42
-0.31606086
  0
VERTEX
  5
73c
  8
Layer_1
  10
131.11377
  20
10.936958
  42
-0.12818148
  0
VERTEX
  5
73d
  8
Layer_1
  10
130.16382
  20
11.173531
  0
VERTEX
  5
73e
  8
Layer_1
  10
130.16382
  20
10.677437
  42
0.10874847
  0
VERTEX
  5
73f
  8
Layer_1
  10
131.43799
  20
10.541695
  0
SEQEND
  0
POLYLINE
  5
741
  8
Layer_1
  62
5
  70
1
  66
1
  10
0
  20
0
  30
0
  0
VERTEX
  5
741
  8
Layer_1
  10
134.36938
  20
10.935249
  42
-0.15251133
  0
VERTEX
  5
742
  8
Layer_1
  10
134.08301
  20
11.122749
  42
-0.15216894
  0
VERTEX
  5
743
  8
Layer_1
  10
133.79614
  20
12.060005
  42
-0.084475005
  0
VERTEX
  5
744
  8
Layer_1
  10
133.89185
  20
13.327095
  42
-0.18398462
  0
VERTEX
  5
745
  8
Layer_1
  10
134.21436
  20
13.819038
  42
-0.37197773
  0
VERTEX
  5
746
  8
Layer_1
  10
135.01538
  20
13.702095
  42
-0.1526174
  0
VERTEX
  5
747
  8
Layer_1
  10
135.30249
  20
12.763618
  42
-0.084632377
  0
VERTEX
  5
748
  8
Layer_1
  10
135.20679
  20
11.497749
  42
-0.18376953
  0
VERTEX
  5
749
  8
Layer_1
  10
134.88379
  20
11.005562
  42
-0.20594539
  0
SEQEND
  0
POLYLINE
  5
74b
  8
Layer_1
  62
5
  66
1
  10
0
  20
0
  30
0
  0
VERTEX
  5
74b
  8
Layer_1
  10
132.32593
  20
82.039101
  42
0.39475347
  0
VERTEX
  5
74c
  8
Layer_1
  10
133.34595
  20
83.229774
  42
0.1677398
  0
VERTEX
  5
74d
  8
Layer_1
  10
132.6709
  20
85.389442
  42
0.38722372
  0
VERTEX
  5
74e
  8
Layer_1
  10
131.14941
  20
85.564003
  42
0.06872226
  0
VERTEX
  5
74f
  8
Layer_1
  10
131.02441
  20
85.461952
  0
VERTEX
  5
750
  8
Layer_1
  10
129.06396
  20
85.961464
  0
VERTEX
  5
751
  8
Layer_1
  10
128.96143
  20
85.558632
  0
VERTEX
  5
752
  8
Layer_1
  10
130.65796
  20
85.126503
  0
VERTEX
  5
753
  8
Layer_1
  10
128.65405
  20
82.304237
  0
VERTEX
  5
754
  8
Layer_1
  10
129.15308
  20
82.17704
  0
VERTEX
  5
755
  8
Layer_1
  10
130.66748
  20
84.311562
  0
VERTEX
  5
756
  8
Layer_1
  10
130.67334
  20
84.21122
  42
0.12525417
  0
VERTEX
  5
757
  8
Layer_1
  10
131.24146
  20
82.533485
  42
0.2954609
  0
VERTEX
  5
758
  8
Layer_1
  10
132.32593
  20
82.039101
  0
SEQEND
  0
POLYLINE
  5
75a
  8
Layer_1
  62
5
  70
1
  66
1
  10
0
  20
0
  30
0
  0
VERTEX
  5
75a
  8
Layer_1
  10
132.0293
  20
82.455605
  42
-0.16787693
  0
VERTEX
  5
75b
  8
Layer_1
  10
131.59497
  20
82.852821
  42
-0.1205698
  0
VERTEX
  5
75c
  8
Layer_1
  10
131.14331
  20
84.625526
  42
-0.18334613
  0
VERTEX
  5
75d
  8
Layer_1
  10
131.33496
  20
85.181923
  42
-0.37195527
  0
VERTEX
  5
75e
  8
Layer_1
  10
132.13989
  20
85.266151
  42
-0.15299244
  0
VERTEX
  5
75f
  8
Layer_1
  10
132.65015
  20
84.427773
  42
-0.085049664
  0
VERTEX
  5
760
  8
Layer_1
  10
132.86963
  20
83.177528
  42
-0.18372031
  0
VERTEX
  5
761
  8
Layer_1
  10
132.67749
  20
82.620644
  42
-0.28193807
  0
SEQEND
  0
POLYLINE
  5
763
  8
Layer_1
  62
5
  66
1
  10
0
  20
0
  30
0
  0
VERTEX
  5
763
  8
Layer_1
  10
136.21629
  20
152.11398
  42
0.29276599
  0
VERTEX
  5
764
  8
Layer_1
  10
137.145
  20
152.86081
  42
0.183032
  0
VERTEX
  5
765
  8
Layer_1
  10
137.07933
  20
155.27585
  42
0.3872665
  0
VERTEX
  5
766
  8
Layer_1
  10
135.64842
  20
155.82028
  42
0.24179251
  0
VERTEX
  5
767
  8
Layer_1
  10
134.93382
  20
154.97873
  42
0.16777726
  0
VERTEX
  5
768
  8
Layer_1
  10
135.05516
  20
152.71921
  42
0.33002251
  0
VERTEX
  5
769
  8
Layer_1
  10
136.21629
  20
152.11398
  0
SEQEND
  0
POLYLINE
  5
76b
  8
Layer_1
  62
5
  66
1
  10
0
  20
0
  30
0
  0
VERTEX
  5
76b
  8
Layer_1
  10
130.83714
  20
152.5925
  0
VERTEX
  5
76c
  8
Layer_1
  10
130.03099
  20
152.5925
  0
VERTEX
  5
76d
  8
Layer_1
  10
130.03099
  20
155.82297
  0
VERTEX
  5
76e
  8
Layer_1
  10
129.53783
  20
155.82297
  0
VERTEX
  5
76f
  8
Layer_1
  10
128.66673
  20
155.64719
  0
VERTEX
  5
770
  8
Layer_1
  10
128.66673
  20
155.19797
  0
VERTEX
  5
771
  8
Layer_1
  10
129.54271
  20
155.37375
  0
VERTEX
  5
772
  8
Layer_1
  10
129.54271
  20
152.5925
  0
VERTEX
  5
773
  8
Layer_1
  10
128.73705
  20
152.5925
  0
VERTEX
  5
774
  8
Layer_1
  10
128.73705
  20
152.1777
  0
VERTEX
  5
775
  8
Layer_1
  10
130.83714
  20
152.1777
  0
VERTEX
  5
776
  8
Layer_1
  10
130.83714
  20
152.5925
  0
SEQEND
  0
POLYLINE
  5
778
  8
Layer_1
  62
5
  66
1
  10
0
  20
0
  30
0
  0
VERTEX
  5
778
  8
Layer_1
  10
133.67772
  20
153.03708
  0
VERTEX
  5
779
  8
Layer_1
  10
134.19798
  20
153.03708
  0
VERTEX
  5
77a
  8
Layer_1
  10
134.19798
  20
153.44724
  0
VERTEX
  5
77b
  8
Layer_1
  10
133.67772
  20
153.44724
  0
VERTEX
  5
77c
  8
Layer_1
  10
133.67772
  20
155.82297
  0
VERTEX
  5
77d
  8
Layer_1
  10
133.05833
  20
155.82297
  0
VERTEX
  5
77e
  8
Layer_1
  10
131.54173
  20
153.51266
  0
VERTEX
  5
77f
  8
Layer_1
  10
131.54173
  20
153.03708
  0
VERTEX
  5
780
  8
Layer_1
  10
133.18724
  20
153.03708
  0
VERTEX
  5
781
  8
Layer_1
  10
133.18724
  20
152.1777
  0
VERTEX
  5
782
  8
Layer_1
  10
133.67772
  20
152.1777
  0
VERTEX
  5
783
  8
Layer_1
  10
133.67772
  20
153.03708
  0
SEQEND
  0
POLYLINE
  5
785
  8
Layer_1
  62
5
  66
1
  10
0
  20
0
  30
0
  0
VERTEX
  5
785
  8
Layer_1
  10
135.8889
  20
152.52048
  0
VERTEX
  5
786
  8
Layer_1
  10
135.73387
  20
152.59079
  42
-0.16821302
  0
VERTEX
  5
787
  8
Layer_1
  10
135.41112
  20
153.08298
  42
-0.12027236
  0
VERTEX
  5
788
  8
Layer_1
  10
135.41112
  20
154.91232
  42
-0.18381019
  0
VERTEX
  5
789
  8
Layer_1
  10
135.73387
  20
155.40427
  42
-0.37202486
  0
VERTEX
  5
78a
  8
Layer_1
  10
136.53441
  20
155.28732
  42
-0.15273571
  0
VERTEX
  5
78b
  8
Layer_1
  10
136.82201
  20
154.34885
  42
-0.084859178
  0
VERTEX
  5
78c
  8
Layer_1
  10
136.72606
  20
153.08298
  42
-0.18403353
  0
VERTEX
  5
78d
  8
Layer_1
  10
136.40257
  20
152.59079
  42
-0.20624072
  0
VERTEX
  5
78e
  8
Layer_1
  10
135.8889
  20
152.52048
  0
SEQEND
  0
POLYLINE
  5
790
  8
Layer_1
  62
5
  70
1
  66
1
  10
0
  20
0
  30
0
  0
VERTEX
  5
790
  8
Layer_1
  10
131.94188
  20
153.44724
  0
VERTEX
  5
791
  8
Layer_1
  10
133.18724
  20
155.39328
  0
VERTEX
  5
792
  8
Layer_1
  10
133.18724
  20
153.44724
  0
SEQEND
  0
POLYLINE
  5
794
  8
Layer_1
  62
5
  66
1
  10
0
  20
0
  30
0
  0
VERTEX
  5
794
  8
Layer_1
  10
131.88899
  20
233.59251
  0
VERTEX
  5
795
  8
Layer_1
  10
130.16805
  20
233.59251
  0
VERTEX
  5
796
  8
Layer_1
  10
131.09114
  20
234.53856
  42
0.079558949
  0
VERTEX
  5
797
  8
Layer_1
  10
131.73494
  20
235.31737
  42
0.35589002
  0
VERTEX
  5
798
  8
Layer_1
  10
131.53279
  20
236.60545
  42
0.20120307
  0
VERTEX
  5
799
  8
Layer_1
  10
130.40388
  20
236.87328
  42
0.060133833
  0
VERTEX
  5
79a
  8
Layer_1
  10
129.5992
  20
236.6472
  0
VERTEX
  5
79b
  8
Layer_1
  10
129.5992
  20
236.14867
  0
VERTEX
  5
79c
  8
Layer_1
  10
129.88338
  20
236.29198
  42
-0.14114832
  0
VERTEX
  5
79d
  8
Layer_1
  10
130.795
  20
236.46214
  42
-0.38982534
  0
VERTEX
  5
79e
  8
Layer_1
  10
131.37434
  20
235.81664
  42
-0.16454193
  0
VERTEX
  5
79f
  8
Layer_1
  10
131.05867
  20
235.13182
  42
-0.018985526
  0
VERTEX
  5
7a0
  8
Layer_1
  10
129.57503
  20
233.59251
  0
VERTEX
  5
7a1
  8
Layer_1
  10
129.57503
  20
233.17772
  0
VERTEX
  5
7a2
  8
Layer_1
  10
131.88899
  20
233.17772
  0
VERTEX
  5
7a3
  8
Layer_1
  10
131.88899
  20
233.59251
  0
SEQEND
  0
POLYLINE
  5
7a5
  8
Layer_1
  62
5
  66
1
  10
0
  20
0
  30
0
  0
VERTEX
  5
7a5
  8
Layer_1
  10
135.06966
  20
233.59251
  0
VERTEX
  5
7a6
  8
Layer_1
  10
133.34846
  20
233.59251
  0
VERTEX
  5
7a7
  8
Layer_1
  10
134.27156
  20
234.53856
  42
0.07970306
  0
VERTEX
  5
7a8
  8
Layer_1
  10
134.91536
  20
235.31737
  42
0.35599189
  0
VERTEX
  5
7a9
  8
Layer_1
  10
134.71321
  20
236.60545
  42
0.20120334
  0
VERTEX
  5
7aa
  8
Layer_1
  10
133.5843
  20
236.87328
  42
0.060133725
  0
VERTEX
  5
7ab
  8
Layer_1
  10
132.77962
  20
236.6472
  0
VERTEX
  5
7ac
  8
Layer_1
  10
132.77962
  20
236.14867
  0
VERTEX
  5
7ad
  8
Layer_1
  10
133.0638
  20
236.29198
  42
-0.14114829
  0
VERTEX
  5
7ae
  8
Layer_1
  10
133.97542
  20
236.46214
  42
-0.38991356
  0
VERTEX
  5
7af
  8
Layer_1
  10
134.55476
  20
235.81664
  42
-0.16460738
  0
VERTEX
  5
7b0
  8
Layer_1
  10
134.23909
  20
235.13182
  42
-0.018985273
  0
VERTEX
  5
7b1
  8
Layer_1
  10
132.75545
  20
233.59251
  0
VERTEX
  5
7b2
  8
Layer_1
  10
132.75545
  20
233.17772
  0
VERTEX
  5
7b3
  8
Layer_1
  10
135.06966
  20
233.17772
  0
VERTEX
  5
7b4
  8
Layer_1
  10
135.06966
  20
233.59251
  0
SEQEND
  0
POLYLINE
  5
7b6
  8
Layer_1
  62
5
  66
1
  10
0
  20
0
  30
0
  0
VERTEX
  5
7b6
  8
Layer_1
  10
137.30745
  20
233.114
  42
0.29290369
  0
VERTEX
  5
7b7
  8
Layer_1
  10
138.23689
  20
233.86082
  42
0.18287387
  0
VERTEX
  5
7b8
  8
Layer_1
  10
138.17122
  20
236.27586
  42
0.3870556
  0
VERTEX
  5
7b9
  8
Layer_1
  10
136.73982
  20
236.8203
  42
0.24182893
  0
VERTEX
  5
7ba
  8
Layer_1
  10
136.02571
  20
235.97874
  42
0.16770573
  0
VERTEX
  5
7bb
  8
Layer_1
  10
136.1468
  20
233.71922
  42
0.32996582
  0
VERTEX
  5
7bc
  8
Layer_1
  10
137.30745
  20
233.114
  0
SEQEND
  0
POLYLINE
  5
7be
  8
Layer_1
  62
5
  70
1
  66
1
  10
0
  20
0
  30
0
  0
VERTEX
  5
7be
  8
Layer_1
  10
136.9803
  20
233.52049
  0
VERTEX
  5
7bf
  8
Layer_1
  10
136.82527
  20
233.59081
  42
-0.16809614
  0
VERTEX
  5
7c0
  8
Layer_1
  10
136.50252
  20
234.08299
  42
-0.12057583
  0
VERTEX
  5
7c1
  8
Layer_1
  10
136.50252
  20
235.91234
  42
-0.18319724
  0
VERTEX
  5
7c2
  8
Layer_1
  10
136.82527
  20
236.40428
  42
-0.37184676
  0
VERTEX
  5
7c3
  8
Layer_1
  10
137.62605
  20
236.28734
  42
-0.15287506
  0
VERTEX
  5
7c4
  8
Layer_1
  10
137.91389
  20
235.34886
  42
-0.084802974
  0
VERTEX
  5
7c5
  8
Layer_1
  10
137.81795
  20
234.08299
  42
-0.18372279
  0
VERTEX
  5
7c6
  8
Layer_1
  10
137.49422
  20
233.59081
  42
-0.20610149
  0
SEQEND
  0
POLYLINE
  5
7c8
  8
Layer_1
  62
5
  66
1
  10
0
  20
0
  30
0
  0
VERTEX
  5
7c8
  8
Layer_1
  10
138.48633
  20
218.07353
  42
0.25514626
  0
VERTEX
  5
7c9
  8
Layer_1
  10
139.2168
  20
218.54741
  0
VERTEX
  5
7ca
  8
Layer_1
  10
139.2168
  20
218.13725
  0
VERTEX
  5
7cb
  8
Layer_1
  10
139.66602
  20
218.13725
  0
VERTEX
  5
7cc
  8
Layer_1
  10
139.66602
  20
221.93633
  0
VERTEX
  5
7cd
  8
Layer_1
  10
139.2168
  20
221.93633
  0
VERTEX
  5
7ce
  8
Layer_1
  10
139.2168
  20
220.45659
  0
VERTEX
  5
7cf
  8
Layer_1
  10
139.14136
  20
220.5706
  42
0.29869372
  0
VERTEX
  5
7d0
  8
Layer_1
  10
138.10425
  20
220.9124
  42
0.27011878
  0
VERTEX
  5
7d1
  8
Layer_1
  10
137.30005
  20
220.08427
  42
0.17958971
  0
VERTEX
  5
7d2
  8
Layer_1
  10
137.39746
  20
218.67509
  42
0.33400075
  0
VERTEX
  5
7d3
  8
Layer_1
  10
138.48633
  20
218.07353
  0
SEQEND
  0
POLYLINE
  5
7d5
  8
Layer_1
  62
5
  66
1
  10
0
  20
0
  30
0
  0
VERTEX
  5
7d5
  8
Layer_1
  10
128.8269
  20
219.87773
  0
VERTEX
  5
7d6
  8
Layer_1
  10
130.27222
  20
219.87773
  0
VERTEX
  5
7d7
  8
Layer_1
  10
130.27222
  20
220.29253
  0
VERTEX
  5
7d8
  8
Layer_1
  10
128.8269
  20
220.29253
  0
VERTEX
  5
7d9
  8
Layer_1
  10
128.8269
  20
221.36674
  0
VERTEX
  5
7da
  8
Layer_1
  10
130.42847
  20
221.36674
  0
VERTEX
  5
7db
  8
Layer_1
  10
130.42847
  20
221.78252
  0
VERTEX
  5
7dc
  8
Layer_1
  10
128.33398
  20
221.78252
  0
VERTEX
  5
7dd
  8
Layer_1
  10
128.33398
  20
218.13725
  0
VERTEX
  5
7de
  8
Layer_1
  10
128.8269
  20
218.13725
  0
VERTEX
  5
7df
  8
Layer_1
  10
128.8269
  20
219.87773
  0
SEQEND
  0
POLYLINE
  5
7e1
  8
Layer_1
  62
5
  66
1
  10
0
  20
0
  30
0
  0
VERTEX
  5
7e1
  8
Layer_1
  10
132.52686
  20
218.08989
  42
0.23273825
  0
VERTEX
  5
7e2
  8
Layer_1
  10
133.31689
  20
218.65776
  42
0.22605546
  0
VERTEX
  5
7e3
  8
Layer_1
  10
133.31689
  20
220.34746
  42
0.28624969
  0
VERTEX
  5
7e4
  8
Layer_1
  10
132.24976
  20
220.93706
  42
0.35175093
  0
VERTEX
  5
7e5
  8
Layer_1
  10
131.07837
  20
220.10234
  42
0.18868358
  0
VERTEX
  5
7e6
  8
Layer_1
  10
131.18237
  20
218.65776
  42
0.28766052
  0
VERTEX
  5
7e7
  8
Layer_1
  10
132.24976
  20
218.06596
  0
VERTEX
  5
7e8
  8
Layer_1
  10
132.52686
  20
218.08989
  0
SEQEND
  0
POLYLINE
  5
7ea
  8
Layer_1
  62
5
  66
1
  10
0
  20
0
  30
0
  0
VERTEX
  5
7ea
  8
Layer_1
  10
134.68335
  20
219.68242
  0
VERTEX
  5
7eb
  8
Layer_1
  10
134.69629
  20
219.87236
  42
-0.40466791
  0
VERTEX
  5
7ec
  8
Layer_1
  10
135.46753
  20
220.54643
  42
-0.38296235
  0
VERTEX
  5
7ed
  8
Layer_1
  10
136.03516
  20
220.11235
  42
-0.064329299
  0
VERTEX
  5
7ee
  8
Layer_1
  10
136.073
  20
219.77299
  0
VERTEX
  5
7ef
  8
Layer_1
  10
136.073
  20
218.13725
  0
VERTEX
  5
7f0
  8
Layer_1
  10
136.52222
  20
218.13725
  0
VERTEX
  5
7f1
  8
Layer_1
  10
136.52222
  20
219.78789
  42
0.17437588
  0
VERTEX
  5
7f2
  8
Layer_1
  10
136.28052
  20
220.6458
  42
0.36538305
  0
VERTEX
  5
7f3
  8
Layer_1
  10
134.95776
  20
220.74663
  42
0.08598845
  0
VERTEX
  5
7f4
  8
Layer_1
  10
134.68335
  20
220.44658
  0
VERTEX
  5
7f5
  8
Layer_1
  10
134.68335
  20
220.87163
  0
VERTEX
  5
7f6
  8
Layer_1
  10
134.23169
  20
220.87163
  0
VERTEX
  5
7f7
  8
Layer_1
  10
134.23169
  20
218.13725
  0
VERTEX
  5
7f8
  8
Layer_1
  10
134.68335
  20
218.13725
  0
VERTEX
  5
7f9
  8
Layer_1
  10
134.68335
  20
219.68242
  0
SEQEND
  0
POLYLINE
  5
7fb
  8
Layer_1
  62
5
  66
1
  10
0
  20
0
  30
0
  0
VERTEX
  5
7fb
  8
Layer_1
  10
138.28174
  20
218.46025
  0
VERTEX
  5
7fc
  8
Layer_1
  10
138.13232
  20
218.51323
  42
-0.24773275
  0
VERTEX
  5
7fd
  8
Layer_1
  10
137.69922
  20
219.26762
  42
-0.18455467
  0
VERTEX
  5
7fe
  8
Layer_1
  10
137.89038
  20
220.27934
  42
-0.3665174
  0
VERTEX
  5
7ff
  8
Layer_1
  10
138.7688
  20
220.49077
  42
-0.24787788
  0
VERTEX
  5
800
  8
Layer_1
  10
139.2041
  20
219.73637
  42
-0.1851505
  0
VERTEX
  5
801
  8
Layer_1
  10
139.01172
  20
218.72466
  42
-0.30605059
  0
VERTEX
  5
802
  8
Layer_1
  10
138.28174
  20
218.46025
  0
SEQEND
  0
POLYLINE
  5
804
  8
Layer_1
  62
5
  70
1
  66
1
  10
0
  20
0
  30
0
  0
VERTEX
  5
804
  8
Layer_1
  10
132.07764
  20
218.46489
  42
-0.28384146
  0
VERTEX
  5
805
  8
Layer_1
  10
131.52075
  20
219.06352
  42
-0.20818013
  0
VERTEX
  5
806
  8
Layer_1
  10
131.67847
  20
220.2747
  42
-0.36061727
  0
VERTEX
  5
807
  8
Layer_1
  10
132.57153
  20
220.48564
  42
-0.24694064
  0
VERTEX
  5
808
  8
Layer_1
  10
133.01538
  20
219.73247
  42
-0.18925182
  0
VERTEX
  5
809
  8
Layer_1
  10
132.81885
  20
218.73051
  42
-0.30310264
  0
SEQEND
  0
POLYLINE
  5
80b
  8
Layer_1
  62
5
  66
1
  10
0
  20
0
  30
0
  0
VERTEX
  5
80b
  8
Layer_1
  10
23.034996
  20
208.1618
  0
VERTEX
  5
80c
  8
Layer_1
  10
23.034996
  20
208.64764
  0
VERTEX
  5
80d
  8
Layer_1
  10
22.117098
  20
209.33124
  0
VERTEX
  5
80e
  8
Layer_1
  10
22.117098
  20
208.9577
  0
VERTEX
  5
80f
  8
Layer_1
  10
23.034996
  20
208.1618
  0
SEQEND
  0
POLYLINE
  5
811
  8
Layer_1
  62
5
  66
1
  10
0
  20
0
  30
0
  0
VERTEX
  5
811
  8
Layer_1
  10
18.986967
  20
216.71063
  42
0.077125705
  0
VERTEX
  5
812
  8
Layer_1
  10
19.162735
  20
216.13177
  0
VERTEX
  5
813
  8
Layer_1
  10
19.316532
  20
215.86566
  0
VERTEX
  5
814
  8
Layer_1
  10
19.832117
  20
215.86566
  0
VERTEX
  5
815
  8
Layer_1
  10
19.723482
  20
215.99188
  42
-0.31442248
  0
VERTEX
  5
816
  8
Layer_1
  10
19.58531
  20
217.76801
  42
-0.21404688
  0
VERTEX
  5
817
  8
Layer_1
  10
20.515902
  20
218.26361
  42
-0.14720544
  0
VERTEX
  5
818
  8
Layer_1
  10
21.747009
  20
218.0976
  42
-0.24201482
  0
VERTEX
  5
819
  8
Layer_1
  10
22.317522
  20
217.28949
  42
-0.24246195
  0
VERTEX
  5
81a
  8
Layer_1
  10
21.880543
  20
215.86566
  0
VERTEX
  5
81b
  8
Layer_1
  10
22.400034
  20
215.86566
  42
0.29048804
  0
VERTEX
  5
81c
  8
Layer_1
  10
22.461798
  20
218.06854
  42
0.23556066
  0
VERTEX
  5
81d
  8
Layer_1
  10
21.068594
  20
218.7973
  42
0.18126173
  0
VERTEX
  5
81e
  8
Layer_1
  10
19.604107
  20
218.44012
  42
0.2441962
  0
VERTEX
  5
81f
  8
Layer_1
  10
18.964996
  20
217.02509
  0
VERTEX
  5
820
  8
Layer_1
  10
18.986967
  20
216.71063
  0
SEQEND
  0
POLYLINE
  5
822
  8
Layer_1
  62
5
  66
1
  10
0
  20
0
  30
0
  0
VERTEX
  5
822
  8
Layer_1
  10
19.451042
  20
203.19135
  0
VERTEX
  5
823
  8
Layer_1
  10
19.451042
  20
203.99677
  0
VERTEX
  5
824
  8
Layer_1
  10
22.681263
  20
203.99677
  0
VERTEX
  5
825
  8
Layer_1
  10
22.681263
  20
204.49066
  0
VERTEX
  5
826
  8
Layer_1
  10
22.505495
  20
205.36176
  0
VERTEX
  5
827
  8
Layer_1
  10
22.056311
  20
205.36176
  0
VERTEX
  5
828
  8
Layer_1
  10
22.232079
  20
204.48505
  0
VERTEX
  5
829
  8
Layer_1
  10
19.451042
  20
204.48505
  0
VERTEX
  5
82a
  8
Layer_1
  10
19.451042
  20
205.29144
  0
VERTEX
  5
82b
  8
Layer_1
  10
19.036278
  20
205.29144
  0
VERTEX
  5
82c
  8
Layer_1
  10
19.036278
  20
203.19135
  0
VERTEX
  5
82d
  8
Layer_1
  10
19.451042
  20
203.19135
  0
SEQEND
  0
POLYLINE
  5
82f
  8
Layer_1
  62
5
  66
1
  10
0
  20
0
  30
0
  0
VERTEX
  5
82f
  8
Layer_1
  10
19.411983
  20
210.69525
  42
-0.022757325
  0
VERTEX
  5
830
  8
Layer_1
  10
19.417841
  20
211.28558
  42
-0.19157544
  0
VERTEX
  5
831
  8
Layer_1
  10
19.476416
  20
211.49158
  42
-0.19159396
  0
VERTEX
  5
832
  8
Layer_1
  10
19.662209
  20
211.59808
  42
-0.051850696
  0
VERTEX
  5
833
  8
Layer_1
  10
19.936844
  20
211.62103
  0
VERTEX
  5
834
  8
Layer_1
  10
21.421106
  20
211.62103
  0
VERTEX
  5
835
  8
Layer_1
  10
21.421106
  20
210.69525
  0
VERTEX
  5
836
  8
Layer_1
  10
21.770445
  20
210.69525
  0
VERTEX
  5
837
  8
Layer_1
  10
21.770445
  20
211.62103
  0
VERTEX
  5
838
  8
Layer_1
  10
22.546751
  20
211.62103
  0
VERTEX
  5
839
  8
Layer_1
  10
22.546751
  20
212.07269
  0
VERTEX
  5
83a
  8
Layer_1
  10
21.770445
  20
212.07269
  0
VERTEX
  5
83b
  8
Layer_1
  10
21.770445
  20
212.40228
  0
VERTEX
  5
83c
  8
Layer_1
  10
21.421106
  20
212.40228
  0
VERTEX
  5
83d
  8
Layer_1
  10
21.421106
  20
212.07269
  0
VERTEX
  5
83e
  8
Layer_1
  10
19.936844
  20
212.07269
  42
0.19317337
  0
VERTEX
  5
83f
  8
Layer_1
  10
19.230356
  20
211.87469
  42
0.18769829
  0
VERTEX
  5
840
  8
Layer_1
  10
19.03628
  20
211.15692
  0
VERTEX
  5
841
  8
Layer_1
  10
19.03628
  20
210.69525
  0
VERTEX
  5
842
  8
Layer_1
  10
19.411983
  20
210.69525
  0
SEQEND
  0
POLYLINE
  5
844
  8
Layer_1
  62
5
  66
1
  10
0
  20
0
  30
0
  0
VERTEX
  5
844
  8
Layer_1
  10
18.98892
  20
213.7868
  42
0.11251579
  0
VERTEX
  5
845
  8
Layer_1
  10
19.180067
  20
213.3266
  42
0.20779307
  0
VERTEX
  5
846
  8
Layer_1
  10
20.083319
  20
212.83026
  42
0.15497927
  0
VERTEX
  5
847
  8
Layer_1
  10
21.246315
  20
212.9975
  42
0.28663139
  0
VERTEX
  5
848
  8
Layer_1
  10
21.835869
  20
214.06415
  42
0.3515279
  0
VERTEX
  5
849
  8
Layer_1
  10
21.001217
  20
215.23553
  42
0.18887129
  0
VERTEX
  5
84a
  8
Layer_1
  10
19.556747
  20
215.13129
  42
0.28760566
  0
VERTEX
  5
84b
  8
Layer_1
  10
18.964996
  20
214.06415
  0
VERTEX
  5
84c
  8
Layer_1
  10
18.98892
  20
213.7868
  0
SEQEND
  0
POLYLINE
  5
84e
  8
Layer_1
  62
5
  66
1
  10
0
  20
0
  30
0
  0
VERTEX
  5
84e
  8
Layer_1
  10
18.978666
  20
208.62225
  42
0.073301544
  0
VERTEX
  5
84f
  8
Layer_1
  10
19.175184
  20
207.87103
  0
VERTEX
  5
850
  8
Layer_1
  10
19.600201
  20
207.87103
  0
VERTEX
  5
851
  8
Layer_1
  10
19.48888
  20
208.11102
  42
-0.17094852
  0
VERTEX
  5
852
  8
Layer_1
  10
19.407101
  20
209.25238
  42
-0.27564279
  0
VERTEX
  5
853
  8
Layer_1
  10
20.077948
  20
209.80292
  0
VERTEX
  5
854
  8
Layer_1
  10
20.296192
  20
209.83124
  0
VERTEX
  5
855
  8
Layer_1
  10
20.296192
  20
207.7663
  42
0.14051017
  0
VERTEX
  5
856
  8
Layer_1
  10
21.287327
  20
207.94672
  42
0.28097219
  0
VERTEX
  5
857
  8
Layer_1
  10
21.835869
  20
208.96014
  42
0.39844709
  0
VERTEX
  5
858
  8
Layer_1
  10
20.694843
  20
210.27728
  42
0.17810974
  0
VERTEX
  5
859
  8
Layer_1
  10
19.553085
  20
210.08514
  42
0.21853059
  0
VERTEX
  5
85a
  8
Layer_1
  10
18.988918
  20
209.19208
  42
0.064884749
  0
VERTEX
  5
85b
  8
Layer_1
  10
18.978666
  20
208.62225
  0
SEQEND
  0
POLYLINE
  5
85d
  8
Layer_1
  62
5
  66
1
  10
0
  20
0
  30
0
  0
VERTEX
  5
85d
  8
Layer_1
  10
19.363892
  20
214.23627
  42
-0.28430112
  0
VERTEX
  5
85e
  8
Layer_1
  10
19.962477
  20
214.79315
  42
-0.20787306
  0
VERTEX
  5
85f
  8
Layer_1
  10
21.173567
  20
214.63544
  42
-0.36082077
  0
VERTEX
  5
860
  8
Layer_1
  10
21.384487
  20
213.74261
  42
-0.24681449
  0
VERTEX
  5
861
  8
Layer_1
  10
20.631372
  20
213.29828
  42
-0.18982038
  0
VERTEX
  5
862
  8
Layer_1
  10
19.629496
  20
213.4953
  42
-0.30319879
  0
VERTEX
  5
863
  8
Layer_1
  10
19.363892
  20
214.23627
  0
SEQEND
  0
POLYLINE
  5
865
  8
Layer_1
  62
5
  70
1
  66
1
  10
0
  20
0
  30
0
  0
VERTEX
  5
865
  8
Layer_1
  10
20.82667
  20
209.78802
  0
VERTEX
  5
866
  8
Layer_1
  10
20.987301
  20
209.73505
  42
-0.35194322
  0
VERTEX
  5
867
  8
Layer_1
  10
21.441856
  20
208.79681
  42
-0.37313686
  0
VERTEX
  5
868
  8
Layer_1
  10
20.647728
  20
208.21552
  0
VERTEX
  5
869
  8
Layer_1
  10
20.644554
  20
209.81708
  0
SEQEND
  0
POLYLINE
  5
86b
  8
Layer_1
  62
5
  66
1
  10
0
  20
0
  30
0
  0
VERTEX
  5
86b
  8
Layer_1
  10
109.035
  20
97.161804
  0
VERTEX
  5
86c
  8
Layer_1
  10
109.035
  20
97.647644
  0
VERTEX
  5
86d
  8
Layer_1
  10
108.1171
  20
98.331238
  0
VERTEX
  5
86e
  8
Layer_1
  10
108.1171
  20
97.957703
  0
VERTEX
  5
86f
  8
Layer_1
  10
109.035
  20
97.161804
  0
SEQEND
  0
POLYLINE
  5
871
  8
Layer_1
  62
5
  66
1
  10
0
  20
0
  30
0
  0
VERTEX
  5
871
  8
Layer_1
  10
104.98697
  20
105.71063
  42
0.077125705
  0
VERTEX
  5
872
  8
Layer_1
  10
105.16273
  20
105.13177
  0
VERTEX
  5
873
  8
Layer_1
  10
105.31653
  20
104.86566
  0
VERTEX
  5
874
  8
Layer_1
  10
105.83212
  20
104.86566
  0
VERTEX
  5
875
  8
Layer_1
  10
105.72348
  20
104.99188
  42
-0.31442248
  0
VERTEX
  5
876
  8
Layer_1
  10
105.58531
  20
106.76801
  42
-0.21404688
  0
VERTEX
  5
877
  8
Layer_1
  10
106.5159
  20
107.26361
  42
-0.14720544
  0
VERTEX
  5
878
  8
Layer_1
  10
107.74701
  20
107.0976
  42
-0.24201482
  0
VERTEX
  5
879
  8
Layer_1
  10
108.31752
  20
106.28949
  42
-0.24246195
  0
VERTEX
  5
87a
  8
Layer_1
  10
107.88055
  20
104.86566
  0
VERTEX
  5
87b
  8
Layer_1
  10
108.40003
  20
104.86566
  42
0.29048804
  0
VERTEX
  5
87c
  8
Layer_1
  10
108.4618
  20
107.06854
  42
0.23556066
  0
VERTEX
  5
87d
  8
Layer_1
  10
107.0686
  20
107.7973
  42
0.18126173
  0
VERTEX
  5
87e
  8
Layer_1
  10
105.6041
  20
107.44012
  42
0.2441962
  0
VERTEX
  5
87f
  8
Layer_1
  10
104.965
  20
106.02509
  0
VERTEX
  5
880
  8
Layer_1
  10
104.98697
  20
105.71063
  0
SEQEND
  0
POLYLINE
  5
882
  8
Layer_1
  62
5
  66
1
  10
0
  20
0
  30
0
  0
VERTEX
  5
882
  8
Layer_1
  10
105.45104
  20
92.191345
  0
VERTEX
  5
883
  8
Layer_1
  10
105.45104
  20
92.996765
  0
VERTEX
  5
884
  8
Layer_1
  10
108.68126
  20
92.996765
  0
VERTEX
  5
885
  8
Layer_1
  10
108.68126
  20
93.490662
  0
VERTEX
  5
886
  8
Layer_1
  10
108.50549
  20
94.361755
  0
VERTEX
  5
887
  8
Layer_1
  10
108.05631
  20
94.361755
  0
VERTEX
  5
888
  8
Layer_1
  10
108.23208
  20
93.485046
  0
VERTEX
  5
889
  8
Layer_1
  10
105.45104
  20
93.485046
  0
VERTEX
  5
88a
  8
Layer_1
  10
105.45104
  20
94.291443
  0
VERTEX
  5
88b
  8
Layer_1
  10
105.03628
  20
94.291443
  0
VERTEX
  5
88c
  8
Layer_1
  10
105.03628
  20
92.191345
  0
VERTEX
  5
88d
  8
Layer_1
  10
105.45104
  20
92.191345
  0
SEQEND
  0
POLYLINE
  5
88f
  8
Layer_1
  62
5
  66
1
  10
0
  20
0
  30
0
  0
VERTEX
  5
88f
  8
Layer_1
  10
105.41198
  20
99.695251
  42
-0.022757325
  0
VERTEX
  5
890
  8
Layer_1
  10
105.41784
  20
100.28558
  42
-0.19157544
  0
VERTEX
  5
891
  8
Layer_1
  10
105.47642
  20
100.49158
  42
-0.19159396
  0
VERTEX
  5
892
  8
Layer_1
  10
105.66221
  20
100.59808
  42
-0.051850696
  0
VERTEX
  5
893
  8
Layer_1
  10
105.93684
  20
100.62103
  0
VERTEX
  5
894
  8
Layer_1
  10
107.4211
  20
100.62103
  0
VERTEX
  5
895
  8
Layer_1
  10
107.4211
  20
99.695251
  0
VERTEX
  5
896
  8
Layer_1
  10
107.77045
  20
99.695251
  0
VERTEX
  5
897
  8
Layer_1
  10
107.77045
  20
100.62103
  0
VERTEX
  5
898
  8
Layer_1
  10
108.54675
  20
100.62103
  0
VERTEX
  5
899
  8
Layer_1
  10
108.54675
  20
101.07269
  0
VERTEX
  5
89a
  8
Layer_1
  10
107.77045
  20
101.07269
  0
VERTEX
  5
89b
  8
Layer_1
  10
107.77045
  20
101.40228
  0
VERTEX
  5
89c
  8
Layer_1
  10
107.4211
  20
101.40228
  0
VERTEX
  5
89d
  8
Layer_1
  10
107.4211
  20
101.07269
  0
VERTEX
  5
89e
  8
Layer_1
  10
105.93684
  20
101.07269
  42
0.19317337
  0
VERTEX
  5
89f
  8
Layer_1
  10
105.23035
  20
100.87469
  42
0.18769829
  0
VERTEX
  5
8a0
  8
Layer_1
  10
105.03628
  20
100.15692
  0
VERTEX
  5
8a1
  8
Layer_1
  10
105.03628
  20
99.695251
  0
VERTEX
  5
8a2
  8
Layer_1
  10
105.41198
  20
99.695251
  0
SEQEND
  0
POLYLINE
  5
8a4
  8
Layer_1
  62
5
  66
1
  10
0
  20
0
  30
0
  0
VERTEX
  5
8a4
  8
Layer_1
  10
104.98892
  20
102.7868
  42
0.11251579
  0
VERTEX
  5
8a5
  8
Layer_1
  10
105.18007
  20
102.3266
  42
0.20779307
  0
VERTEX
  5
8a6
  8
Layer_1
  10
106.08332
  20
101.83026
  42
0.15497927
  0
VERTEX
  5
8a7
  8
Layer_1
  10
107.24632
  20
101.9975
  42
0.28663139
  0
VERTEX
  5
8a8
  8
Layer_1
  10
107.83587
  20
103.06415
  42
0.3515279
  0
VERTEX
  5
8a9
  8
Layer_1
  10
107.00121
  20
104.23553
  42
0.18887129
  0
VERTEX
  5
8aa
  8
Layer_1
  10
105.55675
  20
104.13129
  42
0.28760566
  0
VERTEX
  5
8ab
  8
Layer_1
  10
104.965
  20
103.06415
  0
VERTEX
  5
8ac
  8
Layer_1
  10
104.98892
  20
102.7868
  0
SEQEND
  0
POLYLINE
  5
8ae
  8
Layer_1
  62
5
  66
1
  10
0
  20
0
  30
0
  0
VERTEX
  5
8ae
  8
Layer_1
  10
104.97867
  20
97.622253
  42
0.073301544
  0
VERTEX
  5
8af
  8
Layer_1
  10
105.17519
  20
96.871033
  0
VERTEX
  5
8b0
  8
Layer_1
  10
105.6002
  20
96.871033
  0
VERTEX
  5
8b1
  8
Layer_1
  10
105.48888
  20
97.111023
  42
-0.17094852
  0
VERTEX
  5
8b2
  8
Layer_1
  10
105.4071
  20
98.25238
  42
-0.27564279
  0
VERTEX
  5
8b3
  8
Layer_1
  10
106.07795
  20
98.802917
  0
VERTEX
  5
8b4
  8
Layer_1
  10
106.29619
  20
98.831238
  0
VERTEX
  5
8b5
  8
Layer_1
  10
106.29619
  20
96.766296
  42
0.14051017
  0
VERTEX
  5
8b6
  8
Layer_1
  10
107.28733
  20
96.946716
  42
0.28097219
  0
VERTEX
  5
8b7
  8
Layer_1
  10
107.83587
  20
97.960144
  42
0.39844709
  0
VERTEX
  5
8b8
  8
Layer_1
  10
106.69484
  20
99.277283
  42
0.17810974
  0
VERTEX
  5
8b9
  8
Layer_1
  10
105.55309
  20
99.085144
  42
0.21853059
  0
VERTEX
  5
8ba
  8
Layer_1
  10
104.98892
  20
98.192078
  42
0.064884749
  0
VERTEX
  5
8bb
  8
Layer_1
  10
104.97867
  20
97.622253
  0
SEQEND
  0
POLYLINE
  5
8bd
  8
Layer_1
  62
5
  66
1
  10
0
  20
0
  30
0
  0
VERTEX
  5
8bd
  8
Layer_1
  10
105.36389
  20
103.23627
  42
-0.28430112
  0
VERTEX
  5
8be
  8
Layer_1
  10
105.96248
  20
103.79315
  42
-0.20787306
  0
VERTEX
  5
8bf
  8
Layer_1
  10
107.17357
  20
103.63544
  42
-0.36082077
  0
VERTEX
  5
8c0
  8
Layer_1
  10
107.38449
  20
102.74261
  42
-0.24681449
  0
VERTEX
  5
8c1
  8
Layer_1
  10
106.63137
  20
102.29828
  42
-0.18982038
  0
VERTEX
  5
8c2
  8
Layer_1
  10
105.62949
  20
102.4953
  42
-0.30319879
  0
VERTEX
  5
8c3
  8
Layer_1
  10
105.36389
  20
103.23627
  0
SEQEND
  0
POLYLINE
  5
8c5
  8
Layer_1
  62
5
  70
1
  66
1
  10
0
  20
0
  30
0
  0
VERTEX
  5
8c5
  8
Layer_1
  10
106.82667
  20
98.788025
  0
VERTEX
  5
8c6
  8
Layer_1
  10
106.9873
  20
98.735046
  42
-0.35194322
  0
VERTEX
  5
8c7
  8
Layer_1
  10
107.44186
  20
97.796814
  42
-0.37313686
  0
VERTEX
  5
8c8
  8
Layer_1
  10
106.64773
  20
97.215515
  0
VERTEX
  5
8c9
  8
Layer_1
  10
106.64455
  20
98.817078
  0
SEQEND
  0
POLYLINE
  5
8cb
  8
Layer_1
  62
5
  66
1
  10
0
  20
0
  30
0
  0
VERTEX
  5
8cb
  8
Layer_1
  10
47.035
  20
208.16083
  0
VERTEX
  5
8cc
  8
Layer_1
  10
47.035
  20
208.64691
  0
VERTEX
  5
8cd
  8
Layer_1
  10
46.1171
  20
209.33051
  0
VERTEX
  5
8ce
  8
Layer_1
  10
46.1171
  20
208.95697
  0
VERTEX
  5
8cf
  8
Layer_1
  10
47.035
  20
208.16083
  0
SEQEND
  0
POLYLINE
  5
8d1
  8
Layer_1
  62
5
  66
1
  10
0
  20
0
  30
0
  0
VERTEX
  5
8d1
  8
Layer_1
  10
42.986969
  20
216.71039
  42
0.077065365
  0
VERTEX
  5
8d2
  8
Layer_1
  10
43.162739
  20
216.13104
  0
VERTEX
  5
8d3
  8
Layer_1
  10
43.316536
  20
215.86493
  0
VERTEX
  5
8d4
  8
Layer_1
  10
43.832119
  20
215.86493
  0
VERTEX
  5
8d5
  8
Layer_1
  10
43.723488
  20
215.99115
  42
-0.31437329
  0
VERTEX
  5
8d6
  8
Layer_1
  10
43.585312
  20
217.76801
  42
-0.21404688
  0
VERTEX
  5
8d7
  8
Layer_1
  10
44.515907
  20
218.26361
  42
-0.14720544
  0
VERTEX
  5
8d8
  8
Layer_1
  10
45.747013
  20
218.0976
  42
-0.24201482
  0
VERTEX
  5
8d9
  8
Layer_1
  10
46.317524
  20
217.28949
  42
-0.24257449
  0
VERTEX
  5
8da
  8
Layer_1
  10
45.880547
  20
215.86493
  0
VERTEX
  5
8db
  8
Layer_1
  10
46.40004
  20
215.86493
  42
0.29048778
  0
VERTEX
  5
8dc
  8
Layer_1
  10
46.4618
  20
218.06781
  42
0.23553894
  0
VERTEX
  5
8dd
  8
Layer_1
  10
45.0686
  20
218.79657
  42
0.18123651
  0
VERTEX
  5
8de
  8
Layer_1
  10
43.604111
  20
218.43939
  42
0.24422474
  0
VERTEX
  5
8df
  8
Layer_1
  10
42.965
  20
217.02411
  0
VERTEX
  5
8e0
  8
Layer_1
  10
42.986969
  20
216.71039
  0
SEQEND
  0
POLYLINE
  5
8e2
  8
Layer_1
  62
5
  66
1
  10
0
  20
0
  30
0
  0
VERTEX
  5
8e2
  8
Layer_1
  10
43.451046
  20
203.22968
  0
VERTEX
  5
8e3
  8
Layer_1
  10
43.451046
  20
204.95087
  0
VERTEX
  5
8e4
  8
Layer_1
  10
44.397018
  20
204.02802
  42
0.098315579
  0
VERTEX
  5
8e5
  8
Layer_1
  10
45.280983
  20
203.33368
  42
0.3280269
  0
VERTEX
  5
8e6
  8
Layer_1
  10
46.463753
  20
203.58636
  42
0.20109742
  0
VERTEX
  5
8e7
  8
Layer_1
  10
46.731556
  20
204.71552
  42
0.059946419
  0
VERTEX
  5
8e8
  8
Layer_1
  10
46.505497
  20
205.5202
  0
VERTEX
  5
8e9
  8
Layer_1
  10
46.007004
  20
205.5202
  0
VERTEX
  5
8ea
  8
Layer_1
  10
46.150303
  20
205.23602
  42
-0.14100188
  0
VERTEX
  5
8eb
  8
Layer_1
  10
46.320454
  20
204.32416
  42
-0.38968525
  0
VERTEX
  5
8ec
  8
Layer_1
  10
45.674995
  20
203.7453
  42
-0.17605952
  0
VERTEX
  5
8ed
  8
Layer_1
  10
44.86256
  20
204.16962
  42
-0.010650254
  0
VERTEX
  5
8ee
  8
Layer_1
  10
43.451046
  20
205.54462
  0
VERTEX
  5
8ef
  8
Layer_1
  10
43.036282
  20
205.54462
  0
VERTEX
  5
8f0
  8
Layer_1
  10
43.036282
  20
203.22968
  0
VERTEX
  5
8f1
  8
Layer_1
  10
43.451046
  20
203.22968
  0
SEQEND
  0
POLYLINE
  5
8f3
  8
Layer_1
  62
5
  66
1
  10
0
  20
0
  30
0
  0
VERTEX
  5
8f3
  8
Layer_1
  10
43.411987
  20
210.69452
  42
-0.022800614
  0
VERTEX
  5
8f4
  8
Layer_1
  10
43.417847
  20
211.28461
  42
-0.19165483
  0
VERTEX
  5
8f5
  8
Layer_1
  10
43.476341
  20
211.49075
  42
-0.19167393
  0
VERTEX
  5
8f6
  8
Layer_1
  10
43.662212
  20
211.59735
  42
-0.051850509
  0
VERTEX
  5
8f7
  8
Layer_1
  10
43.936848
  20
211.6203
  0
VERTEX
  5
8f8
  8
Layer_1
  10
45.421108
  20
211.6203
  0
VERTEX
  5
8f9
  8
Layer_1
  10
45.421108
  20
210.69452
  0
VERTEX
  5
8fa
  8
Layer_1
  10
45.770447
  20
210.69452
  0
VERTEX
  5
8fb
  8
Layer_1
  10
45.770447
  20
211.6203
  0
VERTEX
  5
8fc
  8
Layer_1
  10
46.546757
  20
211.6203
  0
VERTEX
  5
8fd
  8
Layer_1
  10
46.546757
  20
212.07196
  0
VERTEX
  5
8fe
  8
Layer_1
  10
45.770447
  20
212.07196
  0
VERTEX
  5
8ff
  8
Layer_1
  10
45.770447
  20
212.40155
  0
VERTEX
  5
900
  8
Layer_1
  10
45.421108
  20
212.40155
  0
VERTEX
  5
901
  8
Layer_1
  10
45.421108
  20
212.07196
  0
VERTEX
  5
902
  8
Layer_1
  10
43.936848
  20
212.07196
  42
0.19279791
  0
VERTEX
  5
903
  8
Layer_1
  10
43.230358
  20
211.87421
  42
0.18794335
  0
VERTEX
  5
904
  8
Layer_1
  10
43.036282
  20
211.15619
  0
VERTEX
  5
905
  8
Layer_1
  10
43.036282
  20
210.69452
  0
VERTEX
  5
906
  8
Layer_1
  10
43.411987
  20
210.69452
  0
SEQEND
  0
POLYLINE
  5
908
  8
Layer_1
  62
5
  66
1
  10
0
  20
0
  30
0
  0
VERTEX
  5
908
  8
Layer_1
  10
42.988922
  20
213.78607
  42
0.11251635
  0
VERTEX
  5
909
  8
Layer_1
  10
43.180069
  20
213.32587
  42
0.20779261
  0
VERTEX
  5
90a
  8
Layer_1
  10
44.083321
  20
212.82953
  42
0.15497906
  0
VERTEX
  5
90b
  8
Layer_1
  10
45.246319
  20
212.99677
  42
0.28658687
  0
VERTEX
  5
90c
  8
Layer_1
  10
45.835873
  20
214.06317
  42
0.35174395
  0
VERTEX
  5
90d
  8
Layer_1
  10
45.001221
  20
215.23456
  42
0.18869697
  0
VERTEX
  5
90e
  8
Layer_1
  10
43.556751
  20
215.13055
  42
0.28765085
  0
VERTEX
  5
90f
  8
Layer_1
  10
42.965
  20
214.06317
  0
VERTEX
  5
910
  8
Layer_1
  10
42.988922
  20
213.78607
  0
SEQEND
  0
POLYLINE
  5
912
  8
Layer_1
  62
5
  66
1
  10
0
  20
0
  30
0
  0
VERTEX
  5
912
  8
Layer_1
  10
42.978668
  20
208.62152
  42
0.073301405
  0
VERTEX
  5
913
  8
Layer_1
  10
43.175186
  20
207.8703
  0
VERTEX
  5
914
  8
Layer_1
  10
43.600204
  20
207.8703
  0
VERTEX
  5
915
  8
Layer_1
  10
43.488884
  20
208.11029
  42
-0.17096196
  0
VERTEX
  5
916
  8
Layer_1
  10
43.407104
  20
209.25165
  42
-0.27564272
  0
VERTEX
  5
917
  8
Layer_1
  10
44.07795
  20
209.80219
  0
VERTEX
  5
918
  8
Layer_1
  10
44.296196
  20
209.83051
  0
VERTEX
  5
919
  8
Layer_1
  10
44.296196
  20
207.76556
  42
0.14113623
  0
VERTEX
  5
91a
  8
Layer_1
  10
45.287331
  20
207.94623
  42
0.2807716
  0
VERTEX
  5
91b
  8
Layer_1
  10
45.835873
  20
208.95941
  42
0.39844218
  0
VERTEX
  5
91c
  8
Layer_1
  10
44.694847
  20
210.27655
  42
0.17810974
  0
VERTEX
  5
91d
  8
Layer_1
  10
43.553089
  20
210.08441
  42
0.21861289
  0
VERTEX
  5
91e
  8
Layer_1
  10
42.988922
  20
209.1911
  42
0.06491496
  0
VERTEX
  5
91f
  8
Layer_1
  10
42.978668
  20
208.62152
  0
SEQEND
  0
POLYLINE
  5
921
  8
Layer_1
  62
5
  66
1
  10
0
  20
0
  30
0
  0
VERTEX
  5
921
  8
Layer_1
  10
43.363895
  20
214.23553
  42
-0.28426709
  0
VERTEX
  5
922
  8
Layer_1
  10
43.962482
  20
214.79242
  42
-0.20783033
  0
VERTEX
  5
923
  8
Layer_1
  10
45.173569
  20
214.6347
  42
-0.36070566
  0
VERTEX
  5
924
  8
Layer_1
  10
45.384491
  20
213.74188
  42
-0.24681429
  0
VERTEX
  5
925
  8
Layer_1
  10
44.631374
  20
213.29755
  42
-0.18982008
  0
VERTEX
  5
926
  8
Layer_1
  10
43.629498
  20
213.49457
  42
-0.30319833
  0
VERTEX
  5
927
  8
Layer_1
  10
43.363895
  20
214.23553
  0
SEQEND
  0
POLYLINE
  5
929
  8
Layer_1
  62
5
  70
1
  66
1
  10
0
  20
0
  30
0
  0
VERTEX
  5
929
  8
Layer_1
  10
44.826672
  20
209.78729
  0
VERTEX
  5
92a
  8
Layer_1
  10
44.987305
  20
209.73407
  42
-0.3520972
  0
VERTEX
  5
92b
  8
Layer_1
  10
45.44186
  20
208.79681
  42
-0.37318849
  0
VERTEX
  5
92c
  8
Layer_1
  10
44.647732
  20
208.21478
  0
VERTEX
  5
92d
  8
Layer_1
  10
44.644558
  20
209.81635
  0
SEQEND
  0
POLYLINE
  5
92f
  8
Layer_1
  62
5
  66
1
  10
0
  20
0
  30
0
  0
VERTEX
  5
92f
  8
Layer_1
  10
159.03499
  20
97.142029
  0
VERTEX
  5
930
  8
Layer_1
  10
159.03499
  20
97.628113
  0
VERTEX
  5
931
  8
Layer_1
  10
158.1171
  20
98.311707
  0
VERTEX
  5
932
  8
Layer_1
  10
158.1171
  20
97.938171
  0
VERTEX
  5
933
  8
Layer_1
  10
159.03499
  20
97.142029
  0
SEQEND
  0
POLYLINE
  5
935
  8
Layer_1
  62
5
  66
1
  10
0
  20
0
  30
0
  0
VERTEX
  5
935
  8
Layer_1
  10
154.98697
  20
105.69159
  42
0.077065365
  0
VERTEX
  5
936
  8
Layer_1
  10
155.16273
  20
105.11224
  0
VERTEX
  5
937
  8
Layer_1
  10
155.31653
  20
104.84613
  0
VERTEX
  5
938
  8
Layer_1
  10
155.83212
  20
104.84613
  0
VERTEX
  5
939
  8
Layer_1
  10
155.72348
  20
104.97235
  42
-0.31437329
  0
VERTEX
  5
93a
  8
Layer_1
  10
155.58531
  20
106.74921
  42
-0.21404688
  0
VERTEX
  5
93b
  8
Layer_1
  10
156.5159
  20
107.24481
  42
-0.14720544
  0
VERTEX
  5
93c
  8
Layer_1
  10
157.74701
  20
107.0788
  42
-0.24201482
  0
VERTEX
  5
93d
  8
Layer_1
  10
158.31752
  20
106.27069
  42
-0.24257449
  0
VERTEX
  5
93e
  8
Layer_1
  10
157.88054
  20
104.84613
  0
VERTEX
  5
93f
  8
Layer_1
  10
158.40004
  20
104.84613
  42
0.29048778
  0
VERTEX
  5
940
  8
Layer_1
  10
158.46179
  20
107.04901
  42
0.23553894
  0
VERTEX
  5
941
  8
Layer_1
  10
157.06859
  20
107.77777
  42
0.18123651
  0
VERTEX
  5
942
  8
Layer_1
  10
155.60411
  20
107.42059
  42
0.24422474
  0
VERTEX
  5
943
  8
Layer_1
  10
154.965
  20
106.00531
  0
VERTEX
  5
944
  8
Layer_1
  10
154.98697
  20
105.69159
  0
SEQEND
  0
POLYLINE
  5
946
  8
Layer_1
  62
5
  66
1
  10
0
  20
0
  30
0
  0
VERTEX
  5
946
  8
Layer_1
  10
155.45103
  20
92.210876
  0
VERTEX
  5
947
  8
Layer_1
  10
155.45103
  20
93.932068
  0
VERTEX
  5
948
  8
Layer_1
  10
156.39702
  20
93.009216
  42
0.098315579
  0
VERTEX
  5
949
  8
Layer_1
  10
157.28098
  20
92.31488
  42
0.3280269
  0
VERTEX
  5
94a
  8
Layer_1
  10
158.46375
  20
92.567566
  42
0.20109742
  0
VERTEX
  5
94b
  8
Layer_1
  10
158.73155
  20
93.696716
  42
0.059946419
  0
VERTEX
  5
94c
  8
Layer_1
  10
158.50549
  20
94.501404
  0
VERTEX
  5
94d
  8
Layer_1
  10
158.007
  20
94.501404
  0
VERTEX
  5
94e
  8
Layer_1
  10
158.1503
  20
94.217224
  42
-0.14100188
  0
VERTEX
  5
94f
  8
Layer_1
  10
158.32045
  20
93.305359
  42
-0.38968525
  0
VERTEX
  5
950
  8
Layer_1
  10
157.67499
  20
92.726501
  42
-0.17605952
  0
VERTEX
  5
951
  8
Layer_1
  10
156.86255
  20
93.150818
  42
-0.010650254
  0
VERTEX
  5
952
  8
Layer_1
  10
155.45103
  20
94.525818
  0
VERTEX
  5
953
  8
Layer_1
  10
155.03629
  20
94.525818
  0
VERTEX
  5
954
  8
Layer_1
  10
155.03629
  20
92.210876
  0
VERTEX
  5
955
  8
Layer_1
  10
155.45103
  20
92.210876
  0
SEQEND
  0
POLYLINE
  5
957
  8
Layer_1
  62
5
  66
1
  10
0
  20
0
  30
0
  0
VERTEX
  5
957
  8
Layer_1
  10
155.41199
  20
99.67572
  42
-0.022800614
  0
VERTEX
  5
958
  8
Layer_1
  10
155.41785
  20
100.26581
  42
-0.19165483
  0
VERTEX
  5
959
  8
Layer_1
  10
155.47633
  20
100.47195
  42
-0.19167393
  0
VERTEX
  5
95a
  8
Layer_1
  10
155.6622
  20
100.57855
  42
-0.051850509
  0
VERTEX
  5
95b
  8
Layer_1
  10
155.93684
  20
100.6015
  0
VERTEX
  5
95c
  8
Layer_1
  10
157.42111
  20
100.6015
  0
VERTEX
  5
95d
  8
Layer_1
  10
157.42111
  20
99.67572
  0
VERTEX
  5
95e
  8
Layer_1
  10
157.77045
  20
99.67572
  0
VERTEX
  5
95f
  8
Layer_1
  10
157.77045
  20
100.6015
  0
VERTEX
  5
960
  8
Layer_1
  10
158.54675
  20
100.6015
  0
VERTEX
  5
961
  8
Layer_1
  10
158.54675
  20
101.05316
  0
VERTEX
  5
962
  8
Layer_1
  10
157.77045
  20
101.05316
  0
VERTEX
  5
963
  8
Layer_1
  10
157.77045
  20
101.38275
  0
VERTEX
  5
964
  8
Layer_1
  10
157.42111
  20
101.38275
  0
VERTEX
  5
965
  8
Layer_1
  10
157.42111
  20
101.05316
  0
VERTEX
  5
966
  8
Layer_1
  10
155.93684
  20
101.05316
  42
0.19279791
  0
VERTEX
  5
967
  8
Layer_1
  10
155.23036
  20
100.85541
  42
0.18794335
  0
VERTEX
  5
968
  8
Layer_1
  10
155.03629
  20
100.13739
  0
VERTEX
  5
969
  8
Layer_1
  10
155.03629
  20
99.67572
  0
VERTEX
  5
96a
  8
Layer_1
  10
155.41199
  20
99.67572
  0
SEQEND
  0
POLYLINE
  5
96c
  8
Layer_1
  62
5
  66
1
  10
0
  20
0
  30
0
  0
VERTEX
  5
96c
  8
Layer_1
  10
154.98892
  20
102.76727
  42
0.11251635
  0
VERTEX
  5
96d
  8
Layer_1
  10
155.18007
  20
102.30707
  42
0.20779261
  0
VERTEX
  5
96e
  8
Layer_1
  10
156.08331
  20
101.81073
  42
0.15497906
  0
VERTEX
  5
96f
  8
Layer_1
  10
157.24631
  20
101.97797
  42
0.28658687
  0
VERTEX
  5
970
  8
Layer_1
  10
157.83588
  20
103.04437
  42
0.35174395
  0
VERTEX
  5
971
  8
Layer_1
  10
157.00122
  20
104.21576
  42
0.18869697
  0
VERTEX
  5
972
  8
Layer_1
  10
155.55675
  20
104.11176
  42
0.28765085
  0
VERTEX
  5
973
  8
Layer_1
  10
154.965
  20
103.04437
  0
VERTEX
  5
974
  8
Layer_1
  10
154.98892
  20
102.76727
  0
SEQEND
  0
POLYLINE
  5
976
  8
Layer_1
  62
5
  66
1
  10
0
  20
0
  30
0
  0
VERTEX
  5
976
  8
Layer_1
  10
154.97867
  20
97.602722
  42
0.073301405
  0
VERTEX
  5
977
  8
Layer_1
  10
155.17519
  20
96.851501
  0
VERTEX
  5
978
  8
Layer_1
  10
155.6002
  20
96.851501
  0
VERTEX
  5
979
  8
Layer_1
  10
155.48888
  20
97.091492
  42
-0.17096196
  0
VERTEX
  5
97a
  8
Layer_1
  10
155.4071
  20
98.232849
  42
-0.27564272
  0
VERTEX
  5
97b
  8
Layer_1
  10
156.07794
  20
98.783386
  0
VERTEX
  5
97c
  8
Layer_1
  10
156.29619
  20
98.811707
  0
VERTEX
  5
97d
  8
Layer_1
  10
156.29619
  20
96.746765
  42
0.14113623
  0
VERTEX
  5
97e
  8
Layer_1
  10
157.28732
  20
96.927429
  42
0.2807716
  0
VERTEX
  5
97f
  8
Layer_1
  10
157.83586
  20
97.940613
  42
0.39844218
  0
VERTEX
  5
980
  8
Layer_1
  10
156.69484
  20
99.257751
  42
0.17810974
  0
VERTEX
  5
981
  8
Layer_1
  10
155.55309
  20
99.065613
  42
0.21861289
  0
VERTEX
  5
982
  8
Layer_1
  10
154.98892
  20
98.172302
  42
0.06491496
  0
VERTEX
  5
983
  8
Layer_1
  10
154.97867
  20
97.602722
  0
SEQEND
  0
POLYLINE
  5
985
  8
Layer_1
  62
5
  66
1
  10
0
  20
0
  30
0
  0
VERTEX
  5
985
  8
Layer_1
  10
155.36389
  20
103.21674
  42
-0.28426709
  0
VERTEX
  5
986
  8
Layer_1
  10
155.96248
  20
103.77362
  42
-0.20783033
  0
VERTEX
  5
987
  8
Layer_1
  10
157.17357
  20
103.61591
  42
-0.36070566
  0
VERTEX
  5
988
  8
Layer_1
  10
157.38449
  20
102.72308
  42
-0.24681429
  0
VERTEX
  5
989
  8
Layer_1
  10
156.63138
  20
102.27875
  42
-0.18982008
  0
VERTEX
  5
98a
  8
Layer_1
  10
155.6295
  20
102.47577
  42
-0.30319833
  0
VERTEX
  5
98b
  8
Layer_1
  10
155.36389
  20
103.21674
  0
SEQEND
  0
POLYLINE
  5
98d
  8
Layer_1
  62
5
  70
1
  66
1
  10
0
  20
0
  30
0
  0
VERTEX
  5
98d
  8
Layer_1
  10
156.82668
  20
98.768494
  0
VERTEX
  5
98e
  8
Layer_1
  10
156.9873
  20
98.715271
  42
-0.3520972
  0
VERTEX
  5
98f
  8
Layer_1
  10
157.44185
  20
97.778015
  42
-0.37318849
  0
VERTEX
  5
990
  8
Layer_1
  10
156.64772
  20
97.195984
  0
VERTEX
  5
991
  8
Layer_1
  10
156.64455
  20
98.797546
  0
SEQEND
  0
ENDSEC
  0
EOF
